  0
SECTION
  2
HEADER
  9
$ACADVER
  1
AC1014
  9
$ACADMAINTVER
 70
         0
  9
$DWGCODEPAGE
  3
ANSI_1252
  9
$INSBASE
 10
0.0
 20
0.0
 30
0.0
  9
$EXTMIN
 10
-1.305
 20
-0.125
 30
0.0
  9
$EXTMAX
 10
72.0
 20
82.925
 30
0.0
  9
$LIMMIN
 10
0.0
 20
0.0
  9
$LIMMAX
 10
0.0
 20
0.0
  9
$ORTHOMODE
 70
         0
  9
$REGENMODE
 70
         1
  9
$FILLMODE
 70
         1
  9
$QTEXTMODE
 70
         0
  9
$MIRRTEXT
 70
         1
  9
$DRAGMODE
 70
         2
  9
$LTSCALE
 40
1.0
  9
$OSMODE
 70
         0
  9
$ATTMODE
 70
         1
  9
$TEXTSIZE
 40
0.2
  9
$TRACEWID
 40
0.05
  9
$TEXTSTYLE
  7
STANDARD
  9
$CLAYER
  8
0
  9
$CELTYPE
  6
CONTINUOUS
  9
$CECOLOR
 62
       256
  9
$CELTSCALE
 40
1.0
  9
$DELOBJ
 70
         1
  9
$DISPSILH
 70
         0
  9
$DIMSCALE
 40
1.0
  9
$DIMASZ
 40
0.18
  9
$DIMEXO
 40
0.0625
  9
$DIMDLI
 40
0.38
  9
$DIMRND
 40
0.0
  9
$DIMDLE
 40
0.0
  9
$DIMEXE
 40
0.18
  9
$DIMTP
 40
0.0
  9
$DIMTM
 40
0.0
  9
$DIMTXT
 40
0.18
  9
$DIMCEN
 40
0.09
  9
$DIMTSZ
 40
0.0
  9
$DIMTOL
 70
         0
  9
$DIMLIM
 70
         0
  9
$DIMTIH
 70
         1
  9
$DIMTOH
 70
         1
  9
$DIMSE1
 70
         0
  9
$DIMSE2
 70
         0
  9
$DIMTAD
 70
         0
  9
$DIMZIN
 70
         0
  9
$DIMBLK
  1

  9
$DIMASO
 70
         1
  9
$DIMSHO
 70
         1
  9
$DIMPOST
  1

  9
$DIMAPOST
  1

  9
$DIMALT
 70
         0
  9
$DIMALTD
 70
         2
  9
$DIMALTF
 40
25.4
  9
$DIMLFAC
 40
1.0
  9
$DIMTOFL
 70
         0
  9
$DIMTVP
 40
0.0
  9
$DIMTIX
 70
         0
  9
$DIMSOXD
 70
         0
  9
$DIMSAH
 70
         0
  9
$DIMBLK1
  1

  9
$DIMBLK2
  1

  9
$DIMSTYLE
  2
STANDARD
  9
$DIMCLRD
 70
         0
  9
$DIMCLRE
 70
         0
  9
$DIMCLRT
 70
         0
  9
$DIMTFAC
 40
1.0
  9
$DIMGAP
 40
0.09
  9
$DIMJUST
 70
         0
  9
$DIMSD1
 70
         0
  9
$DIMSD2
 70
         0
  9
$DIMTOLJ
 70
         1
  9
$DIMTZIN
 70
         0
  9
$DIMALTZ
 70
         0
  9
$DIMALTTZ
 70
         0
  9
$DIMFIT
 70
         3
  9
$DIMUPT
 70
         0
  9
$DIMUNIT
 70
         2
  9
$DIMDEC
 70
         4
  9
$DIMTDEC
 70
         4
  9
$DIMALTU
 70
         2
  9
$DIMALTTD
 70
         2
  9
$DIMTXSTY
  7
STANDARD
  9
$DIMAUNIT
 70
         0
  9
$LUNITS
 70
         2
  9
$LUPREC
 70
         4
  9
$SKETCHINC
 40
0.1
  9
$FILLETRAD
 40
0.0
  9
$AUNITS
 70
         0
  9
$AUPREC
 70
         0
  9
$MENU
  1
acad
  9
$ELEVATION
 40
0.0
  9
$PELEVATION
 40
0.0
  9
$THICKNESS
 40
0.0
  9
$LIMCHECK
 70
         0
  9
$BLIPMODE
 70
         1
  9
$CHAMFERA
 40
0.0
  9
$CHAMFERB
 40
0.0
  9
$CHAMFERC
 40
0.0
  9
$CHAMFERD
 40
0.0
  9
$SKPOLY
 70
         0
  9
$TDCREATE
 40
2456601.366412037
  9
$TDUPDATE
 40
0.000000000
  9
$TDINDWG
 40
0.0000000000
  9
$TDUSRTIMER
 40
0.0000000000
  9
$USRTIMER
 70
         1
  9
$ANGBASE
 50
0.0
  9
$ANGDIR
 70
         0
  9
$PDMODE
 70
         0
  9
$PDSIZE
 40
0.0
  9
$PLINEWID
 40
0.0
  9
$COORDS
 70
         0
  9
$SPLFRAME
 70
         0
  9
$SPLINETYPE
 70
         6
  9
$SPLINESEGS
 70
         8
  9
$ATTDIA
 70
         0
  9
$ATTREQ
 70
         1
  9
$HANDLING
 70
         1
  9
$HANDSEED
  5
489
  9
$SURFTAB1
 70
         6
  9
$SURFTAB2
 70
         6
  9
$SURFTYPE
 70
         6
  9
$SURFU
 70
         6
  9
$SURFV
 70
         6
  9
$UCSNAME
  2

  9
$UCSORG
 10
0.0
 20
0.0
 30
0.0
  9
$UCSXDIR
 10
1.0
 20
0.0
 30
0.0
  9
$UCSYDIR
 10
0.0
 20
1.0
 30
0.0
  9
$PUCSNAME
  2

  9
$PUCSORG
 10
0.0
 20
0.0
 30
0.0
  9
$PUCSXDIR
 10
1.0
 20
0.0
 30
0.0
  9
$PUCSYDIR
 10
0.0
 20
1.0
 30
0.0
  9
$USERI1
 70
        -3
  9
$USERI2
 70
         0
  9
$USERI3
 70
         0
  9
$USERI4
 70
         0
  9
$USERI5
 70
         0
  9
$USERR1
 40
0.0
  9
$USERR2
 40
0.0
  9
$USERR3
 40
0.0
  9
$USERR4
 40
0.0
  9
$USERR5
 40
0.0
  9
$WORLDVIEW
 70
         1
  9
$SHADEDGE
 70
         3
  9
$SHADEDIF
 70
        70
  9
$TILEMODE
 70
         1
  9
$MAXACTVP
 70
        16
  9
$PINSBASE
 10
0.0
 20
0.0
 30
0.0
  9
$PLIMCHECK
 70
         0
  9
$PEXTMIN
 10
1.0000000000E+20
 20
1.0000000000E+20
 30
1.0000000000E+20
  9
$PEXTMAX
 10
-1.0000000000E+20
 20
-1.0000000000E+20
 30
-1.0000000000E+20
  9
$PLIMMIN
 10
0.0
 20
0.0
  9
$PLIMMAX
 10
12.0
 20
9.0
  9
$UNITMODE
 70
         0
  9
$VISRETAIN
 70
         0
  9
$PLINEGEN
 70
         1
  9
$PSLTSCALE
 70
         0
  9
$TREEDEPTH
 70
      3020
  9
$PICKSTYLE
 70
         1
  9
$CMLSTYLE
  2
STANDARD
  9
$CMLJUST
 70
         0
  9
$CMLSCALE
 40
1.0
  9
$PROXYGRAPHICS
 70
         0
  9
$MEASUREMENT
 70
         0
  0
ENDSEC
  0
SECTION
  2
CLASSES
  0
CLASS
  1
LWPOLYLINE
  2
AcDbPolyline
  3
"AutoCAD"
 90
        0
280
         0
281
         1
  0
CLASS
  1
IMAGE
  2
AcDbRasterImage
  3
ISM
 90
      127
280
         0
281
         1
  0
CLASS
  1
OLE2FRAME
  2
AcDbOle2Frame
  3
""
 90
        0
280
         0
281
         1
  0
CLASS
  1
HATCH
  2
AcDbHatch
  3
"ACAD_SEDONA"
 90
        0
280
         0
281
         1
  0
CLASS
  1
DICTIONARYVAR
  2
AcDbDictionaryVar
  3
"AutoCAD"
 90
        0
280
         0
281
         0
  0
CLASS
  1
RASTERVARIABLES
  2
AcDbRasterVariables
  3
ISM
 90
        0
280
         0
281
         0
  0
CLASS
  1
IMAGEDEF
  2
AcDbRasterImageDef
  3
ISM
 90
        0
280
         0
281
         0
  0
CLASS
  1
IMAGEDEF_REACTOR
  2
AcDbRasterImageDefReactor
  3
ISM
 90
        1
280
         0
281
         0
  0
CLASS
  1
IDBUFFER
  2
AcDbIdBuffer
  3
"Acad"
 90
        0
280
         0
281
         0
  0
CLASS
  1
SPATIAL_FILTER
  2
AcDbSpatialFilter
  3
"Acad"
 90
        0
280
         0
281
         0
  0
CLASS
  1
XRECORD
  2
AcDbXrecord
  3
"<Built In>"
 90
        0
280
         0
281
         0
  0
CLASS
  1
SORTENTSTABLE
  2
AcDbSortentsTable
  3
"AutoCAD"
 90
        0
280
         0
281
         0
  0
CLASS
  1
LAYER_INDEX
  2
AcDbLayerIndex
  3
"Acad"
 90
        0
280
         0
281
         0
  0
CLASS
  1
SPATIAL_INDEX
  2
AcDbSpatialIndex
  3
"Acad"
 90
        0
280
         0
281
         0
  0
CLASS
  1
OBJECT_PTR
  2
CAseDLPNTableRecord
  3
"ASE-LPNTableRecord"
 90
        1
280
         0
281
         0
  0
CLASS
  1
LAYOUT
  2
AcDbLayout
  3
"AutoCAD 2000"
 90
        0
280
         0
281
         0
  0
CLASS
  1
PLOTSETTINGS
  2
AcDbPlotSettings
  3
"AutoCAD 2000"
 90
        0
280
         0
281
         0
  0
CLASS
  1
ACDBDICTIONARYWDFLT
  2
AcDbDictionaryWithDefault
  3
"AutoCAD 2000"
 90
        0
280
         0
281
         0
  0
CLASS
  1
ACDBPLACEHOLDER
  2
AcDbPlaceHolder
  3
"AutoCAD 2000"
 90
        0
280
         0
281
         0
  0
CLASS
  1
VBA_PROJECT
  2
AcDbVbaProject
  3
"acadvba"
 90
        0
280
         0
281
         0
  0
CLASS
  1
WIPEOUT
  2
AcDbWipeout
  3
WipeOut|AutoCAD Express Tool|expresstools@autodesk.com
 90
      127
280
         0
281
         1
  0
CLASS
  1
WIPEOUTVARIABLES
  2
AcDbWipeoutVariables
  3
WipeOut|AutoCAD Express Tool|expresstools@autodesk.com
 90
        0
280
         0
281
         0
  0
CLASS
  1
RTEXT
  2
RText
  3
RText|AutoCAD Express Tool|expresstools@autodesk.com
 90
        0
280
         0
281
         1
  0
CLASS
  1
ARCALIGNEDTEXT
  2
AcDbArcAlignedText
  3
ATEXT|AutoCAD Express Tool|expresstools@autodesk.com
 90
        0
280
         0
281
         1
  0
ENDSEC
  0
SECTION
  2
TABLES
  0
TABLE
  2
VPORT
  5
7
100
AcDbSymbolTable
 70
         1
  0
VPORT
  5
15
100
AcDbSymbolTableRecord
100
AcDbViewportTableRecord
  2
*ACTIVE
 70
         0
 10
0.0
 20
0.0
 11
1.0
 21
1.0
 12
6.591288
 22
4.579184
 13
0.0
 23
0.0
 14
1.0
 24
1.0
 15
0.0
 25
0.0
 16
0.0
 26
0.0
 36
1.0
 17
0.0
 27
0.0
 37
0.0
 40
9.158369
 41
0.688564
 42
50.0
 43
0.0
 44
0.0
 50
0.0
 51
0.0
 71
         0
 72
       100
 73
         1
 74
         1
 75
         0
 76
         0
 77
         0
 78
         0
  0
ENDTAB
  0
TABLE
  2
LTYPE
  5
4
100
AcDbSymbolTable
 70
         3
  0
LTYPE
  5
11
100
AcDbSymbolTableRecord
100
AcDbLinetypeTableRecord
  2
BYBLOCK
 70
        64
  3

 72
        65
 73
         0
 40
0.0
  0
LTYPE
  5
12
100
AcDbSymbolTableRecord
100
AcDbLinetypeTableRecord
  2
BYLAYER
 70
        64
  3

 72
        65
 73
         0
 40
0.0
  0
LTYPE
  5
13
100
AcDbSymbolTableRecord
100
AcDbLinetypeTableRecord
  2
CONTINUOUS
 70
        64
  3
Solid line
 72
        65
 73
         0
 40
0.0
  0
ENDTAB
  0
TABLE
  2
LAYER
  5
2
100
AcDbSymbolTable
 70
        11
  0
LAYER
  5
14
100
AcDbSymbolTableRecord
100
AcDbLayerTableRecord
  2
0
 70
         0
 62
         7
  6
CONTINUOUS
  0
LAYER
  5
24
100
AcDbSymbolTableRecord
100
AcDbLayerTableRecord
  2
ASSEMBLY_OUTLINES_BTM
 70
         0
 62
       244
  6
CONTINUOUS
  0
LAYER
  5
25
100
AcDbSymbolTableRecord
100
AcDbLayerTableRecord
  2
ASSEMBLY_OUTLINES_TOP
 70
         0
 62
       104
  6
CONTINUOUS
  0
LAYER
  5
26
100
AcDbSymbolTableRecord
100
AcDbLayerTableRecord
  2
ASSEMBLY_REF_DES_BTM
 70
         0
 62
        10
  6
CONTINUOUS
  0
LAYER
  5
27
100
AcDbSymbolTableRecord
100
AcDbLayerTableRecord
  2
ASSEMBLY_REF_DES_TOP
 70
         0
 62
        30
  6
CONTINUOUS
  0
LAYER
  5
28
100
AcDbSymbolTableRecord
100
AcDbLayerTableRecord
  2
BOARD_OUTLINE
 70
         0
 62
        10
  6
CONTINUOUS
  0
LAYER
  5
29
100
AcDbSymbolTableRecord
100
AcDbLayerTableRecord
  2
FIDUCIAL_PADS_TOP
 70
         0
 62
        81
  6
CONTINUOUS
  0
LAYER
  5
2A
100
AcDbSymbolTableRecord
100
AcDbLayerTableRecord
  2
PART_HOLES_LAYER_TOP
 70
         0
 62
       170
  6
CONTINUOUS
  0
LAYER
  5
2B
100
AcDbSymbolTableRecord
100
AcDbLayerTableRecord
  2
PART_PADS_SMD_TOP
 70
         0
 62
        92
  6
CONTINUOUS
  0
LAYER
  5
2C
100
AcDbSymbolTableRecord
100
AcDbLayerTableRecord
  2
PIN_NUMBERS_BTM
 70
         0
 62
         8
  6
CONTINUOUS
  0
LAYER
  5
2D
100
AcDbSymbolTableRecord
100
AcDbLayerTableRecord
  2
PIN_NUMBERS_TOP
 70
         0
 62
         8
  6
CONTINUOUS
  0
ENDTAB
  0
TABLE
  2
STYLE
  5
3
100
AcDbSymbolTable
 70
         3
  0
STYLE
  5
17
100
AcDbSymbolTableRecord
100
AcDbTextStyleTableRecord
  2
STANDARD
 70
         0
 40
0.0
 41
1.0
 50
0.0
 71
         0
 42
0.0
  3
txt
  4

  0
STYLE
  5
74
100
AcDbSymbolTableRecord
100
AcDbTextStyleTableRecord
  2
ARIAL
 70
         0
 40
0.0
 41
1.0
 50
0.0
 71
         0
 42
0.0
  3
ARIAL.TTF
  4

  0
STYLE
  5
260
100
AcDbSymbolTableRecord
100
AcDbTextStyleTableRecord
  2
COURIER_NEW
 70
         0
 40
0.0
 41
1.0
 50
0.0
 71
         0
 42
0.0
  3
COUR.TTF
  4

  0
ENDTAB
  0
TABLE
  2
VIEW
  5
5
100
AcDbSymbolTable
 70
         0
  0
ENDTAB
  0
TABLE
  2
UCS
  5
6
100
AcDbSymbolTable
 70
         0
  0
ENDTAB
  0
TABLE
  2
APPID
  5
8
100
AcDbSymbolTable
 70
         1
  0
APPID
  5
16
100
AcDbSymbolTableRecord
100
AcDbRegAppTableRecord
  2
ACAD
 70
         0
  0
ENDTAB
  0
TABLE
  2
DIMSTYLE
  5
9
100
AcDbSymbolTable
 70
         1
  0
DIMSTYLE
105
18
100
AcDbSymbolTableRecord
100
AcDbDimStyleTableRecord
  2
STANDARD
 70
         0
  3

  4

  5

  6

  7

 40
1.0
 41
0.18
 42
0.0625
 43
0.38
 44
0.18
 45
0.0
 46
0.0
 47
0.0
 48
0.0
 71
         0
 72
         0
 73
         1
 74
         1
 75
         0
 76
         0
 77
         0
 78
         0
140
0.18
141
0.09
142
0.0
143
25.4
144
1.0
145
0.0
146
1.0
147
0.09
170
         0
171
         2
172
         0
173
         0
174
         0
175
         0
176
         0
177
         0
178
         0
270
         2
271
         4
272
         4
273
         2
274
         2
275
         0
280
         0
281
         0
282
         0
283
         1
284
         0
285
         0
286
         0
287
         3
288
         0
340
17
  0
ENDTAB
  0
TABLE
  2
BLOCK_RECORD
  5
1
100
AcDbSymbolTable
 70
         0
  0
BLOCK_RECORD
  5
A
100
AcDbSymbolTableRecord
100
AcDbBlockTableRecord
  2
*MODEL_SPACE
  0
BLOCK_RECORD
  5
B
100
AcDbSymbolTableRecord
100
AcDbBlockTableRecord
  2
*PAPER_SPACE
  0
ENDTAB
  0
ENDSEC
  0
SECTION
  2
BLOCKS
  0
BLOCK
  5
D
100
AcDbEntity
  8
0
100
AcDbBlockBegin
  2
*MODEL_SPACE
 70
         0
 10
0.0
 20
0.0
 30
0.0
  3
*MODEL_SPACE
  1

  0
ENDBLK
  5
E
100
AcDbEntity
  8
0
100
AcDbBlockEnd
  0
BLOCK
  5
F
100
AcDbEntity
 67
         1
  8
0
100
AcDbBlockBegin
  2
*PAPER_SPACE
 70
         0
 10
0.0
 20
0.0
 30
0.0
  3
*PAPER_SPACE
  1

  0
ENDBLK
  5
10
100
AcDbEntity
 67
         1
  8
0
100
AcDbBlockEnd
  0
ENDSEC
  0
SECTION
  2
ENTITIES
  0
LWPOLYLINE
  5
2E
100
AcDbEntity
  8
ASSEMBLY_OUTLINES_BTM
100
AcDbPolyline
 90
        5
 70
         1
 43
0.1
 10
65.916
 20
5.26
 10
65.916
 20
1.06
 10
5.914
 20
1.06
 10
5.914
 20
4.06
 10
7.114
 20
5.26
  0
LWPOLYLINE
  5
2F
100
AcDbEntity
  8
ASSEMBLY_OUTLINES_TOP
100
AcDbPolyline
 90
        2
 70
         1
 43
0.15
 10
-1.2
 20
3.1
 42
-1.0
 10
5.4
 20
3.1
 42
-1.0
  0
LWPOLYLINE
  5
30
100
AcDbEntity
  8
ASSEMBLY_OUTLINES_TOP
100
AcDbPolyline
 90
        2
 70
         1
 43
0.15
 10
-1.23
 20
53.59
 42
-1.0
 10
5.37
 20
53.59
 42
-1.0
  0
LWPOLYLINE
  5
31
100
AcDbEntity
  8
ASSEMBLY_OUTLINES_TOP
100
AcDbPolyline
 90
        4
 70
         0
 43
0.25
 10
4.77
 20
18.27
 10
4.57
 20
18.27
 10
4.57
 20
17.87
 10
4.77
 20
17.87
  0
LWPOLYLINE
  5
32
100
AcDbEntity
  8
ASSEMBLY_OUTLINES_TOP
100
AcDbPolyline
 90
        4
 70
         0
 43
0.25
 10
50.07
 20
54.48
 10
50.07
 20
54.28
 10
50.47
 20
54.28
 10
50.47
 20
54.48
  0
LWPOLYLINE
  5
33
100
AcDbEntity
  8
ASSEMBLY_OUTLINES_TOP
100
AcDbPolyline
 90
        4
 70
         0
 43
0.2
 10
57.84
 20
53.09
 10
56.84
 20
53.09
 10
56.84
 20
55.59
 10
57.84
 20
55.59
  0
LWPOLYLINE
  5
34
100
AcDbEntity
  8
ASSEMBLY_OUTLINES_TOP
100
AcDbPolyline
 90
        6
 70
         1
 43
0.2
 10
57.84
 20
54.34
 10
57.84
 20
56.34
 10
51.84
 20
56.34
 10
51.84
 20
54.34
 10
51.84
 20
52.34
 10
57.84
 20
52.34
  0
LWPOLYLINE
  5
35
100
AcDbEntity
  8
ASSEMBLY_OUTLINES_TOP
100
AcDbPolyline
 90
        2
 70
         0
 10
54.84
 20
53.84
 10
54.84
 20
54.59
  0
LWPOLYLINE
  5
36
100
AcDbEntity
  8
ASSEMBLY_OUTLINES_TOP
100
AcDbPolyline
 90
        4
 70
         0
 43
0.25
 10
50.07
 20
48.93
 10
50.07
 20
48.73
 10
50.47
 20
48.73
 10
50.47
 20
48.93
  0
LWPOLYLINE
  5
37
100
AcDbEntity
  8
ASSEMBLY_OUTLINES_TOP
100
AcDbPolyline
 90
        4
 70
         0
 43
0.2
 10
57.84
 20
47.55
 10
56.84
 20
47.55
 10
56.84
 20
50.05
 10
57.84
 20
50.05
  0
LWPOLYLINE
  5
38
100
AcDbEntity
  8
ASSEMBLY_OUTLINES_TOP
100
AcDbPolyline
 90
        6
 70
         1
 43
0.2
 10
57.84
 20
48.8
 10
57.84
 20
50.8
 10
51.84
 20
50.8
 10
51.84
 20
48.8
 10
51.84
 20
46.8
 10
57.84
 20
46.8
  0
LWPOLYLINE
  5
39
100
AcDbEntity
  8
ASSEMBLY_OUTLINES_TOP
100
AcDbPolyline
 90
        2
 70
         0
 10
54.84
 20
48.3
 10
54.84
 20
49.05
  0
LWPOLYLINE
  5
3A
100
AcDbEntity
  8
ASSEMBLY_OUTLINES_TOP
100
AcDbPolyline
 90
        4
 70
         0
 43
0.25
 10
13.9
 20
42.24
 10
13.7
 20
42.24
 10
13.7
 20
41.84
 10
13.9
 20
41.84
  0
LWPOLYLINE
  5
3B
100
AcDbEntity
  8
ASSEMBLY_OUTLINES_TOP
100
AcDbPolyline
 90
        4
 70
         0
 43
0.2
 10
40.9
 20
73.3
 10
40.92
 20
78.175
 10
25.68
 20
78.175
 10
25.68
 20
73.095
  0
LWPOLYLINE
  5
3C
100
AcDbEntity
  8
ASSEMBLY_OUTLINES_TOP
100
AcDbPolyline
 90
        5
 70
         1
 43
0.2
 10
48.8575
 20
73.045
 10
48.8575
 20
59.925
 10
19.8425
 20
59.925
 10
17.7425
 20
62.025
 10
17.7425
 20
73.045
  0
LWPOLYLINE
  5
3D
100
AcDbEntity
  8
ASSEMBLY_OUTLINES_TOP
100
AcDbPolyline
 90
        2
 70
         0
 43
0.15
 10
33.3
 20
78.85
 10
33.3
 20
82.85
  0
LWPOLYLINE
  5
3E
100
AcDbEntity
  8
ASSEMBLY_OUTLINES_TOP
100
AcDbPolyline
 90
        2
 70
         0
 43
0.15
 10
33.3
 20
78.85
 10
33.8
 20
80.1
  0
LWPOLYLINE
  5
3F
100
AcDbEntity
  8
ASSEMBLY_OUTLINES_TOP
100
AcDbPolyline
 90
        2
 70
         0
 43
0.15
 10
33.3
 20
78.85
 10
32.8
 20
80.1
  0
LWPOLYLINE
  5
40
100
AcDbEntity
  8
ASSEMBLY_OUTLINES_TOP
100
AcDbPolyline
 90
        4
 70
         0
 43
0.2
 10
26.51
 20
40.76
 10
26.51
 20
40.36
 10
25.31
 20
40.36
 10
25.31
 20
40.76
  0
LWPOLYLINE
  5
41
100
AcDbEntity
  8
ASSEMBLY_OUTLINES_TOP
100
AcDbPolyline
 90
        4
 70
         0
 43
0.2
 10
24.71
 20
40.76
 10
24.71
 20
40.36
 10
23.51
 20
40.36
 10
23.51
 20
40.76
  0
LWPOLYLINE
  5
42
100
AcDbEntity
  8
ASSEMBLY_OUTLINES_TOP
100
AcDbPolyline
 90
        4
 70
         0
 43
0.2
 10
23.52
 20
42.27
 10
23.12
 20
42.27
 10
23.12
 20
43.47
 10
23.52
 20
43.47
  0
LWPOLYLINE
  5
43
100
AcDbEntity
  8
ASSEMBLY_OUTLINES_TOP
100
AcDbPolyline
 90
        4
 70
         0
 43
0.2
 10
26.46
 20
43.47
 10
26.86
 20
43.47
 10
26.86
 20
42.27
 10
26.46
 20
42.27
  0
LWPOLYLINE
  5
44
100
AcDbEntity
  8
ASSEMBLY_OUTLINES_TOP
100
AcDbPolyline
 90
        5
 70
         1
 43
0.1
 10
21.4
 20
25.1
 10
17.3
 20
25.1
 10
17.3
 20
26.889
 10
21.8
 20
26.889
 10
21.8
 20
25.492
  0
LWPOLYLINE
  5
45
100
AcDbEntity
  8
ASSEMBLY_OUTLINES_TOP
100
AcDbPolyline
 90
        4
 70
         0
 43
0.25
 10
19.84
 20
31.64
 10
19.84
 20
31.44
 10
20.24
 20
31.44
 10
20.24
 20
31.64
  0
LWPOLYLINE
  5
46
100
AcDbEntity
  8
ASSEMBLY_OUTLINES_TOP
100
AcDbPolyline
 90
        6
 70
         0
 43
0.15
 10
13.3
 20
24.3
 10
13.3
 20
25.4
 10
13.1
 20
25.6
 10
12.1
 20
25.6
 10
11.9
 20
25.4
 10
11.9
 20
24.3
  0
LWPOLYLINE
  5
47
100
AcDbEntity
  8
ASSEMBLY_OUTLINES_TOP
100
AcDbPolyline
 90
        4
 70
         0
 43
0.25
 10
28.6
 20
20.1
 10
28.8
 20
20.1
 10
28.8
 20
20.5
 10
28.6
 20
20.5
  0
LWPOLYLINE
  5
48
100
AcDbEntity
  8
ASSEMBLY_OUTLINES_TOP
100
AcDbPolyline
 90
        4
 70
         0
 43
0.25
 10
25.9
 20
16.2
 10
25.7
 20
16.2
 10
25.7
 20
15.8
 10
25.9
 20
15.8
  0
LWPOLYLINE
  5
49
100
AcDbEntity
  8
ASSEMBLY_OUTLINES_TOP
100
AcDbPolyline
 90
        4
 70
         0
 43
0.2
 10
41.1795
 20
52.38
 10
41.1795
 20
52.78
 10
42.3795
 20
52.78
 10
42.3795
 20
52.38
  0
CIRCLE
  5
4A
100
AcDbEntity
  8
ASSEMBLY_OUTLINES_TOP
100
AcDbCircle
 10
41.7795
 20
54.33
 30
0.0
 40
0.353553
  0
HATCH
  5
4B
100
AcDbEntity
  8
ASSEMBLY_OUTLINES_TOP
100
AcDbHatch
 10
0.0
 20
0.0
 30
0.0
210
0.0
220
0.0
230
1.0
  2
SOLID
 70
         1
 71
         1
 91
        1
 92
        1
 93
        1
 72
         2
 10
41.779499999999999
 20
54.329999999999998
 40
0.353553
 50
0.0
 51
360.0
 73
         1
 97
        1
330
4A
 75
         0
 76
         1
 98
        1
 10
0.0
 20
0.0
  0
LWPOLYLINE
  5
4C
100
AcDbEntity
  8
ASSEMBLY_OUTLINES_TOP
100
AcDbPolyline
 90
        4
 70
         0
 43
0.25
 10
43.47
 20
55.17
 10
43.47
 20
55.37
 10
43.07
 20
55.37
 10
43.07
 20
55.17
  0
LWPOLYLINE
  5
4D
100
AcDbEntity
  8
ASSEMBLY_OUTLINES_TOP
100
AcDbPolyline
 90
        4
 70
         0
 43
0.25
 10
43.07
 20
52.28
 10
43.07
 20
52.08
 10
43.47
 20
52.08
 10
43.47
 20
52.28
  0
LWPOLYLINE
  5
4E
100
AcDbEntity
  8
ASSEMBLY_OUTLINES_TOP
100
AcDbPolyline
 90
        4
 70
         1
 43
0.15
 10
41.3295
 20
54.455
 10
41.3295
 20
56.105
 10
42.2295
 20
56.105
 10
42.2295
 20
54.455
  0
LWPOLYLINE
  5
4F
100
AcDbEntity
  8
ASSEMBLY_OUTLINES_TOP
100
AcDbPolyline
 90
        4
 70
         0
 43
0.25
 10
43.27
 20
43.56
 10
43.27
 20
43.76
 10
42.87
 20
43.76
 10
42.87
 20
43.56
  0
LWPOLYLINE
  5
50
100
AcDbEntity
  8
ASSEMBLY_OUTLINES_TOP
100
AcDbPolyline
 90
        4
 70
         0
 43
0.25
 10
42.87
 20
40.28
 10
42.87
 20
40.08
 10
43.27
 20
40.08
 10
43.27
 20
40.28
  0
LWPOLYLINE
  5
51
100
AcDbEntity
  8
ASSEMBLY_OUTLINES_TOP
100
AcDbPolyline
 90
        4
 70
         0
 43
0.2
 10
40.9795
 20
40.72
 10
40.9795
 20
41.12
 10
42.1795
 20
41.12
 10
42.1795
 20
40.72
  0
CIRCLE
  5
52
100
AcDbEntity
  8
ASSEMBLY_OUTLINES_TOP
100
AcDbCircle
 10
41.5795
 20
42.67
 30
0.0
 40
0.353553
  0
HATCH
  5
53
100
AcDbEntity
  8
ASSEMBLY_OUTLINES_TOP
100
AcDbHatch
 10
0.0
 20
0.0
 30
0.0
210
0.0
220
0.0
230
1.0
  2
SOLID
 70
         1
 71
         1
 91
        1
 92
        1
 93
        1
 72
         2
 10
41.579500000000003
 20
42.670000000000002
 40
0.353553
 50
0.0
 51
360.0
 73
         1
 97
        1
330
52
 75
         0
 76
         1
 98
        1
 10
0.0
 20
0.0
  0
LWPOLYLINE
  5
54
100
AcDbEntity
  8
ASSEMBLY_OUTLINES_TOP
100
AcDbPolyline
 90
        4
 70
         1
 43
0.15
 10
41.1295
 20
42.835
 10
41.1295
 20
44.485
 10
42.0295
 20
44.485
 10
42.0295
 20
42.835
  0
LWPOLYLINE
  5
55
100
AcDbEntity
  8
ASSEMBLY_OUTLINES_TOP
100
AcDbPolyline
 90
        4
 70
         0
 43
0.2
 10
41.0795
 20
46.5
 10
41.0795
 20
46.9
 10
42.2795
 20
46.9
 10
42.2795
 20
46.5
  0
CIRCLE
  5
56
100
AcDbEntity
  8
ASSEMBLY_OUTLINES_TOP
100
AcDbCircle
 10
41.6795
 20
48.45
 30
0.0
 40
0.353553
  0
HATCH
  5
57
100
AcDbEntity
  8
ASSEMBLY_OUTLINES_TOP
100
AcDbHatch
 10
0.0
 20
0.0
 30
0.0
210
0.0
220
0.0
230
1.0
  2
SOLID
 70
         1
 71
         1
 91
        1
 92
        1
 93
        1
 72
         2
 10
41.679499999999997
 20
48.450000000000003
 40
0.353553
 50
0.0
 51
360.0
 73
         1
 97
        1
330
56
 75
         0
 76
         1
 98
        1
 10
0.0
 20
0.0
  0
LWPOLYLINE
  5
58
100
AcDbEntity
  8
ASSEMBLY_OUTLINES_TOP
100
AcDbPolyline
 90
        4
 70
         0
 43
0.25
 10
43.37
 20
49.3
 10
43.37
 20
49.5
 10
42.97
 20
49.5
 10
42.97
 20
49.3
  0
LWPOLYLINE
  5
59
100
AcDbEntity
  8
ASSEMBLY_OUTLINES_TOP
100
AcDbPolyline
 90
        4
 70
         0
 43
0.25
 10
42.97
 20
46.65
 10
42.97
 20
46.45
 10
43.37
 20
46.45
 10
43.37
 20
46.65
  0
LWPOLYLINE
  5
5A
100
AcDbEntity
  8
ASSEMBLY_OUTLINES_TOP
100
AcDbPolyline
 90
        4
 70
         1
 43
0.15
 10
41.2295
 20
48.535
 10
41.2295
 20
50.185
 10
42.1295
 20
50.185
 10
42.1295
 20
48.535
  0
LWPOLYLINE
  5
5B
100
AcDbEntity
  8
ASSEMBLY_OUTLINES_TOP
100
AcDbPolyline
 90
        5
 70
         1
 43
0.1
 10
26.4
 20
25.1
 10
22.3
 20
25.1
 10
22.3
 20
26.889
 10
26.8
 20
26.889
 10
26.8
 20
25.492
  0
LWPOLYLINE
  5
5C
100
AcDbEntity
  8
ASSEMBLY_OUTLINES_TOP
100
AcDbPolyline
 90
        5
 70
         1
 43
0.1
 10
31.4
 20
25.1
 10
27.3
 20
25.1
 10
27.3
 20
26.889
 10
31.8
 20
26.889
 10
31.8
 20
25.492
  0
LWPOLYLINE
  5
5D
100
AcDbEntity
  8
ASSEMBLY_OUTLINES_TOP
100
AcDbPolyline
 90
        5
 70
         1
 43
0.2
 10
26.04
 20
18.4125
 10
20.96
 20
18.4125
 10
20.96
 20
21.5875
 10
25.405
 20
21.5875
 10
26.04
 20
20.9525
  0
LWPOLYLINE
  5
5E
100
AcDbEntity
  8
ASSEMBLY_OUTLINES_TOP
100
AcDbPolyline
 90
        6
 70
         1
 43
0.15
 10
29.4
 20
23.4
 10
29.4
 20
21.0
 10
27.6
 20
21.0
 10
27.6
 20
24.05
 10
29.05
 20
24.05
 10
29.4
 20
23.7
  0
LWPOLYLINE
  5
5F
100
AcDbEntity
  8
ASSEMBLY_OUTLINES_TOP
100
AcDbPolyline
 90
        4
 70
         0
 43
0.25
 10
19.13
 20
23.19
 10
18.93
 20
23.19
 10
18.93
 20
22.79
 10
19.13
 20
22.79
  0
LWPOLYLINE
  5
60
100
AcDbEntity
  8
ASSEMBLY_OUTLINES_TOP
100
AcDbPolyline
 90
        4
 70
         0
 43
0.25
 10
40.89
 20
32.26
 10
40.69
 20
32.26
 10
40.69
 20
31.86
 10
40.89
 20
31.86
  0
LWPOLYLINE
  5
61
100
AcDbEntity
  8
ASSEMBLY_OUTLINES_TOP
100
AcDbPolyline
 90
        4
 70
         0
 43
0.25
 10
33.25
 20
42.99
 10
33.05
 20
42.99
 10
33.05
 20
42.59
 10
33.25
 20
42.59
  0
LWPOLYLINE
  5
62
100
AcDbEntity
  8
ASSEMBLY_OUTLINES_TOP
100
AcDbPolyline
 90
        4
 70
         0
 43
0.25
 10
7.34
 20
15.39
 10
7.14
 20
15.39
 10
7.14
 20
14.99
 10
7.34
 20
14.99
  0
LWPOLYLINE
  5
63
100
AcDbEntity
  8
ASSEMBLY_OUTLINES_TOP
100
AcDbPolyline
 90
        4
 70
         0
 43
0.2
 10
57.84
 20
42.01
 10
56.84
 20
42.01
 10
56.84
 20
44.51
 10
57.84
 20
44.51
  0
LWPOLYLINE
  5
64
100
AcDbEntity
  8
ASSEMBLY_OUTLINES_TOP
100
AcDbPolyline
 90
        6
 70
         1
 43
0.2
 10
57.84
 20
43.26
 10
57.84
 20
45.26
 10
51.84
 20
45.26
 10
51.84
 20
43.26
 10
51.84
 20
41.26
 10
57.84
 20
41.26
  0
LWPOLYLINE
  5
65
100
AcDbEntity
  8
ASSEMBLY_OUTLINES_TOP
100
AcDbPolyline
 90
        2
 70
         0
 10
54.84
 20
42.76
 10
54.84
 20
43.51
  0
LWPOLYLINE
  5
66
100
AcDbEntity
  8
ASSEMBLY_OUTLINES_TOP
100
AcDbPolyline
 90
        4
 70
         0
 43
0.25
 10
50.07
 20
43.33
 10
50.07
 20
43.13
 10
50.47
 20
43.13
 10
50.47
 20
43.33
  0
LWPOLYLINE
  5
67
100
AcDbEntity
  8
ASSEMBLY_OUTLINES_TOP
100
AcDbPolyline
 90
        2
 70
         1
 43
0.15
 10
57.79
 20
34.96
 42
-1.0
 10
64.39
 20
34.96
 42
-1.0
  0
LWPOLYLINE
  5
68
100
AcDbEntity
  8
ASSEMBLY_OUTLINES_TOP
100
AcDbPolyline
 90
        5
 70
         1
 43
0.2
 10
4.27
 20
20.03
 10
0.46
 20
20.03
 10
0.46
 20
45.43
 10
5.54
 20
45.43
 10
5.54
 20
21.3
  0
LWPOLYLINE
  5
69
100
AcDbEntity
  8
ASSEMBLY_OUTLINES_TOP
100
AcDbPolyline
 90
        4
 70
         0
 43
0.2
 10
6.51
 20
32.5
 10
6.51
 20
32.9
 10
7.71
 20
32.9
 10
7.71
 20
32.5
  0
LWPOLYLINE
  5
6A
100
AcDbEntity
  8
ASSEMBLY_OUTLINES_TOP
100
AcDbPolyline
 90
        4
 70
         0
 43
0.25
 10
30.45
 20
28.47
 10
30.25
 20
28.47
 10
30.25
 20
28.07
 10
30.45
 20
28.07
  0
LWPOLYLINE
  5
6B
100
AcDbEntity
  8
ASSEMBLY_OUTLINES_TOP
100
AcDbPolyline
 90
        4
 70
         0
 43
0.25
 10
25.92
 20
36.96
 10
25.72
 20
36.96
 10
25.72
 20
36.56
 10
25.92
 20
36.56
  0
LWPOLYLINE
  5
6C
100
AcDbEntity
  8
ASSEMBLY_OUTLINES_TOP
100
AcDbPolyline
 90
        4
 70
         0
 43
0.25
 10
23.89
 20
36.56
 10
24.09
 20
36.56
 10
24.09
 20
36.96
 10
23.89
 20
36.96
  0
LWPOLYLINE
  5
6D
100
AcDbEntity
  8
ASSEMBLY_OUTLINES_TOP
100
AcDbPolyline
 90
        4
 70
         0
 43
0.25
 10
29.5
 20
36.56
 10
29.7
 20
36.56
 10
29.7
 20
36.96
 10
29.5
 20
36.96
  0
LWPOLYLINE
  5
6E
100
AcDbEntity
  8
ASSEMBLY_OUTLINES_TOP
100
AcDbPolyline
 90
        4
 70
         0
 43
0.25
 10
22.15
 20
36.56
 10
22.35
 20
36.56
 10
22.35
 20
36.96
 10
22.15
 20
36.96
  0
LWPOLYLINE
  5
6F
100
AcDbEntity
  8
ASSEMBLY_OUTLINES_TOP
100
AcDbPolyline
 90
        4
 70
         0
 43
0.25
 10
28.56
 20
28.47
 10
28.36
 20
28.47
 10
28.36
 20
28.07
 10
28.56
 20
28.07
  0
LWPOLYLINE
  5
70
100
AcDbEntity
  8
ASSEMBLY_OUTLINES_TOP
100
AcDbPolyline
 90
        4
 70
         0
 43
0.25
 10
26.05
 20
28.07
 10
26.25
 20
28.07
 10
26.25
 20
28.47
 10
26.05
 20
28.47
  0
LWPOLYLINE
  5
71
100
AcDbEntity
  8
ASSEMBLY_OUTLINES_TOP
100
AcDbPolyline
 90
        4
 70
         0
 43
0.25
 10
22.78
 20
28.07
 10
22.98
 20
28.07
 10
22.98
 20
28.47
 10
22.78
 20
28.47
  0
LWPOLYLINE
  5
72
100
AcDbEntity
  8
ASSEMBLY_OUTLINES_TOP
100
AcDbPolyline
 90
        5
 70
         1
 43
0.2
 10
21.04
 20
34.1245
 10
31.2
 20
34.1245
 10
31.2
 20
30.9495
 10
21.675
 20
30.9495
 10
21.04
 20
31.5845
  0
LWPOLYLINE
  5
73
100
AcDbEntity
  8
ASSEMBLY_OUTLINES_TOP
100
AcDbPolyline
 90
        5
 70
         1
 43
0.1
 10
65.916
 20
12.42
 10
65.916
 20
8.22
 10
5.914
 20
8.22
 10
5.914
 20
11.22
 10
7.114
 20
12.42
  0
TEXT
  5
75
100
AcDbEntity
  8
ASSEMBLY_REF_DES_BTM
100
AcDbText
 10
35.564
 20
2.4608
 30
0.0
 40
0.8
  1
X1
 50
270.0
  7
ARIAL
 71
         2
 72
         1
 11
35.98
 21
3.16
 31
0.0
100
AcDbText
 73
         2
  0
TEXT
  5
76
100
AcDbEntity
  8
ASSEMBLY_REF_DES_TOP
100
AcDbText
 10
1.4008
 20
2.684
 30
0.0
 40
0.8
  1
X9
  7
ARIAL
 72
         1
 11
2.1
 21
3.1
 31
0.0
100
AcDbText
 73
         2
  0
TEXT
  5
77
100
AcDbEntity
  8
ASSEMBLY_REF_DES_TOP
100
AcDbText
 10
1.3708
 20
53.174
 30
0.0
 40
0.8
  1
X8
  7
ARIAL
 72
         1
 11
2.07
 21
53.59
 31
0.0
100
AcDbText
 73
         2
  0
TEXT
  5
78
100
AcDbEntity
  8
ASSEMBLY_REF_DES_TOP
100
AcDbText
 10
3.6212
 20
17.654
 30
0.0
 40
0.8
  1
R36
  7
ARIAL
 72
         1
 11
4.67
 21
18.07
 31
0.0
100
AcDbText
 73
         2
  0
TEXT
  5
79
100
AcDbEntity
  8
ASSEMBLY_REF_DES_TOP
100
AcDbText
 10
49.854
 20
55.4288
 30
0.0
 40
0.8
  1
R40
 50
270.0
  7
ARIAL
 72
         1
 11
50.27
 21
54.38
 31
0.0
100
AcDbText
 73
         2
  0
TEXT
  5
7A
100
AcDbEntity
  8
ASSEMBLY_REF_DES_TOP
100
AcDbText
 10
54.1408
 20
53.924
 30
0.0
 40
0.8
  1
S1
  7
ARIAL
 72
         1
 11
54.84
 21
54.34
 31
0.0
100
AcDbText
 73
         2
  0
TEXT
  5
7B
100
AcDbEntity
  8
ASSEMBLY_REF_DES_TOP
100
AcDbText
 10
49.854
 20
49.8788
 30
0.0
 40
0.8
  1
R41
 50
270.0
  7
ARIAL
 72
         1
 11
50.27
 21
48.83
 31
0.0
100
AcDbText
 73
         2
  0
TEXT
  5
7C
100
AcDbEntity
  8
ASSEMBLY_REF_DES_TOP
100
AcDbText
 10
54.1408
 20
48.384
 30
0.0
 40
0.8
  1
S2
  7
ARIAL
 72
         1
 11
54.84
 21
48.8
 31
0.0
100
AcDbText
 73
         2
  0
TEXT
  5
7D
100
AcDbEntity
  8
ASSEMBLY_REF_DES_TOP
100
AcDbText
 10
12.7512
 20
41.624
 30
0.0
 40
0.8
  1
C28
  7
ARIAL
 72
         1
 11
13.8
 21
42.04
 31
0.0
100
AcDbText
 73
         2
  0
TEXT
  5
7E
100
AcDbEntity
  8
ASSEMBLY_REF_DES_TOP
100
AcDbText
 10
32.6008
 20
63.104
 30
0.0
 40
0.8
  1
X4
  7
ARIAL
 72
         1
 11
33.3
 21
63.52
 31
0.0
100
AcDbText
 73
         2
  0
TEXT
  5
7F
100
AcDbEntity
  8
ASSEMBLY_REF_DES_TOP
100
AcDbText
 10
25.494
 20
41.196
 30
0.0
 40
0.8
  1
L6
 50
270.0
  7
ARIAL
 72
         1
 11
25.91
 21
40.56
 31
0.0
100
AcDbText
 73
         2
  0
TEXT
  5
80
100
AcDbEntity
  8
ASSEMBLY_REF_DES_TOP
100
AcDbText
 10
23.694
 20
41.196
 30
0.0
 40
0.8
  1
L5
 50
270.0
  7
ARIAL
 72
         1
 11
24.11
 21
40.56
 31
0.0
100
AcDbText
 73
         2
  0
TEXT
  5
81
100
AcDbEntity
  8
ASSEMBLY_REF_DES_TOP
100
AcDbText
 10
22.2712
 20
42.454
 30
0.0
 40
0.8
  1
R30
  7
ARIAL
 72
         1
 11
23.32
 21
42.87
 31
0.0
100
AcDbText
 73
         2
  0
TEXT
  5
82
100
AcDbEntity
  8
ASSEMBLY_REF_DES_TOP
100
AcDbText
 10
25.6112
 20
42.454
 30
0.0
 40
0.8
  1
R29
  7
ARIAL
 72
         1
 11
26.66
 21
42.87
 31
0.0
100
AcDbText
 73
         2
  0
TEXT
  5
83
100
AcDbEntity
  8
ASSEMBLY_REF_DES_TOP
100
AcDbText
 10
18.896
 20
25.584
 30
0.0
 40
0.8
  1
J3
  7
ARIAL
 72
         1
 11
19.5
 21
26.0
 31
0.0
100
AcDbText
 73
         2
  0
TEXT
  5
84
100
AcDbEntity
  8
ASSEMBLY_REF_DES_TOP
100
AcDbText
 10
19.624
 20
32.5888
 30
0.0
 40
0.8
  1
C22
 50
270.0
  7
ARIAL
 72
         1
 11
20.04
 21
31.54
 31
0.0
100
AcDbText
 73
         2
  0
TEXT
  5
85
100
AcDbEntity
  8
ASSEMBLY_REF_DES_TOP
100
AcDbText
 10
12.184
 20
26.0488
 30
0.0
 40
0.8
  1
C30
 50
270.0
  7
ARIAL
 72
         1
 11
12.6
 21
25.0
 31
0.0
100
AcDbText
 73
         2
  0
TEXT
  5
86
100
AcDbEntity
  8
ASSEMBLY_REF_DES_TOP
100
AcDbText
 10
27.6512
 20
19.884
 30
0.0
 40
0.8
  1
R47
  7
ARIAL
 72
         1
 11
28.7
 21
20.3
 31
0.0
100
AcDbText
 73
         2
  0
TEXT
  5
87
100
AcDbEntity
  8
ASSEMBLY_REF_DES_TOP
100
AcDbText
 10
24.7512
 20
15.584
 30
0.0
 40
0.8
  1
C31
  7
ARIAL
 72
         1
 11
25.8
 21
16.0
 31
0.0
100
AcDbText
 73
         2
  0
TEXT
  5
88
100
AcDbEntity
  8
ASSEMBLY_REF_DES_TOP
100
AcDbText
 10
41.3635
 20
53.3108
 30
0.0
 40
0.8
  1
D1
 50
270.0
  7
ARIAL
 72
         1
 11
41.7795
 21
52.58
 31
0.0
100
AcDbText
 73
         2
  0
TEXT
  5
89
100
AcDbEntity
  8
ASSEMBLY_REF_DES_TOP
100
AcDbText
 10
42.854
 20
56.3188
 30
0.0
 40
0.8
  1
R39
 50
270.0
  7
ARIAL
 72
         1
 11
43.27
 21
55.27
 31
0.0
100
AcDbText
 73
         2
  0
TEXT
  5
8A
100
AcDbEntity
  8
ASSEMBLY_REF_DES_TOP
100
AcDbText
 10
42.854
 20
53.2288
 30
0.0
 40
0.8
  1
R43
 50
270.0
  7
ARIAL
 72
         1
 11
43.27
 21
52.18
 31
0.0
100
AcDbText
 73
         2
  0
TEXT
  5
8B
100
AcDbEntity
  8
ASSEMBLY_REF_DES_TOP
100
AcDbText
 10
41.3635
 20
56.0428
 30
0.0
 40
0.8
  1
Q1
 50
270.0
  7
ARIAL
 72
         1
 11
41.7795
 21
55.28
 31
0.0
100
AcDbText
 73
         2
  0
TEXT
  5
8C
100
AcDbEntity
  8
ASSEMBLY_REF_DES_TOP
100
AcDbText
 10
42.654
 20
44.7088
 30
0.0
 40
0.8
  1
R38
 50
270.0
  7
ARIAL
 72
         1
 11
43.07
 21
43.66
 31
0.0
100
AcDbText
 73
         2
  0
TEXT
  5
8D
100
AcDbEntity
  8
ASSEMBLY_REF_DES_TOP
100
AcDbText
 10
42.654
 20
41.2288
 30
0.0
 40
0.8
  1
R42
 50
270.0
  7
ARIAL
 72
         1
 11
43.07
 21
40.18
 31
0.0
100
AcDbText
 73
         2
  0
TEXT
  5
8E
100
AcDbEntity
  8
ASSEMBLY_REF_DES_TOP
100
AcDbText
 10
41.1635
 20
41.6508
 30
0.0
 40
0.8
  1
D3
 50
270.0
  7
ARIAL
 72
         1
 11
41.5795
 21
40.92
 31
0.0
100
AcDbText
 73
         2
  0
TEXT
  5
8F
100
AcDbEntity
  8
ASSEMBLY_REF_DES_TOP
100
AcDbText
 10
41.1635
 20
44.4228
 30
0.0
 40
0.8
  1
Q3
 50
270.0
  7
ARIAL
 72
         1
 11
41.5795
 21
43.66
 31
0.0
100
AcDbText
 73
         2
  0
TEXT
  5
90
100
AcDbEntity
  8
ASSEMBLY_REF_DES_TOP
100
AcDbText
 10
41.2635
 20
47.4308
 30
0.0
 40
0.8
  1
D2
 50
270.0
  7
ARIAL
 72
         1
 11
41.6795
 21
46.7
 31
0.0
100
AcDbText
 73
         2
  0
TEXT
  5
91
100
AcDbEntity
  8
ASSEMBLY_REF_DES_TOP
100
AcDbText
 10
42.754
 20
50.4488
 30
0.0
 40
0.8
  1
R45
 50
270.0
  7
ARIAL
 72
         1
 11
43.17
 21
49.4
 31
0.0
100
AcDbText
 73
         2
  0
TEXT
  5
92
100
AcDbEntity
  8
ASSEMBLY_REF_DES_TOP
100
AcDbText
 10
42.754
 20
47.5988
 30
0.0
 40
0.8
  1
R46
 50
270.0
  7
ARIAL
 72
         1
 11
43.17
 21
46.55
 31
0.0
100
AcDbText
 73
         2
  0
TEXT
  5
93
100
AcDbEntity
  8
ASSEMBLY_REF_DES_TOP
100
AcDbText
 10
41.2635
 20
50.1228
 30
0.0
 40
0.8
  1
Q2
 50
270.0
  7
ARIAL
 72
         1
 11
41.6795
 21
49.36
 31
0.0
100
AcDbText
 73
         2
  0
TEXT
  5
94
100
AcDbEntity
  8
ASSEMBLY_REF_DES_TOP
100
AcDbText
 10
23.896
 20
25.584
 30
0.0
 40
0.8
  1
J2
  7
ARIAL
 72
         1
 11
24.5
 21
26.0
 31
0.0
100
AcDbText
 73
         2
  0
TEXT
  5
95
100
AcDbEntity
  8
ASSEMBLY_REF_DES_TOP
100
AcDbText
 10
28.896
 20
25.584
 30
0.0
 40
0.8
  1
J1
  7
ARIAL
 72
         1
 11
29.5
 21
26.0
 31
0.0
100
AcDbText
 73
         2
  0
TEXT
  5
96
100
AcDbEntity
  8
ASSEMBLY_REF_DES_TOP
100
AcDbText
 10
22.7692
 20
19.5685
 30
0.0
 40
0.8
  1
U5
  7
ARIAL
 72
         1
 11
23.5
 21
19.9845
 31
0.0
100
AcDbText
 73
         2
  0
TEXT
  5
97
100
AcDbEntity
  8
ASSEMBLY_REF_DES_TOP
100
AcDbText
 10
28.084
 20
23.104
 30
0.0
 40
0.8
  1
J4
 50
270.0
  7
ARIAL
 72
         1
 11
28.5
 21
22.5
 31
0.0
100
AcDbText
 73
         2
  0
TEXT
  5
98
100
AcDbEntity
  8
ASSEMBLY_REF_DES_TOP
100
AcDbText
 10
17.9812
 20
22.574
 30
0.0
 40
0.8
  1
C24
  7
ARIAL
 72
         1
 11
19.03
 21
22.99
 31
0.0
100
AcDbText
 73
         2
  0
TEXT
  5
99
100
AcDbEntity
  8
ASSEMBLY_REF_DES_TOP
100
AcDbText
 10
39.7412
 20
31.644
 30
0.0
 40
0.8
  1
C27
  7
ARIAL
 72
         1
 11
40.79
 21
32.06
 31
0.0
100
AcDbText
 73
         2
  0
TEXT
  5
9A
100
AcDbEntity
  8
ASSEMBLY_REF_DES_TOP
100
AcDbText
 10
32.1012
 20
42.374
 30
0.0
 40
0.8
  1
C26
  7
ARIAL
 72
         1
 11
33.15
 21
42.79
 31
0.0
100
AcDbText
 73
         2
  0
TEXT
  5
9B
100
AcDbEntity
  8
ASSEMBLY_REF_DES_TOP
100
AcDbText
 10
6.1912
 20
14.774
 30
0.0
 40
0.8
  1
C25
  7
ARIAL
 72
         1
 11
7.24
 21
15.19
 31
0.0
100
AcDbText
 73
         2
  0
TEXT
  5
9C
100
AcDbEntity
  8
ASSEMBLY_REF_DES_TOP
100
AcDbText
 10
54.1408
 20
42.844
 30
0.0
 40
0.8
  1
S3
  7
ARIAL
 72
         1
 11
54.84
 21
43.26
 31
0.0
100
AcDbText
 73
         2
  0
TEXT
  5
9D
100
AcDbEntity
  8
ASSEMBLY_REF_DES_TOP
100
AcDbText
 10
49.854
 20
44.2788
 30
0.0
 40
0.8
  1
R44
 50
270.0
  7
ARIAL
 72
         1
 11
50.27
 21
43.23
 31
0.0
100
AcDbText
 73
         2
  0
TEXT
  5
9E
100
AcDbEntity
  8
ASSEMBLY_REF_DES_TOP
100
AcDbText
 10
68.3808
 20
68.644
 30
0.0
 40
0.8
  1
X6
  7
ARIAL
 72
         1
 11
69.08
 21
69.06
 31
0.0
100
AcDbText
 73
         2
  0
TEXT
  5
9F
100
AcDbEntity
  8
ASSEMBLY_REF_DES_TOP
100
AcDbText
 10
60.3908
 20
34.544
 30
0.0
 40
0.8
  1
X7
  7
ARIAL
 72
         1
 11
61.09
 21
34.96
 31
0.0
100
AcDbText
 73
         2
  0
TEXT
  5
A0
100
AcDbEntity
  8
ASSEMBLY_REF_DES_TOP
100
AcDbText
 10
2.3008
 20
32.314
 30
0.0
 40
0.8
  1
X3
  7
ARIAL
 72
         1
 11
3.0
 21
32.73
 31
0.0
100
AcDbText
 73
         2
  0
TEXT
  5
A1
100
AcDbEntity
  8
ASSEMBLY_REF_DES_TOP
100
AcDbText
 10
6.694
 20
33.7488
 30
0.0
 40
0.8
  1
R37
 50
270.0
  7
ARIAL
 72
         1
 11
7.11
 21
32.7
 31
0.0
100
AcDbText
 73
         2
  0
TEXT
  5
A2
100
AcDbEntity
  8
ASSEMBLY_REF_DES_TOP
100
AcDbText
 10
29.3012
 20
27.854
 30
0.0
 40
0.8
  1
R35
  7
ARIAL
 72
         1
 11
30.35
 21
28.27
 31
0.0
100
AcDbText
 73
         2
  0
TEXT
  5
A3
100
AcDbEntity
  8
ASSEMBLY_REF_DES_TOP
100
AcDbText
 10
25.0892
 20
36.344
 30
0.0
 40
0.8
  1
C2
  7
ARIAL
 72
         1
 11
25.82
 21
36.76
 31
0.0
100
AcDbText
 73
         2
  0
TEXT
  5
A4
100
AcDbEntity
  8
ASSEMBLY_REF_DES_TOP
100
AcDbText
 10
23.2592
 20
36.344
 30
0.0
 40
0.8
  1
C3
  7
ARIAL
 72
         1
 11
23.99
 21
36.76
 31
0.0
100
AcDbText
 73
         2
  0
TEXT
  5
A5
100
AcDbEntity
  8
ASSEMBLY_REF_DES_TOP
100
AcDbText
 10
28.5512
 20
36.344
 30
0.0
 40
0.8
  1
R34
  7
ARIAL
 72
         1
 11
29.6
 21
36.76
 31
0.0
100
AcDbText
 73
         2
  0
TEXT
  5
A6
100
AcDbEntity
  8
ASSEMBLY_REF_DES_TOP
100
AcDbText
 10
21.2012
 20
36.344
 30
0.0
 40
0.8
  1
C23
  7
ARIAL
 72
         1
 11
22.25
 21
36.76
 31
0.0
100
AcDbText
 73
         2
  0
TEXT
  5
A7
100
AcDbEntity
  8
ASSEMBLY_REF_DES_TOP
100
AcDbText
 10
27.4112
 20
27.854
 30
0.0
 40
0.8
  1
C21
  7
ARIAL
 72
         1
 11
28.46
 21
28.27
 31
0.0
100
AcDbText
 73
         2
  0
TEXT
  5
A8
100
AcDbEntity
  8
ASSEMBLY_REF_DES_TOP
100
AcDbText
 10
25.1012
 20
27.854
 30
0.0
 40
0.8
  1
C20
  7
ARIAL
 72
         1
 11
26.15
 21
28.27
 31
0.0
100
AcDbText
 73
         2
  0
TEXT
  5
A9
100
AcDbEntity
  8
ASSEMBLY_REF_DES_TOP
100
AcDbText
 10
21.8312
 20
27.854
 30
0.0
 40
0.8
  1
C19
  7
ARIAL
 72
         1
 11
22.88
 21
28.27
 31
0.0
100
AcDbText
 73
         2
  0
TEXT
  5
AA
100
AcDbEntity
  8
ASSEMBLY_REF_DES_TOP
100
AcDbText
 10
25.3892
 20
32.154
 30
0.0
 40
0.8
  1
U4
  7
ARIAL
 72
         1
 11
26.12
 21
32.57
 31
0.0
100
AcDbText
 73
         2
  0
TEXT
  5
AB
100
AcDbEntity
  8
ASSEMBLY_REF_DES_TOP
100
AcDbText
 10
35.564
 20
11.0192
 30
0.0
 40
0.8
  1
X5
 50
270.0
  7
ARIAL
 72
         1
 11
35.98
 21
10.32
 31
0.0
100
AcDbText
 73
         2
  0
TEXT
  5
AC
100
AcDbEntity
  8
ASSEMBLY_REF_DES_TOP
100
AcDbText
 10
68.3808
 20
2.644
 30
0.0
 40
0.8
  1
X2
  7
ARIAL
 72
         1
 11
69.08
 21
3.06
 31
0.0
100
AcDbText
 73
         2
  0
LWPOLYLINE
  5
AD
100
AcDbEntity
  8
BOARD_OUTLINE
100
AcDbPolyline
 90
       10
 70
         1
 10
0.0
 20
0.0
 10
0.0
 20
55.5
 10
13.0
 20
55.5
 10
13.0
 20
72.0
 10
72.0
 20
72.0
 10
72.0
 20
56.0
 10
63.5
 20
56.0
 10
63.5
 20
30.0
 10
72.0
 20
30.0
 10
72.0
 20
0.0
  0
LWPOLYLINE
  5
AE
100
AcDbEntity
  8
FIDUCIAL_PADS_TOP
100
AcDbPolyline
 90
        4
 70
         1
 10
63.0
 20
68.1
 10
63.0
 20
69.1
 10
64.0
 20
69.1
 10
64.0
 20
68.1
  0
CIRCLE
  5
AF
100
AcDbEntity
  8
FIDUCIAL_PADS_TOP
100
AcDbCircle
 10
3.5
 20
15.0
 30
0.0
 40
0.5
  0
CIRCLE
  5
B0
100
AcDbEntity
  8
PART_HOLES_LAYER_TOP
100
AcDbCircle
 10
2.1
 20
3.1
 30
0.0
 40
1.1
  0
HATCH
  5
B1
100
AcDbEntity
  8
PART_HOLES_LAYER_TOP
100
AcDbHatch
 10
0.0
 20
0.0
 30
0.0
210
0.0
220
0.0
230
1.0
  2
SOLID
 70
         1
 71
         1
 91
        1
 92
        1
 93
        1
 72
         2
 10
2.1000000000000001
 20
3.1000000000000001
 40
1.1000000000000001
 50
0.0
 51
360.0
 73
         1
 97
        1
330
B0
 75
         0
 76
         1
 98
        1
 10
0.0
 20
0.0
  0
CIRCLE
  5
B2
100
AcDbEntity
  8
PART_HOLES_LAYER_TOP
100
AcDbCircle
 10
2.07
 20
53.59
 30
0.0
 40
1.1
  0
HATCH
  5
B3
100
AcDbEntity
  8
PART_HOLES_LAYER_TOP
100
AcDbHatch
 10
0.0
 20
0.0
 30
0.0
210
0.0
220
0.0
230
1.0
  2
SOLID
 70
         1
 71
         1
 91
        1
 92
        1
 93
        1
 72
         2
 10
2.0699999999999998
 20
53.590000000000003
 40
1.1000000000000001
 50
0.0
 51
360.0
 73
         1
 97
        1
330
B2
 75
         0
 76
         1
 98
        1
 10
0.0
 20
0.0
  0
CIRCLE
  5
B4
100
AcDbEntity
  8
PART_HOLES_LAYER_TOP
100
AcDbCircle
 10
27.76
 20
62.1
 30
0.0
 40
0.55
  0
HATCH
  5
B5
100
AcDbEntity
  8
PART_HOLES_LAYER_TOP
100
AcDbHatch
 10
0.0
 20
0.0
 30
0.0
210
0.0
220
0.0
230
1.0
  2
SOLID
 70
         1
 71
         1
 91
        1
 92
        1
 93
        1
 72
         2
 10
27.760000000000002
 20
62.100000000000001
 40
0.55
 50
0.0
 51
360.0
 73
         1
 97
        1
330
B4
 75
         0
 76
         1
 98
        1
 10
0.0
 20
0.0
  0
CIRCLE
  5
B6
100
AcDbEntity
  8
PART_HOLES_LAYER_TOP
100
AcDbCircle
 10
30.53
 20
62.1
 30
0.0
 40
0.55
  0
HATCH
  5
B7
100
AcDbEntity
  8
PART_HOLES_LAYER_TOP
100
AcDbHatch
 10
0.0
 20
0.0
 30
0.0
210
0.0
220
0.0
230
1.0
  2
SOLID
 70
         1
 71
         1
 91
        1
 92
        1
 93
        1
 72
         2
 10
30.530000000000001
 20
62.100000000000001
 40
0.55
 50
0.0
 51
360.0
 73
         1
 97
        1
330
B6
 75
         0
 76
         1
 98
        1
 10
0.0
 20
0.0
  0
CIRCLE
  5
B8
100
AcDbEntity
  8
PART_HOLES_LAYER_TOP
100
AcDbCircle
 10
33.3
 20
62.1
 30
0.0
 40
0.55
  0
HATCH
  5
B9
100
AcDbEntity
  8
PART_HOLES_LAYER_TOP
100
AcDbHatch
 10
0.0
 20
0.0
 30
0.0
210
0.0
220
0.0
230
1.0
  2
SOLID
 70
         1
 71
         1
 91
        1
 92
        1
 93
        1
 72
         2
 10
33.299999999999997
 20
62.100000000000001
 40
0.55
 50
0.0
 51
360.0
 73
         1
 97
        1
330
B8
 75
         0
 76
         1
 98
        1
 10
0.0
 20
0.0
  0
CIRCLE
  5
BA
100
AcDbEntity
  8
PART_HOLES_LAYER_TOP
100
AcDbCircle
 10
36.07
 20
62.1
 30
0.0
 40
0.55
  0
HATCH
  5
BB
100
AcDbEntity
  8
PART_HOLES_LAYER_TOP
100
AcDbHatch
 10
0.0
 20
0.0
 30
0.0
210
0.0
220
0.0
230
1.0
  2
SOLID
 70
         1
 71
         1
 91
        1
 92
        1
 93
        1
 72
         2
 10
36.07
 20
62.100000000000001
 40
0.55
 50
0.0
 51
360.0
 73
         1
 97
        1
330
BA
 75
         0
 76
         1
 98
        1
 10
0.0
 20
0.0
  0
CIRCLE
  5
BC
100
AcDbEntity
  8
PART_HOLES_LAYER_TOP
100
AcDbCircle
 10
38.84
 20
62.1
 30
0.0
 40
0.55
  0
HATCH
  5
BD
100
AcDbEntity
  8
PART_HOLES_LAYER_TOP
100
AcDbHatch
 10
0.0
 20
0.0
 30
0.0
210
0.0
220
0.0
230
1.0
  2
SOLID
 70
         1
 71
         1
 91
        1
 92
        1
 93
        1
 72
         2
 10
38.840000000000003
 20
62.100000000000001
 40
0.55
 50
0.0
 51
360.0
 73
         1
 97
        1
330
BC
 75
         0
 76
         1
 98
        1
 10
0.0
 20
0.0
  0
CIRCLE
  5
BE
100
AcDbEntity
  8
PART_HOLES_LAYER_TOP
100
AcDbCircle
 10
29.145
 20
64.94
 30
0.0
 40
0.55
  0
HATCH
  5
BF
100
AcDbEntity
  8
PART_HOLES_LAYER_TOP
100
AcDbHatch
 10
0.0
 20
0.0
 30
0.0
210
0.0
220
0.0
230
1.0
  2
SOLID
 70
         1
 71
         1
 91
        1
 92
        1
 93
        1
 72
         2
 10
29.145
 20
64.939999999999998
 40
0.55
 50
0.0
 51
360.0
 73
         1
 97
        1
330
BE
 75
         0
 76
         1
 98
        1
 10
0.0
 20
0.0
  0
CIRCLE
  5
C0
100
AcDbEntity
  8
PART_HOLES_LAYER_TOP
100
AcDbCircle
 10
31.915
 20
64.94
 30
0.0
 40
0.55
  0
HATCH
  5
C1
100
AcDbEntity
  8
PART_HOLES_LAYER_TOP
100
AcDbHatch
 10
0.0
 20
0.0
 30
0.0
210
0.0
220
0.0
230
1.0
  2
SOLID
 70
         1
 71
         1
 91
        1
 92
        1
 93
        1
 72
         2
 10
31.914999999999999
 20
64.939999999999998
 40
0.55
 50
0.0
 51
360.0
 73
         1
 97
        1
330
C0
 75
         0
 76
         1
 98
        1
 10
0.0
 20
0.0
  0
CIRCLE
  5
C2
100
AcDbEntity
  8
PART_HOLES_LAYER_TOP
100
AcDbCircle
 10
34.685
 20
64.94
 30
0.0
 40
0.55
  0
HATCH
  5
C3
100
AcDbEntity
  8
PART_HOLES_LAYER_TOP
100
AcDbHatch
 10
0.0
 20
0.0
 30
0.0
210
0.0
220
0.0
230
1.0
  2
SOLID
 70
         1
 71
         1
 91
        1
 92
        1
 93
        1
 72
         2
 10
34.685000000000002
 20
64.939999999999998
 40
0.55
 50
0.0
 51
360.0
 73
         1
 97
        1
330
C2
 75
         0
 76
         1
 98
        1
 10
0.0
 20
0.0
  0
CIRCLE
  5
C4
100
AcDbEntity
  8
PART_HOLES_LAYER_TOP
100
AcDbCircle
 10
37.455
 20
64.94
 30
0.0
 40
0.55
  0
HATCH
  5
C5
100
AcDbEntity
  8
PART_HOLES_LAYER_TOP
100
AcDbHatch
 10
0.0
 20
0.0
 30
0.0
210
0.0
220
0.0
230
1.0
  2
SOLID
 70
         1
 71
         1
 91
        1
 92
        1
 93
        1
 72
         2
 10
37.454999999999998
 20
64.939999999999998
 40
0.55
 50
0.0
 51
360.0
 73
         1
 97
        1
330
C4
 75
         0
 76
         1
 98
        1
 10
0.0
 20
0.0
  0
CIRCLE
  5
C6
100
AcDbEntity
  8
PART_HOLES_LAYER_TOP
100
AcDbCircle
 10
20.81
 20
63.64
 30
0.0
 40
1.6
  0
HATCH
  5
C7
100
AcDbEntity
  8
PART_HOLES_LAYER_TOP
100
AcDbHatch
 10
0.0
 20
0.0
 30
0.0
210
0.0
220
0.0
230
1.0
  2
SOLID
 70
         1
 71
         1
 91
        1
 92
        1
 93
        1
 72
         2
 10
20.809999999999999
 20
63.640000000000001
 40
1.6000000000000001
 50
0.0
 51
360.0
 73
         1
 97
        1
330
C6
 75
         0
 76
         1
 98
        1
 10
0.0
 20
0.0
  0
CIRCLE
  5
C8
100
AcDbEntity
  8
PART_HOLES_LAYER_TOP
100
AcDbCircle
 10
45.79
 20
63.64
 30
0.0
 40
1.6
  0
HATCH
  5
C9
100
AcDbEntity
  8
PART_HOLES_LAYER_TOP
100
AcDbHatch
 10
0.0
 20
0.0
 30
0.0
210
0.0
220
0.0
230
1.0
  2
SOLID
 70
         1
 71
         1
 91
        1
 92
        1
 93
        1
 72
         2
 10
45.789999999999999
 20
63.640000000000001
 40
1.6000000000000001
 50
0.0
 51
360.0
 73
         1
 97
        1
330
C8
 75
         0
 76
         1
 98
        1
 10
0.0
 20
0.0
  0
CIRCLE
  5
CA
100
AcDbEntity
  8
PART_HOLES_LAYER_TOP
100
AcDbCircle
 10
69.08
 20
69.06
 30
0.0
 40
1.6
  0
HATCH
  5
CB
100
AcDbEntity
  8
PART_HOLES_LAYER_TOP
100
AcDbHatch
 10
0.0
 20
0.0
 30
0.0
210
0.0
220
0.0
230
1.0
  2
SOLID
 70
         1
 71
         1
 91
        1
 92
        1
 93
        1
 72
         2
 10
69.079999999999998
 20
69.060000000000002
 40
1.6000000000000001
 50
0.0
 51
360.0
 73
         1
 97
        1
330
CA
 75
         0
 76
         1
 98
        1
 10
0.0
 20
0.0
  0
CIRCLE
  5
CC
100
AcDbEntity
  8
PART_HOLES_LAYER_TOP
100
AcDbCircle
 10
61.09
 20
34.96
 30
0.0
 40
1.1
  0
HATCH
  5
CD
100
AcDbEntity
  8
PART_HOLES_LAYER_TOP
100
AcDbHatch
 10
0.0
 20
0.0
 30
0.0
210
0.0
220
0.0
230
1.0
  2
SOLID
 70
         1
 71
         1
 91
        1
 92
        1
 93
        1
 72
         2
 10
61.090000000000003
 20
34.960000000000001
 40
1.1000000000000001
 50
0.0
 51
360.0
 73
         1
 97
        1
330
CC
 75
         0
 76
         1
 98
        1
 10
0.0
 20
0.0
  0
CIRCLE
  5
CE
100
AcDbEntity
  8
PART_HOLES_LAYER_TOP
100
AcDbCircle
 10
4.27
 20
21.3
 30
0.0
 40
0.5
  0
HATCH
  5
CF
100
AcDbEntity
  8
PART_HOLES_LAYER_TOP
100
AcDbHatch
 10
0.0
 20
0.0
 30
0.0
210
0.0
220
0.0
230
1.0
  2
SOLID
 70
         1
 71
         1
 91
        1
 92
        1
 93
        1
 72
         2
 10
4.2699999999999996
 20
21.300000000000001
 40
0.5
 50
0.0
 51
360.0
 73
         1
 97
        1
330
CE
 75
         0
 76
         1
 98
        1
 10
0.0
 20
0.0
  0
CIRCLE
  5
D0
100
AcDbEntity
  8
PART_HOLES_LAYER_TOP
100
AcDbCircle
 10
1.73
 20
21.3
 30
0.0
 40
0.5
  0
HATCH
  5
D1
100
AcDbEntity
  8
PART_HOLES_LAYER_TOP
100
AcDbHatch
 10
0.0
 20
0.0
 30
0.0
210
0.0
220
0.0
230
1.0
  2
SOLID
 70
         1
 71
         1
 91
        1
 92
        1
 93
        1
 72
         2
 10
1.73
 20
21.300000000000001
 40
0.5
 50
0.0
 51
360.0
 73
         1
 97
        1
330
D0
 75
         0
 76
         1
 98
        1
 10
0.0
 20
0.0
  0
CIRCLE
  5
D2
100
AcDbEntity
  8
PART_HOLES_LAYER_TOP
100
AcDbCircle
 10
4.27
 20
23.84
 30
0.0
 40
0.5
  0
HATCH
  5
D3
100
AcDbEntity
  8
PART_HOLES_LAYER_TOP
100
AcDbHatch
 10
0.0
 20
0.0
 30
0.0
210
0.0
220
0.0
230
1.0
  2
SOLID
 70
         1
 71
         1
 91
        1
 92
        1
 93
        1
 72
         2
 10
4.2699999999999996
 20
23.84
 40
0.5
 50
0.0
 51
360.0
 73
         1
 97
        1
330
D2
 75
         0
 76
         1
 98
        1
 10
0.0
 20
0.0
  0
CIRCLE
  5
D4
100
AcDbEntity
  8
PART_HOLES_LAYER_TOP
100
AcDbCircle
 10
1.73
 20
23.84
 30
0.0
 40
0.5
  0
HATCH
  5
D5
100
AcDbEntity
  8
PART_HOLES_LAYER_TOP
100
AcDbHatch
 10
0.0
 20
0.0
 30
0.0
210
0.0
220
0.0
230
1.0
  2
SOLID
 70
         1
 71
         1
 91
        1
 92
        1
 93
        1
 72
         2
 10
1.73
 20
23.84
 40
0.5
 50
0.0
 51
360.0
 73
         1
 97
        1
330
D4
 75
         0
 76
         1
 98
        1
 10
0.0
 20
0.0
  0
CIRCLE
  5
D6
100
AcDbEntity
  8
PART_HOLES_LAYER_TOP
100
AcDbCircle
 10
4.27
 20
26.38
 30
0.0
 40
0.5
  0
HATCH
  5
D7
100
AcDbEntity
  8
PART_HOLES_LAYER_TOP
100
AcDbHatch
 10
0.0
 20
0.0
 30
0.0
210
0.0
220
0.0
230
1.0
  2
SOLID
 70
         1
 71
         1
 91
        1
 92
        1
 93
        1
 72
         2
 10
4.2699999999999996
 20
26.379999999999999
 40
0.5
 50
0.0
 51
360.0
 73
         1
 97
        1
330
D6
 75
         0
 76
         1
 98
        1
 10
0.0
 20
0.0
  0
CIRCLE
  5
D8
100
AcDbEntity
  8
PART_HOLES_LAYER_TOP
100
AcDbCircle
 10
1.73
 20
26.38
 30
0.0
 40
0.5
  0
HATCH
  5
D9
100
AcDbEntity
  8
PART_HOLES_LAYER_TOP
100
AcDbHatch
 10
0.0
 20
0.0
 30
0.0
210
0.0
220
0.0
230
1.0
  2
SOLID
 70
         1
 71
         1
 91
        1
 92
        1
 93
        1
 72
         2
 10
1.73
 20
26.379999999999999
 40
0.5
 50
0.0
 51
360.0
 73
         1
 97
        1
330
D8
 75
         0
 76
         1
 98
        1
 10
0.0
 20
0.0
  0
CIRCLE
  5
DA
100
AcDbEntity
  8
PART_HOLES_LAYER_TOP
100
AcDbCircle
 10
4.27
 20
28.92
 30
0.0
 40
0.5
  0
HATCH
  5
DB
100
AcDbEntity
  8
PART_HOLES_LAYER_TOP
100
AcDbHatch
 10
0.0
 20
0.0
 30
0.0
210
0.0
220
0.0
230
1.0
  2
SOLID
 70
         1
 71
         1
 91
        1
 92
        1
 93
        1
 72
         2
 10
4.2699999999999996
 20
28.920000000000002
 40
0.5
 50
0.0
 51
360.0
 73
         1
 97
        1
330
DA
 75
         0
 76
         1
 98
        1
 10
0.0
 20
0.0
  0
CIRCLE
  5
DC
100
AcDbEntity
  8
PART_HOLES_LAYER_TOP
100
AcDbCircle
 10
1.73
 20
28.92
 30
0.0
 40
0.5
  0
HATCH
  5
DD
100
AcDbEntity
  8
PART_HOLES_LAYER_TOP
100
AcDbHatch
 10
0.0
 20
0.0
 30
0.0
210
0.0
220
0.0
230
1.0
  2
SOLID
 70
         1
 71
         1
 91
        1
 92
        1
 93
        1
 72
         2
 10
1.73
 20
28.920000000000002
 40
0.5
 50
0.0
 51
360.0
 73
         1
 97
        1
330
DC
 75
         0
 76
         1
 98
        1
 10
0.0
 20
0.0
  0
CIRCLE
  5
DE
100
AcDbEntity
  8
PART_HOLES_LAYER_TOP
100
AcDbCircle
 10
4.27
 20
31.46
 30
0.0
 40
0.5
  0
HATCH
  5
DF
100
AcDbEntity
  8
PART_HOLES_LAYER_TOP
100
AcDbHatch
 10
0.0
 20
0.0
 30
0.0
210
0.0
220
0.0
230
1.0
  2
SOLID
 70
         1
 71
         1
 91
        1
 92
        1
 93
        1
 72
         2
 10
4.2699999999999996
 20
31.460000000000001
 40
0.5
 50
0.0
 51
360.0
 73
         1
 97
        1
330
DE
 75
         0
 76
         1
 98
        1
 10
0.0
 20
0.0
  0
CIRCLE
  5
E0
100
AcDbEntity
  8
PART_HOLES_LAYER_TOP
100
AcDbCircle
 10
1.73
 20
31.46
 30
0.0
 40
0.5
  0
HATCH
  5
E1
100
AcDbEntity
  8
PART_HOLES_LAYER_TOP
100
AcDbHatch
 10
0.0
 20
0.0
 30
0.0
210
0.0
220
0.0
230
1.0
  2
SOLID
 70
         1
 71
         1
 91
        1
 92
        1
 93
        1
 72
         2
 10
1.73
 20
31.460000000000001
 40
0.5
 50
0.0
 51
360.0
 73
         1
 97
        1
330
E0
 75
         0
 76
         1
 98
        1
 10
0.0
 20
0.0
  0
CIRCLE
  5
E2
100
AcDbEntity
  8
PART_HOLES_LAYER_TOP
100
AcDbCircle
 10
4.27
 20
34.0
 30
0.0
 40
0.5
  0
HATCH
  5
E3
100
AcDbEntity
  8
PART_HOLES_LAYER_TOP
100
AcDbHatch
 10
0.0
 20
0.0
 30
0.0
210
0.0
220
0.0
230
1.0
  2
SOLID
 70
         1
 71
         1
 91
        1
 92
        1
 93
        1
 72
         2
 10
4.2699999999999996
 20
34.0
 40
0.5
 50
0.0
 51
360.0
 73
         1
 97
        1
330
E2
 75
         0
 76
         1
 98
        1
 10
0.0
 20
0.0
  0
CIRCLE
  5
E4
100
AcDbEntity
  8
PART_HOLES_LAYER_TOP
100
AcDbCircle
 10
1.73
 20
34.0
 30
0.0
 40
0.5
  0
HATCH
  5
E5
100
AcDbEntity
  8
PART_HOLES_LAYER_TOP
100
AcDbHatch
 10
0.0
 20
0.0
 30
0.0
210
0.0
220
0.0
230
1.0
  2
SOLID
 70
         1
 71
         1
 91
        1
 92
        1
 93
        1
 72
         2
 10
1.73
 20
34.0
 40
0.5
 50
0.0
 51
360.0
 73
         1
 97
        1
330
E4
 75
         0
 76
         1
 98
        1
 10
0.0
 20
0.0
  0
CIRCLE
  5
E6
100
AcDbEntity
  8
PART_HOLES_LAYER_TOP
100
AcDbCircle
 10
4.27
 20
36.54
 30
0.0
 40
0.5
  0
HATCH
  5
E7
100
AcDbEntity
  8
PART_HOLES_LAYER_TOP
100
AcDbHatch
 10
0.0
 20
0.0
 30
0.0
210
0.0
220
0.0
230
1.0
  2
SOLID
 70
         1
 71
         1
 91
        1
 92
        1
 93
        1
 72
         2
 10
4.2699999999999996
 20
36.539999999999999
 40
0.5
 50
0.0
 51
360.0
 73
         1
 97
        1
330
E6
 75
         0
 76
         1
 98
        1
 10
0.0
 20
0.0
  0
CIRCLE
  5
E8
100
AcDbEntity
  8
PART_HOLES_LAYER_TOP
100
AcDbCircle
 10
1.73
 20
36.54
 30
0.0
 40
0.5
  0
HATCH
  5
E9
100
AcDbEntity
  8
PART_HOLES_LAYER_TOP
100
AcDbHatch
 10
0.0
 20
0.0
 30
0.0
210
0.0
220
0.0
230
1.0
  2
SOLID
 70
         1
 71
         1
 91
        1
 92
        1
 93
        1
 72
         2
 10
1.73
 20
36.539999999999999
 40
0.5
 50
0.0
 51
360.0
 73
         1
 97
        1
330
E8
 75
         0
 76
         1
 98
        1
 10
0.0
 20
0.0
  0
CIRCLE
  5
EA
100
AcDbEntity
  8
PART_HOLES_LAYER_TOP
100
AcDbCircle
 10
4.27
 20
39.08
 30
0.0
 40
0.5
  0
HATCH
  5
EB
100
AcDbEntity
  8
PART_HOLES_LAYER_TOP
100
AcDbHatch
 10
0.0
 20
0.0
 30
0.0
210
0.0
220
0.0
230
1.0
  2
SOLID
 70
         1
 71
         1
 91
        1
 92
        1
 93
        1
 72
         2
 10
4.2699999999999996
 20
39.079999999999998
 40
0.5
 50
0.0
 51
360.0
 73
         1
 97
        1
330
EA
 75
         0
 76
         1
 98
        1
 10
0.0
 20
0.0
  0
CIRCLE
  5
EC
100
AcDbEntity
  8
PART_HOLES_LAYER_TOP
100
AcDbCircle
 10
1.73
 20
39.08
 30
0.0
 40
0.5
  0
HATCH
  5
ED
100
AcDbEntity
  8
PART_HOLES_LAYER_TOP
100
AcDbHatch
 10
0.0
 20
0.0
 30
0.0
210
0.0
220
0.0
230
1.0
  2
SOLID
 70
         1
 71
         1
 91
        1
 92
        1
 93
        1
 72
         2
 10
1.73
 20
39.079999999999998
 40
0.5
 50
0.0
 51
360.0
 73
         1
 97
        1
330
EC
 75
         0
 76
         1
 98
        1
 10
0.0
 20
0.0
  0
CIRCLE
  5
EE
100
AcDbEntity
  8
PART_HOLES_LAYER_TOP
100
AcDbCircle
 10
4.27
 20
41.62
 30
0.0
 40
0.5
  0
HATCH
  5
EF
100
AcDbEntity
  8
PART_HOLES_LAYER_TOP
100
AcDbHatch
 10
0.0
 20
0.0
 30
0.0
210
0.0
220
0.0
230
1.0
  2
SOLID
 70
         1
 71
         1
 91
        1
 92
        1
 93
        1
 72
         2
 10
4.2699999999999996
 20
41.619999999999997
 40
0.5
 50
0.0
 51
360.0
 73
         1
 97
        1
330
EE
 75
         0
 76
         1
 98
        1
 10
0.0
 20
0.0
  0
CIRCLE
  5
F0
100
AcDbEntity
  8
PART_HOLES_LAYER_TOP
100
AcDbCircle
 10
1.73
 20
41.62
 30
0.0
 40
0.5
  0
HATCH
  5
F1
100
AcDbEntity
  8
PART_HOLES_LAYER_TOP
100
AcDbHatch
 10
0.0
 20
0.0
 30
0.0
210
0.0
220
0.0
230
1.0
  2
SOLID
 70
         1
 71
         1
 91
        1
 92
        1
 93
        1
 72
         2
 10
1.73
 20
41.619999999999997
 40
0.5
 50
0.0
 51
360.0
 73
         1
 97
        1
330
F0
 75
         0
 76
         1
 98
        1
 10
0.0
 20
0.0
  0
CIRCLE
  5
F2
100
AcDbEntity
  8
PART_HOLES_LAYER_TOP
100
AcDbCircle
 10
4.27
 20
44.16
 30
0.0
 40
0.5
  0
HATCH
  5
F3
100
AcDbEntity
  8
PART_HOLES_LAYER_TOP
100
AcDbHatch
 10
0.0
 20
0.0
 30
0.0
210
0.0
220
0.0
230
1.0
  2
SOLID
 70
         1
 71
         1
 91
        1
 92
        1
 93
        1
 72
         2
 10
4.2699999999999996
 20
44.159999999999997
 40
0.5
 50
0.0
 51
360.0
 73
         1
 97
        1
330
F2
 75
         0
 76
         1
 98
        1
 10
0.0
 20
0.0
  0
CIRCLE
  5
F4
100
AcDbEntity
  8
PART_HOLES_LAYER_TOP
100
AcDbCircle
 10
1.73
 20
44.16
 30
0.0
 40
0.5
  0
HATCH
  5
F5
100
AcDbEntity
  8
PART_HOLES_LAYER_TOP
100
AcDbHatch
 10
0.0
 20
0.0
 30
0.0
210
0.0
220
0.0
230
1.0
  2
SOLID
 70
         1
 71
         1
 91
        1
 92
        1
 93
        1
 72
         2
 10
1.73
 20
44.159999999999997
 40
0.5
 50
0.0
 51
360.0
 73
         1
 97
        1
330
F4
 75
         0
 76
         1
 98
        1
 10
0.0
 20
0.0
  0
CIRCLE
  5
F6
100
AcDbEntity
  8
PART_HOLES_LAYER_TOP
100
AcDbCircle
 10
6.98
 20
11.32
 30
0.0
 40
0.4
  0
HATCH
  5
F7
100
AcDbEntity
  8
PART_HOLES_LAYER_TOP
100
AcDbHatch
 10
0.0
 20
0.0
 30
0.0
210
0.0
220
0.0
230
1.0
  2
SOLID
 70
         1
 71
         1
 91
        1
 92
        1
 93
        1
 72
         2
 10
6.9800000000000004
 20
11.32
 40
0.4
 50
0.0
 51
360.0
 73
         1
 97
        1
330
F6
 75
         0
 76
         1
 98
        1
 10
0.0
 20
0.0
  0
CIRCLE
  5
F8
100
AcDbEntity
  8
PART_HOLES_LAYER_TOP
100
AcDbCircle
 10
8.98
 20
11.32
 30
0.0
 40
0.4
  0
HATCH
  5
F9
100
AcDbEntity
  8
PART_HOLES_LAYER_TOP
100
AcDbHatch
 10
0.0
 20
0.0
 30
0.0
210
0.0
220
0.0
230
1.0
  2
SOLID
 70
         1
 71
         1
 91
        1
 92
        1
 93
        1
 72
         2
 10
8.9800000000000004
 20
11.32
 40
0.4
 50
0.0
 51
360.0
 73
         1
 97
        1
330
F8
 75
         0
 76
         1
 98
        1
 10
0.0
 20
0.0
  0
CIRCLE
  5
FA
100
AcDbEntity
  8
PART_HOLES_LAYER_TOP
100
AcDbCircle
 10
10.98
 20
11.32
 30
0.0
 40
0.4
  0
HATCH
  5
FB
100
AcDbEntity
  8
PART_HOLES_LAYER_TOP
100
AcDbHatch
 10
0.0
 20
0.0
 30
0.0
210
0.0
220
0.0
230
1.0
  2
SOLID
 70
         1
 71
         1
 91
        1
 92
        1
 93
        1
 72
         2
 10
10.98
 20
11.32
 40
0.4
 50
0.0
 51
360.0
 73
         1
 97
        1
330
FA
 75
         0
 76
         1
 98
        1
 10
0.0
 20
0.0
  0
CIRCLE
  5
FC
100
AcDbEntity
  8
PART_HOLES_LAYER_TOP
100
AcDbCircle
 10
12.98
 20
11.32
 30
0.0
 40
0.4
  0
HATCH
  5
FD
100
AcDbEntity
  8
PART_HOLES_LAYER_TOP
100
AcDbHatch
 10
0.0
 20
0.0
 30
0.0
210
0.0
220
0.0
230
1.0
  2
SOLID
 70
         1
 71
         1
 91
        1
 92
        1
 93
        1
 72
         2
 10
12.98
 20
11.32
 40
0.4
 50
0.0
 51
360.0
 73
         1
 97
        1
330
FC
 75
         0
 76
         1
 98
        1
 10
0.0
 20
0.0
  0
CIRCLE
  5
FE
100
AcDbEntity
  8
PART_HOLES_LAYER_TOP
100
AcDbCircle
 10
14.98
 20
11.32
 30
0.0
 40
0.4
  0
HATCH
  5
FF
100
AcDbEntity
  8
PART_HOLES_LAYER_TOP
100
AcDbHatch
 10
0.0
 20
0.0
 30
0.0
210
0.0
220
0.0
230
1.0
  2
SOLID
 70
         1
 71
         1
 91
        1
 92
        1
 93
        1
 72
         2
 10
14.98
 20
11.32
 40
0.4
 50
0.0
 51
360.0
 73
         1
 97
        1
330
FE
 75
         0
 76
         1
 98
        1
 10
0.0
 20
0.0
  0
CIRCLE
  5
100
100
AcDbEntity
  8
PART_HOLES_LAYER_TOP
100
AcDbCircle
 10
16.98
 20
11.32
 30
0.0
 40
0.4
  0
HATCH
  5
101
100
AcDbEntity
  8
PART_HOLES_LAYER_TOP
100
AcDbHatch
 10
0.0
 20
0.0
 30
0.0
210
0.0
220
0.0
230
1.0
  2
SOLID
 70
         1
 71
         1
 91
        1
 92
        1
 93
        1
 72
         2
 10
16.98
 20
11.32
 40
0.4
 50
0.0
 51
360.0
 73
         1
 97
        1
330
100
 75
         0
 76
         1
 98
        1
 10
0.0
 20
0.0
  0
CIRCLE
  5
102
100
AcDbEntity
  8
PART_HOLES_LAYER_TOP
100
AcDbCircle
 10
18.98
 20
11.32
 30
0.0
 40
0.4
  0
HATCH
  5
103
100
AcDbEntity
  8
PART_HOLES_LAYER_TOP
100
AcDbHatch
 10
0.0
 20
0.0
 30
0.0
210
0.0
220
0.0
230
1.0
  2
SOLID
 70
         1
 71
         1
 91
        1
 92
        1
 93
        1
 72
         2
 10
18.98
 20
11.32
 40
0.4
 50
0.0
 51
360.0
 73
         1
 97
        1
330
102
 75
         0
 76
         1
 98
        1
 10
0.0
 20
0.0
  0
CIRCLE
  5
104
100
AcDbEntity
  8
PART_HOLES_LAYER_TOP
100
AcDbCircle
 10
20.98
 20
11.32
 30
0.0
 40
0.4
  0
HATCH
  5
105
100
AcDbEntity
  8
PART_HOLES_LAYER_TOP
100
AcDbHatch
 10
0.0
 20
0.0
 30
0.0
210
0.0
220
0.0
230
1.0
  2
SOLID
 70
         1
 71
         1
 91
        1
 92
        1
 93
        1
 72
         2
 10
20.98
 20
11.32
 40
0.4
 50
0.0
 51
360.0
 73
         1
 97
        1
330
104
 75
         0
 76
         1
 98
        1
 10
0.0
 20
0.0
  0
CIRCLE
  5
106
100
AcDbEntity
  8
PART_HOLES_LAYER_TOP
100
AcDbCircle
 10
22.98
 20
11.32
 30
0.0
 40
0.4
  0
HATCH
  5
107
100
AcDbEntity
  8
PART_HOLES_LAYER_TOP
100
AcDbHatch
 10
0.0
 20
0.0
 30
0.0
210
0.0
220
0.0
230
1.0
  2
SOLID
 70
         1
 71
         1
 91
        1
 92
        1
 93
        1
 72
         2
 10
22.98
 20
11.32
 40
0.4
 50
0.0
 51
360.0
 73
         1
 97
        1
330
106
 75
         0
 76
         1
 98
        1
 10
0.0
 20
0.0
  0
CIRCLE
  5
108
100
AcDbEntity
  8
PART_HOLES_LAYER_TOP
100
AcDbCircle
 10
24.98
 20
11.32
 30
0.0
 40
0.4
  0
HATCH
  5
109
100
AcDbEntity
  8
PART_HOLES_LAYER_TOP
100
AcDbHatch
 10
0.0
 20
0.0
 30
0.0
210
0.0
220
0.0
230
1.0
  2
SOLID
 70
         1
 71
         1
 91
        1
 92
        1
 93
        1
 72
         2
 10
24.98
 20
11.32
 40
0.4
 50
0.0
 51
360.0
 73
         1
 97
        1
330
108
 75
         0
 76
         1
 98
        1
 10
0.0
 20
0.0
  0
CIRCLE
  5
10A
100
AcDbEntity
  8
PART_HOLES_LAYER_TOP
100
AcDbCircle
 10
26.98
 20
11.32
 30
0.0
 40
0.4
  0
HATCH
  5
10B
100
AcDbEntity
  8
PART_HOLES_LAYER_TOP
100
AcDbHatch
 10
0.0
 20
0.0
 30
0.0
210
0.0
220
0.0
230
1.0
  2
SOLID
 70
         1
 71
         1
 91
        1
 92
        1
 93
        1
 72
         2
 10
26.98
 20
11.32
 40
0.4
 50
0.0
 51
360.0
 73
         1
 97
        1
330
10A
 75
         0
 76
         1
 98
        1
 10
0.0
 20
0.0
  0
CIRCLE
  5
10C
100
AcDbEntity
  8
PART_HOLES_LAYER_TOP
100
AcDbCircle
 10
28.98
 20
11.32
 30
0.0
 40
0.4
  0
HATCH
  5
10D
100
AcDbEntity
  8
PART_HOLES_LAYER_TOP
100
AcDbHatch
 10
0.0
 20
0.0
 30
0.0
210
0.0
220
0.0
230
1.0
  2
SOLID
 70
         1
 71
         1
 91
        1
 92
        1
 93
        1
 72
         2
 10
28.98
 20
11.32
 40
0.4
 50
0.0
 51
360.0
 73
         1
 97
        1
330
10C
 75
         0
 76
         1
 98
        1
 10
0.0
 20
0.0
  0
CIRCLE
  5
10E
100
AcDbEntity
  8
PART_HOLES_LAYER_TOP
100
AcDbCircle
 10
30.98
 20
11.32
 30
0.0
 40
0.4
  0
HATCH
  5
10F
100
AcDbEntity
  8
PART_HOLES_LAYER_TOP
100
AcDbHatch
 10
0.0
 20
0.0
 30
0.0
210
0.0
220
0.0
230
1.0
  2
SOLID
 70
         1
 71
         1
 91
        1
 92
        1
 93
        1
 72
         2
 10
30.98
 20
11.32
 40
0.4
 50
0.0
 51
360.0
 73
         1
 97
        1
330
10E
 75
         0
 76
         1
 98
        1
 10
0.0
 20
0.0
  0
CIRCLE
  5
110
100
AcDbEntity
  8
PART_HOLES_LAYER_TOP
100
AcDbCircle
 10
32.98
 20
11.32
 30
0.0
 40
0.4
  0
HATCH
  5
111
100
AcDbEntity
  8
PART_HOLES_LAYER_TOP
100
AcDbHatch
 10
0.0
 20
0.0
 30
0.0
210
0.0
220
0.0
230
1.0
  2
SOLID
 70
         1
 71
         1
 91
        1
 92
        1
 93
        1
 72
         2
 10
32.979999999999997
 20
11.32
 40
0.4
 50
0.0
 51
360.0
 73
         1
 97
        1
330
110
 75
         0
 76
         1
 98
        1
 10
0.0
 20
0.0
  0
CIRCLE
  5
112
100
AcDbEntity
  8
PART_HOLES_LAYER_TOP
100
AcDbCircle
 10
34.98
 20
11.32
 30
0.0
 40
0.4
  0
HATCH
  5
113
100
AcDbEntity
  8
PART_HOLES_LAYER_TOP
100
AcDbHatch
 10
0.0
 20
0.0
 30
0.0
210
0.0
220
0.0
230
1.0
  2
SOLID
 70
         1
 71
         1
 91
        1
 92
        1
 93
        1
 72
         2
 10
34.979999999999997
 20
11.32
 40
0.4
 50
0.0
 51
360.0
 73
         1
 97
        1
330
112
 75
         0
 76
         1
 98
        1
 10
0.0
 20
0.0
  0
CIRCLE
  5
114
100
AcDbEntity
  8
PART_HOLES_LAYER_TOP
100
AcDbCircle
 10
36.98
 20
11.32
 30
0.0
 40
0.4
  0
HATCH
  5
115
100
AcDbEntity
  8
PART_HOLES_LAYER_TOP
100
AcDbHatch
 10
0.0
 20
0.0
 30
0.0
210
0.0
220
0.0
230
1.0
  2
SOLID
 70
         1
 71
         1
 91
        1
 92
        1
 93
        1
 72
         2
 10
36.979999999999997
 20
11.32
 40
0.4
 50
0.0
 51
360.0
 73
         1
 97
        1
330
114
 75
         0
 76
         1
 98
        1
 10
0.0
 20
0.0
  0
CIRCLE
  5
116
100
AcDbEntity
  8
PART_HOLES_LAYER_TOP
100
AcDbCircle
 10
38.98
 20
11.32
 30
0.0
 40
0.4
  0
HATCH
  5
117
100
AcDbEntity
  8
PART_HOLES_LAYER_TOP
100
AcDbHatch
 10
0.0
 20
0.0
 30
0.0
210
0.0
220
0.0
230
1.0
  2
SOLID
 70
         1
 71
         1
 91
        1
 92
        1
 93
        1
 72
         2
 10
38.979999999999997
 20
11.32
 40
0.4
 50
0.0
 51
360.0
 73
         1
 97
        1
330
116
 75
         0
 76
         1
 98
        1
 10
0.0
 20
0.0
  0
CIRCLE
  5
118
100
AcDbEntity
  8
PART_HOLES_LAYER_TOP
100
AcDbCircle
 10
40.98
 20
11.32
 30
0.0
 40
0.4
  0
HATCH
  5
119
100
AcDbEntity
  8
PART_HOLES_LAYER_TOP
100
AcDbHatch
 10
0.0
 20
0.0
 30
0.0
210
0.0
220
0.0
230
1.0
  2
SOLID
 70
         1
 71
         1
 91
        1
 92
        1
 93
        1
 72
         2
 10
40.979999999999997
 20
11.32
 40
0.4
 50
0.0
 51
360.0
 73
         1
 97
        1
330
118
 75
         0
 76
         1
 98
        1
 10
0.0
 20
0.0
  0
CIRCLE
  5
11A
100
AcDbEntity
  8
PART_HOLES_LAYER_TOP
100
AcDbCircle
 10
42.98
 20
11.32
 30
0.0
 40
0.4
  0
HATCH
  5
11B
100
AcDbEntity
  8
PART_HOLES_LAYER_TOP
100
AcDbHatch
 10
0.0
 20
0.0
 30
0.0
210
0.0
220
0.0
230
1.0
  2
SOLID
 70
         1
 71
         1
 91
        1
 92
        1
 93
        1
 72
         2
 10
42.979999999999997
 20
11.32
 40
0.4
 50
0.0
 51
360.0
 73
         1
 97
        1
330
11A
 75
         0
 76
         1
 98
        1
 10
0.0
 20
0.0
  0
CIRCLE
  5
11C
100
AcDbEntity
  8
PART_HOLES_LAYER_TOP
100
AcDbCircle
 10
44.98
 20
11.32
 30
0.0
 40
0.4
  0
HATCH
  5
11D
100
AcDbEntity
  8
PART_HOLES_LAYER_TOP
100
AcDbHatch
 10
0.0
 20
0.0
 30
0.0
210
0.0
220
0.0
230
1.0
  2
SOLID
 70
         1
 71
         1
 91
        1
 92
        1
 93
        1
 72
         2
 10
44.979999999999997
 20
11.32
 40
0.4
 50
0.0
 51
360.0
 73
         1
 97
        1
330
11C
 75
         0
 76
         1
 98
        1
 10
0.0
 20
0.0
  0
CIRCLE
  5
11E
100
AcDbEntity
  8
PART_HOLES_LAYER_TOP
100
AcDbCircle
 10
46.98
 20
11.32
 30
0.0
 40
0.4
  0
HATCH
  5
11F
100
AcDbEntity
  8
PART_HOLES_LAYER_TOP
100
AcDbHatch
 10
0.0
 20
0.0
 30
0.0
210
0.0
220
0.0
230
1.0
  2
SOLID
 70
         1
 71
         1
 91
        1
 92
        1
 93
        1
 72
         2
 10
46.979999999999997
 20
11.32
 40
0.4
 50
0.0
 51
360.0
 73
         1
 97
        1
330
11E
 75
         0
 76
         1
 98
        1
 10
0.0
 20
0.0
  0
CIRCLE
  5
120
100
AcDbEntity
  8
PART_HOLES_LAYER_TOP
100
AcDbCircle
 10
48.98
 20
11.32
 30
0.0
 40
0.4
  0
HATCH
  5
121
100
AcDbEntity
  8
PART_HOLES_LAYER_TOP
100
AcDbHatch
 10
0.0
 20
0.0
 30
0.0
210
0.0
220
0.0
230
1.0
  2
SOLID
 70
         1
 71
         1
 91
        1
 92
        1
 93
        1
 72
         2
 10
48.979999999999997
 20
11.32
 40
0.4
 50
0.0
 51
360.0
 73
         1
 97
        1
330
120
 75
         0
 76
         1
 98
        1
 10
0.0
 20
0.0
  0
CIRCLE
  5
122
100
AcDbEntity
  8
PART_HOLES_LAYER_TOP
100
AcDbCircle
 10
50.98
 20
11.32
 30
0.0
 40
0.4
  0
HATCH
  5
123
100
AcDbEntity
  8
PART_HOLES_LAYER_TOP
100
AcDbHatch
 10
0.0
 20
0.0
 30
0.0
210
0.0
220
0.0
230
1.0
  2
SOLID
 70
         1
 71
         1
 91
        1
 92
        1
 93
        1
 72
         2
 10
50.979999999999997
 20
11.32
 40
0.4
 50
0.0
 51
360.0
 73
         1
 97
        1
330
122
 75
         0
 76
         1
 98
        1
 10
0.0
 20
0.0
  0
CIRCLE
  5
124
100
AcDbEntity
  8
PART_HOLES_LAYER_TOP
100
AcDbCircle
 10
52.98
 20
11.32
 30
0.0
 40
0.4
  0
HATCH
  5
125
100
AcDbEntity
  8
PART_HOLES_LAYER_TOP
100
AcDbHatch
 10
0.0
 20
0.0
 30
0.0
210
0.0
220
0.0
230
1.0
  2
SOLID
 70
         1
 71
         1
 91
        1
 92
        1
 93
        1
 72
         2
 10
52.979999999999997
 20
11.32
 40
0.4
 50
0.0
 51
360.0
 73
         1
 97
        1
330
124
 75
         0
 76
         1
 98
        1
 10
0.0
 20
0.0
  0
CIRCLE
  5
126
100
AcDbEntity
  8
PART_HOLES_LAYER_TOP
100
AcDbCircle
 10
54.98
 20
11.32
 30
0.0
 40
0.4
  0
HATCH
  5
127
100
AcDbEntity
  8
PART_HOLES_LAYER_TOP
100
AcDbHatch
 10
0.0
 20
0.0
 30
0.0
210
0.0
220
0.0
230
1.0
  2
SOLID
 70
         1
 71
         1
 91
        1
 92
        1
 93
        1
 72
         2
 10
54.979999999999997
 20
11.32
 40
0.4
 50
0.0
 51
360.0
 73
         1
 97
        1
330
126
 75
         0
 76
         1
 98
        1
 10
0.0
 20
0.0
  0
CIRCLE
  5
128
100
AcDbEntity
  8
PART_HOLES_LAYER_TOP
100
AcDbCircle
 10
56.98
 20
11.32
 30
0.0
 40
0.4
  0
HATCH
  5
129
100
AcDbEntity
  8
PART_HOLES_LAYER_TOP
100
AcDbHatch
 10
0.0
 20
0.0
 30
0.0
210
0.0
220
0.0
230
1.0
  2
SOLID
 70
         1
 71
         1
 91
        1
 92
        1
 93
        1
 72
         2
 10
56.979999999999997
 20
11.32
 40
0.4
 50
0.0
 51
360.0
 73
         1
 97
        1
330
128
 75
         0
 76
         1
 98
        1
 10
0.0
 20
0.0
  0
CIRCLE
  5
12A
100
AcDbEntity
  8
PART_HOLES_LAYER_TOP
100
AcDbCircle
 10
58.98
 20
11.32
 30
0.0
 40
0.4
  0
HATCH
  5
12B
100
AcDbEntity
  8
PART_HOLES_LAYER_TOP
100
AcDbHatch
 10
0.0
 20
0.0
 30
0.0
210
0.0
220
0.0
230
1.0
  2
SOLID
 70
         1
 71
         1
 91
        1
 92
        1
 93
        1
 72
         2
 10
58.979999999999997
 20
11.32
 40
0.4
 50
0.0
 51
360.0
 73
         1
 97
        1
330
12A
 75
         0
 76
         1
 98
        1
 10
0.0
 20
0.0
  0
CIRCLE
  5
12C
100
AcDbEntity
  8
PART_HOLES_LAYER_TOP
100
AcDbCircle
 10
60.98
 20
11.32
 30
0.0
 40
0.4
  0
HATCH
  5
12D
100
AcDbEntity
  8
PART_HOLES_LAYER_TOP
100
AcDbHatch
 10
0.0
 20
0.0
 30
0.0
210
0.0
220
0.0
230
1.0
  2
SOLID
 70
         1
 71
         1
 91
        1
 92
        1
 93
        1
 72
         2
 10
60.979999999999997
 20
11.32
 40
0.4
 50
0.0
 51
360.0
 73
         1
 97
        1
330
12C
 75
         0
 76
         1
 98
        1
 10
0.0
 20
0.0
  0
CIRCLE
  5
12E
100
AcDbEntity
  8
PART_HOLES_LAYER_TOP
100
AcDbCircle
 10
62.98
 20
11.32
 30
0.0
 40
0.4
  0
HATCH
  5
12F
100
AcDbEntity
  8
PART_HOLES_LAYER_TOP
100
AcDbHatch
 10
0.0
 20
0.0
 30
0.0
210
0.0
220
0.0
230
1.0
  2
SOLID
 70
         1
 71
         1
 91
        1
 92
        1
 93
        1
 72
         2
 10
62.979999999999997
 20
11.32
 40
0.4
 50
0.0
 51
360.0
 73
         1
 97
        1
330
12E
 75
         0
 76
         1
 98
        1
 10
0.0
 20
0.0
  0
CIRCLE
  5
130
100
AcDbEntity
  8
PART_HOLES_LAYER_TOP
100
AcDbCircle
 10
64.98
 20
11.32
 30
0.0
 40
0.4
  0
HATCH
  5
131
100
AcDbEntity
  8
PART_HOLES_LAYER_TOP
100
AcDbHatch
 10
0.0
 20
0.0
 30
0.0
210
0.0
220
0.0
230
1.0
  2
SOLID
 70
         1
 71
         1
 91
        1
 92
        1
 93
        1
 72
         2
 10
64.980000000000004
 20
11.32
 40
0.4
 50
0.0
 51
360.0
 73
         1
 97
        1
330
130
 75
         0
 76
         1
 98
        1
 10
0.0
 20
0.0
  0
CIRCLE
  5
132
100
AcDbEntity
  8
PART_HOLES_LAYER_TOP
100
AcDbCircle
 10
6.98
 20
9.32
 30
0.0
 40
0.4
  0
HATCH
  5
133
100
AcDbEntity
  8
PART_HOLES_LAYER_TOP
100
AcDbHatch
 10
0.0
 20
0.0
 30
0.0
210
0.0
220
0.0
230
1.0
  2
SOLID
 70
         1
 71
         1
 91
        1
 92
        1
 93
        1
 72
         2
 10
6.9800000000000004
 20
9.3200000000000003
 40
0.4
 50
0.0
 51
360.0
 73
         1
 97
        1
330
132
 75
         0
 76
         1
 98
        1
 10
0.0
 20
0.0
  0
CIRCLE
  5
134
100
AcDbEntity
  8
PART_HOLES_LAYER_TOP
100
AcDbCircle
 10
8.98
 20
9.32
 30
0.0
 40
0.4
  0
HATCH
  5
135
100
AcDbEntity
  8
PART_HOLES_LAYER_TOP
100
AcDbHatch
 10
0.0
 20
0.0
 30
0.0
210
0.0
220
0.0
230
1.0
  2
SOLID
 70
         1
 71
         1
 91
        1
 92
        1
 93
        1
 72
         2
 10
8.9800000000000004
 20
9.3200000000000003
 40
0.4
 50
0.0
 51
360.0
 73
         1
 97
        1
330
134
 75
         0
 76
         1
 98
        1
 10
0.0
 20
0.0
  0
CIRCLE
  5
136
100
AcDbEntity
  8
PART_HOLES_LAYER_TOP
100
AcDbCircle
 10
10.98
 20
9.32
 30
0.0
 40
0.4
  0
HATCH
  5
137
100
AcDbEntity
  8
PART_HOLES_LAYER_TOP
100
AcDbHatch
 10
0.0
 20
0.0
 30
0.0
210
0.0
220
0.0
230
1.0
  2
SOLID
 70
         1
 71
         1
 91
        1
 92
        1
 93
        1
 72
         2
 10
10.98
 20
9.3200000000000003
 40
0.4
 50
0.0
 51
360.0
 73
         1
 97
        1
330
136
 75
         0
 76
         1
 98
        1
 10
0.0
 20
0.0
  0
CIRCLE
  5
138
100
AcDbEntity
  8
PART_HOLES_LAYER_TOP
100
AcDbCircle
 10
12.98
 20
9.32
 30
0.0
 40
0.4
  0
HATCH
  5
139
100
AcDbEntity
  8
PART_HOLES_LAYER_TOP
100
AcDbHatch
 10
0.0
 20
0.0
 30
0.0
210
0.0
220
0.0
230
1.0
  2
SOLID
 70
         1
 71
         1
 91
        1
 92
        1
 93
        1
 72
         2
 10
12.98
 20
9.3200000000000003
 40
0.4
 50
0.0
 51
360.0
 73
         1
 97
        1
330
138
 75
         0
 76
         1
 98
        1
 10
0.0
 20
0.0
  0
CIRCLE
  5
13A
100
AcDbEntity
  8
PART_HOLES_LAYER_TOP
100
AcDbCircle
 10
14.98
 20
9.32
 30
0.0
 40
0.4
  0
HATCH
  5
13B
100
AcDbEntity
  8
PART_HOLES_LAYER_TOP
100
AcDbHatch
 10
0.0
 20
0.0
 30
0.0
210
0.0
220
0.0
230
1.0
  2
SOLID
 70
         1
 71
         1
 91
        1
 92
        1
 93
        1
 72
         2
 10
14.98
 20
9.3200000000000003
 40
0.4
 50
0.0
 51
360.0
 73
         1
 97
        1
330
13A
 75
         0
 76
         1
 98
        1
 10
0.0
 20
0.0
  0
CIRCLE
  5
13C
100
AcDbEntity
  8
PART_HOLES_LAYER_TOP
100
AcDbCircle
 10
16.98
 20
9.32
 30
0.0
 40
0.4
  0
HATCH
  5
13D
100
AcDbEntity
  8
PART_HOLES_LAYER_TOP
100
AcDbHatch
 10
0.0
 20
0.0
 30
0.0
210
0.0
220
0.0
230
1.0
  2
SOLID
 70
         1
 71
         1
 91
        1
 92
        1
 93
        1
 72
         2
 10
16.98
 20
9.3200000000000003
 40
0.4
 50
0.0
 51
360.0
 73
         1
 97
        1
330
13C
 75
         0
 76
         1
 98
        1
 10
0.0
 20
0.0
  0
CIRCLE
  5
13E
100
AcDbEntity
  8
PART_HOLES_LAYER_TOP
100
AcDbCircle
 10
18.98
 20
9.32
 30
0.0
 40
0.4
  0
HATCH
  5
13F
100
AcDbEntity
  8
PART_HOLES_LAYER_TOP
100
AcDbHatch
 10
0.0
 20
0.0
 30
0.0
210
0.0
220
0.0
230
1.0
  2
SOLID
 70
         1
 71
         1
 91
        1
 92
        1
 93
        1
 72
         2
 10
18.98
 20
9.3200000000000003
 40
0.4
 50
0.0
 51
360.0
 73
         1
 97
        1
330
13E
 75
         0
 76
         1
 98
        1
 10
0.0
 20
0.0
  0
CIRCLE
  5
140
100
AcDbEntity
  8
PART_HOLES_LAYER_TOP
100
AcDbCircle
 10
20.98
 20
9.32
 30
0.0
 40
0.4
  0
HATCH
  5
141
100
AcDbEntity
  8
PART_HOLES_LAYER_TOP
100
AcDbHatch
 10
0.0
 20
0.0
 30
0.0
210
0.0
220
0.0
230
1.0
  2
SOLID
 70
         1
 71
         1
 91
        1
 92
        1
 93
        1
 72
         2
 10
20.98
 20
9.3200000000000003
 40
0.4
 50
0.0
 51
360.0
 73
         1
 97
        1
330
140
 75
         0
 76
         1
 98
        1
 10
0.0
 20
0.0
  0
CIRCLE
  5
142
100
AcDbEntity
  8
PART_HOLES_LAYER_TOP
100
AcDbCircle
 10
22.98
 20
9.32
 30
0.0
 40
0.4
  0
HATCH
  5
143
100
AcDbEntity
  8
PART_HOLES_LAYER_TOP
100
AcDbHatch
 10
0.0
 20
0.0
 30
0.0
210
0.0
220
0.0
230
1.0
  2
SOLID
 70
         1
 71
         1
 91
        1
 92
        1
 93
        1
 72
         2
 10
22.98
 20
9.3200000000000003
 40
0.4
 50
0.0
 51
360.0
 73
         1
 97
        1
330
142
 75
         0
 76
         1
 98
        1
 10
0.0
 20
0.0
  0
CIRCLE
  5
144
100
AcDbEntity
  8
PART_HOLES_LAYER_TOP
100
AcDbCircle
 10
24.98
 20
9.32
 30
0.0
 40
0.4
  0
HATCH
  5
145
100
AcDbEntity
  8
PART_HOLES_LAYER_TOP
100
AcDbHatch
 10
0.0
 20
0.0
 30
0.0
210
0.0
220
0.0
230
1.0
  2
SOLID
 70
         1
 71
         1
 91
        1
 92
        1
 93
        1
 72
         2
 10
24.98
 20
9.3200000000000003
 40
0.4
 50
0.0
 51
360.0
 73
         1
 97
        1
330
144
 75
         0
 76
         1
 98
        1
 10
0.0
 20
0.0
  0
CIRCLE
  5
146
100
AcDbEntity
  8
PART_HOLES_LAYER_TOP
100
AcDbCircle
 10
26.98
 20
9.32
 30
0.0
 40
0.4
  0
HATCH
  5
147
100
AcDbEntity
  8
PART_HOLES_LAYER_TOP
100
AcDbHatch
 10
0.0
 20
0.0
 30
0.0
210
0.0
220
0.0
230
1.0
  2
SOLID
 70
         1
 71
         1
 91
        1
 92
        1
 93
        1
 72
         2
 10
26.98
 20
9.3200000000000003
 40
0.4
 50
0.0
 51
360.0
 73
         1
 97
        1
330
146
 75
         0
 76
         1
 98
        1
 10
0.0
 20
0.0
  0
CIRCLE
  5
148
100
AcDbEntity
  8
PART_HOLES_LAYER_TOP
100
AcDbCircle
 10
28.98
 20
9.32
 30
0.0
 40
0.4
  0
HATCH
  5
149
100
AcDbEntity
  8
PART_HOLES_LAYER_TOP
100
AcDbHatch
 10
0.0
 20
0.0
 30
0.0
210
0.0
220
0.0
230
1.0
  2
SOLID
 70
         1
 71
         1
 91
        1
 92
        1
 93
        1
 72
         2
 10
28.98
 20
9.3200000000000003
 40
0.4
 50
0.0
 51
360.0
 73
         1
 97
        1
330
148
 75
         0
 76
         1
 98
        1
 10
0.0
 20
0.0
  0
CIRCLE
  5
14A
100
AcDbEntity
  8
PART_HOLES_LAYER_TOP
100
AcDbCircle
 10
30.98
 20
9.32
 30
0.0
 40
0.4
  0
HATCH
  5
14B
100
AcDbEntity
  8
PART_HOLES_LAYER_TOP
100
AcDbHatch
 10
0.0
 20
0.0
 30
0.0
210
0.0
220
0.0
230
1.0
  2
SOLID
 70
         1
 71
         1
 91
        1
 92
        1
 93
        1
 72
         2
 10
30.98
 20
9.3200000000000003
 40
0.4
 50
0.0
 51
360.0
 73
         1
 97
        1
330
14A
 75
         0
 76
         1
 98
        1
 10
0.0
 20
0.0
  0
CIRCLE
  5
14C
100
AcDbEntity
  8
PART_HOLES_LAYER_TOP
100
AcDbCircle
 10
32.98
 20
9.32
 30
0.0
 40
0.4
  0
HATCH
  5
14D
100
AcDbEntity
  8
PART_HOLES_LAYER_TOP
100
AcDbHatch
 10
0.0
 20
0.0
 30
0.0
210
0.0
220
0.0
230
1.0
  2
SOLID
 70
         1
 71
         1
 91
        1
 92
        1
 93
        1
 72
         2
 10
32.979999999999997
 20
9.3200000000000003
 40
0.4
 50
0.0
 51
360.0
 73
         1
 97
        1
330
14C
 75
         0
 76
         1
 98
        1
 10
0.0
 20
0.0
  0
CIRCLE
  5
14E
100
AcDbEntity
  8
PART_HOLES_LAYER_TOP
100
AcDbCircle
 10
34.98
 20
9.32
 30
0.0
 40
0.4
  0
HATCH
  5
14F
100
AcDbEntity
  8
PART_HOLES_LAYER_TOP
100
AcDbHatch
 10
0.0
 20
0.0
 30
0.0
210
0.0
220
0.0
230
1.0
  2
SOLID
 70
         1
 71
         1
 91
        1
 92
        1
 93
        1
 72
         2
 10
34.979999999999997
 20
9.3200000000000003
 40
0.4
 50
0.0
 51
360.0
 73
         1
 97
        1
330
14E
 75
         0
 76
         1
 98
        1
 10
0.0
 20
0.0
  0
CIRCLE
  5
150
100
AcDbEntity
  8
PART_HOLES_LAYER_TOP
100
AcDbCircle
 10
36.98
 20
9.32
 30
0.0
 40
0.4
  0
HATCH
  5
151
100
AcDbEntity
  8
PART_HOLES_LAYER_TOP
100
AcDbHatch
 10
0.0
 20
0.0
 30
0.0
210
0.0
220
0.0
230
1.0
  2
SOLID
 70
         1
 71
         1
 91
        1
 92
        1
 93
        1
 72
         2
 10
36.979999999999997
 20
9.3200000000000003
 40
0.4
 50
0.0
 51
360.0
 73
         1
 97
        1
330
150
 75
         0
 76
         1
 98
        1
 10
0.0
 20
0.0
  0
CIRCLE
  5
152
100
AcDbEntity
  8
PART_HOLES_LAYER_TOP
100
AcDbCircle
 10
38.98
 20
9.32
 30
0.0
 40
0.4
  0
HATCH
  5
153
100
AcDbEntity
  8
PART_HOLES_LAYER_TOP
100
AcDbHatch
 10
0.0
 20
0.0
 30
0.0
210
0.0
220
0.0
230
1.0
  2
SOLID
 70
         1
 71
         1
 91
        1
 92
        1
 93
        1
 72
         2
 10
38.979999999999997
 20
9.3200000000000003
 40
0.4
 50
0.0
 51
360.0
 73
         1
 97
        1
330
152
 75
         0
 76
         1
 98
        1
 10
0.0
 20
0.0
  0
CIRCLE
  5
154
100
AcDbEntity
  8
PART_HOLES_LAYER_TOP
100
AcDbCircle
 10
40.98
 20
9.32
 30
0.0
 40
0.4
  0
HATCH
  5
155
100
AcDbEntity
  8
PART_HOLES_LAYER_TOP
100
AcDbHatch
 10
0.0
 20
0.0
 30
0.0
210
0.0
220
0.0
230
1.0
  2
SOLID
 70
         1
 71
         1
 91
        1
 92
        1
 93
        1
 72
         2
 10
40.979999999999997
 20
9.3200000000000003
 40
0.4
 50
0.0
 51
360.0
 73
         1
 97
        1
330
154
 75
         0
 76
         1
 98
        1
 10
0.0
 20
0.0
  0
CIRCLE
  5
156
100
AcDbEntity
  8
PART_HOLES_LAYER_TOP
100
AcDbCircle
 10
42.98
 20
9.32
 30
0.0
 40
0.4
  0
HATCH
  5
157
100
AcDbEntity
  8
PART_HOLES_LAYER_TOP
100
AcDbHatch
 10
0.0
 20
0.0
 30
0.0
210
0.0
220
0.0
230
1.0
  2
SOLID
 70
         1
 71
         1
 91
        1
 92
        1
 93
        1
 72
         2
 10
42.979999999999997
 20
9.3200000000000003
 40
0.4
 50
0.0
 51
360.0
 73
         1
 97
        1
330
156
 75
         0
 76
         1
 98
        1
 10
0.0
 20
0.0
  0
CIRCLE
  5
158
100
AcDbEntity
  8
PART_HOLES_LAYER_TOP
100
AcDbCircle
 10
44.98
 20
9.32
 30
0.0
 40
0.4
  0
HATCH
  5
159
100
AcDbEntity
  8
PART_HOLES_LAYER_TOP
100
AcDbHatch
 10
0.0
 20
0.0
 30
0.0
210
0.0
220
0.0
230
1.0
  2
SOLID
 70
         1
 71
         1
 91
        1
 92
        1
 93
        1
 72
         2
 10
44.979999999999997
 20
9.3200000000000003
 40
0.4
 50
0.0
 51
360.0
 73
         1
 97
        1
330
158
 75
         0
 76
         1
 98
        1
 10
0.0
 20
0.0
  0
CIRCLE
  5
15A
100
AcDbEntity
  8
PART_HOLES_LAYER_TOP
100
AcDbCircle
 10
46.98
 20
9.32
 30
0.0
 40
0.4
  0
HATCH
  5
15B
100
AcDbEntity
  8
PART_HOLES_LAYER_TOP
100
AcDbHatch
 10
0.0
 20
0.0
 30
0.0
210
0.0
220
0.0
230
1.0
  2
SOLID
 70
         1
 71
         1
 91
        1
 92
        1
 93
        1
 72
         2
 10
46.979999999999997
 20
9.3200000000000003
 40
0.4
 50
0.0
 51
360.0
 73
         1
 97
        1
330
15A
 75
         0
 76
         1
 98
        1
 10
0.0
 20
0.0
  0
CIRCLE
  5
15C
100
AcDbEntity
  8
PART_HOLES_LAYER_TOP
100
AcDbCircle
 10
48.98
 20
9.32
 30
0.0
 40
0.4
  0
HATCH
  5
15D
100
AcDbEntity
  8
PART_HOLES_LAYER_TOP
100
AcDbHatch
 10
0.0
 20
0.0
 30
0.0
210
0.0
220
0.0
230
1.0
  2
SOLID
 70
         1
 71
         1
 91
        1
 92
        1
 93
        1
 72
         2
 10
48.979999999999997
 20
9.3200000000000003
 40
0.4
 50
0.0
 51
360.0
 73
         1
 97
        1
330
15C
 75
         0
 76
         1
 98
        1
 10
0.0
 20
0.0
  0
CIRCLE
  5
15E
100
AcDbEntity
  8
PART_HOLES_LAYER_TOP
100
AcDbCircle
 10
50.98
 20
9.32
 30
0.0
 40
0.4
  0
HATCH
  5
15F
100
AcDbEntity
  8
PART_HOLES_LAYER_TOP
100
AcDbHatch
 10
0.0
 20
0.0
 30
0.0
210
0.0
220
0.0
230
1.0
  2
SOLID
 70
         1
 71
         1
 91
        1
 92
        1
 93
        1
 72
         2
 10
50.979999999999997
 20
9.3200000000000003
 40
0.4
 50
0.0
 51
360.0
 73
         1
 97
        1
330
15E
 75
         0
 76
         1
 98
        1
 10
0.0
 20
0.0
  0
CIRCLE
  5
160
100
AcDbEntity
  8
PART_HOLES_LAYER_TOP
100
AcDbCircle
 10
52.98
 20
9.32
 30
0.0
 40
0.4
  0
HATCH
  5
161
100
AcDbEntity
  8
PART_HOLES_LAYER_TOP
100
AcDbHatch
 10
0.0
 20
0.0
 30
0.0
210
0.0
220
0.0
230
1.0
  2
SOLID
 70
         1
 71
         1
 91
        1
 92
        1
 93
        1
 72
         2
 10
52.979999999999997
 20
9.3200000000000003
 40
0.4
 50
0.0
 51
360.0
 73
         1
 97
        1
330
160
 75
         0
 76
         1
 98
        1
 10
0.0
 20
0.0
  0
CIRCLE
  5
162
100
AcDbEntity
  8
PART_HOLES_LAYER_TOP
100
AcDbCircle
 10
54.98
 20
9.32
 30
0.0
 40
0.4
  0
HATCH
  5
163
100
AcDbEntity
  8
PART_HOLES_LAYER_TOP
100
AcDbHatch
 10
0.0
 20
0.0
 30
0.0
210
0.0
220
0.0
230
1.0
  2
SOLID
 70
         1
 71
         1
 91
        1
 92
        1
 93
        1
 72
         2
 10
54.979999999999997
 20
9.3200000000000003
 40
0.4
 50
0.0
 51
360.0
 73
         1
 97
        1
330
162
 75
         0
 76
         1
 98
        1
 10
0.0
 20
0.0
  0
CIRCLE
  5
164
100
AcDbEntity
  8
PART_HOLES_LAYER_TOP
100
AcDbCircle
 10
56.98
 20
9.32
 30
0.0
 40
0.4
  0
HATCH
  5
165
100
AcDbEntity
  8
PART_HOLES_LAYER_TOP
100
AcDbHatch
 10
0.0
 20
0.0
 30
0.0
210
0.0
220
0.0
230
1.0
  2
SOLID
 70
         1
 71
         1
 91
        1
 92
        1
 93
        1
 72
         2
 10
56.979999999999997
 20
9.3200000000000003
 40
0.4
 50
0.0
 51
360.0
 73
         1
 97
        1
330
164
 75
         0
 76
         1
 98
        1
 10
0.0
 20
0.0
  0
CIRCLE
  5
166
100
AcDbEntity
  8
PART_HOLES_LAYER_TOP
100
AcDbCircle
 10
58.98
 20
9.32
 30
0.0
 40
0.4
  0
HATCH
  5
167
100
AcDbEntity
  8
PART_HOLES_LAYER_TOP
100
AcDbHatch
 10
0.0
 20
0.0
 30
0.0
210
0.0
220
0.0
230
1.0
  2
SOLID
 70
         1
 71
         1
 91
        1
 92
        1
 93
        1
 72
         2
 10
58.979999999999997
 20
9.3200000000000003
 40
0.4
 50
0.0
 51
360.0
 73
         1
 97
        1
330
166
 75
         0
 76
         1
 98
        1
 10
0.0
 20
0.0
  0
CIRCLE
  5
168
100
AcDbEntity
  8
PART_HOLES_LAYER_TOP
100
AcDbCircle
 10
60.98
 20
9.32
 30
0.0
 40
0.4
  0
HATCH
  5
169
100
AcDbEntity
  8
PART_HOLES_LAYER_TOP
100
AcDbHatch
 10
0.0
 20
0.0
 30
0.0
210
0.0
220
0.0
230
1.0
  2
SOLID
 70
         1
 71
         1
 91
        1
 92
        1
 93
        1
 72
         2
 10
60.979999999999997
 20
9.3200000000000003
 40
0.4
 50
0.0
 51
360.0
 73
         1
 97
        1
330
168
 75
         0
 76
         1
 98
        1
 10
0.0
 20
0.0
  0
CIRCLE
  5
16A
100
AcDbEntity
  8
PART_HOLES_LAYER_TOP
100
AcDbCircle
 10
62.98
 20
9.32
 30
0.0
 40
0.4
  0
HATCH
  5
16B
100
AcDbEntity
  8
PART_HOLES_LAYER_TOP
100
AcDbHatch
 10
0.0
 20
0.0
 30
0.0
210
0.0
220
0.0
230
1.0
  2
SOLID
 70
         1
 71
         1
 91
        1
 92
        1
 93
        1
 72
         2
 10
62.979999999999997
 20
9.3200000000000003
 40
0.4
 50
0.0
 51
360.0
 73
         1
 97
        1
330
16A
 75
         0
 76
         1
 98
        1
 10
0.0
 20
0.0
  0
CIRCLE
  5
16C
100
AcDbEntity
  8
PART_HOLES_LAYER_TOP
100
AcDbCircle
 10
64.98
 20
9.32
 30
0.0
 40
0.4
  0
HATCH
  5
16D
100
AcDbEntity
  8
PART_HOLES_LAYER_TOP
100
AcDbHatch
 10
0.0
 20
0.0
 30
0.0
210
0.0
220
0.0
230
1.0
  2
SOLID
 70
         1
 71
         1
 91
        1
 92
        1
 93
        1
 72
         2
 10
64.980000000000004
 20
9.3200000000000003
 40
0.4
 50
0.0
 51
360.0
 73
         1
 97
        1
330
16C
 75
         0
 76
         1
 98
        1
 10
0.0
 20
0.0
  0
CIRCLE
  5
16E
100
AcDbEntity
  8
PART_HOLES_LAYER_TOP
100
AcDbCircle
 10
69.08
 20
3.06
 30
0.0
 40
1.6
  0
HATCH
  5
16F
100
AcDbEntity
  8
PART_HOLES_LAYER_TOP
100
AcDbHatch
 10
0.0
 20
0.0
 30
0.0
210
0.0
220
0.0
230
1.0
  2
SOLID
 70
         1
 71
         1
 91
        1
 92
        1
 93
        1
 72
         2
 10
69.079999999999998
 20
3.0600000000000001
 40
1.6000000000000001
 50
0.0
 51
360.0
 73
         1
 97
        1
330
16E
 75
         0
 76
         1
 98
        1
 10
0.0
 20
0.0
  0
CIRCLE
  5
170
100
AcDbEntity
  8
PART_HOLES_LAYER_TOP
100
AcDbCircle
 10
6.98
 20
4.16
 30
0.0
 40
0.4
  0
HATCH
  5
171
100
AcDbEntity
  8
PART_HOLES_LAYER_TOP
100
AcDbHatch
 10
0.0
 20
0.0
 30
0.0
210
0.0
220
0.0
230
1.0
  2
SOLID
 70
         1
 71
         1
 91
        1
 92
        1
 93
        1
 72
         2
 10
6.9800000000000004
 20
4.1600000000000001
 40
0.4
 50
0.0
 51
360.0
 73
         1
 97
        1
330
170
 75
         0
 76
         1
 98
        1
 10
0.0
 20
0.0
  0
CIRCLE
  5
172
100
AcDbEntity
  8
PART_HOLES_LAYER_TOP
100
AcDbCircle
 10
6.98
 20
2.16
 30
0.0
 40
0.4
  0
HATCH
  5
173
100
AcDbEntity
  8
PART_HOLES_LAYER_TOP
100
AcDbHatch
 10
0.0
 20
0.0
 30
0.0
210
0.0
220
0.0
230
1.0
  2
SOLID
 70
         1
 71
         1
 91
        1
 92
        1
 93
        1
 72
         2
 10
6.9800000000000004
 20
2.1600000000000001
 40
0.4
 50
0.0
 51
360.0
 73
         1
 97
        1
330
172
 75
         0
 76
         1
 98
        1
 10
0.0
 20
0.0
  0
CIRCLE
  5
174
100
AcDbEntity
  8
PART_HOLES_LAYER_TOP
100
AcDbCircle
 10
8.98
 20
4.16
 30
0.0
 40
0.4
  0
HATCH
  5
175
100
AcDbEntity
  8
PART_HOLES_LAYER_TOP
100
AcDbHatch
 10
0.0
 20
0.0
 30
0.0
210
0.0
220
0.0
230
1.0
  2
SOLID
 70
         1
 71
         1
 91
        1
 92
        1
 93
        1
 72
         2
 10
8.9800000000000004
 20
4.1600000000000001
 40
0.4
 50
0.0
 51
360.0
 73
         1
 97
        1
330
174
 75
         0
 76
         1
 98
        1
 10
0.0
 20
0.0
  0
CIRCLE
  5
176
100
AcDbEntity
  8
PART_HOLES_LAYER_TOP
100
AcDbCircle
 10
8.98
 20
2.16
 30
0.0
 40
0.4
  0
HATCH
  5
177
100
AcDbEntity
  8
PART_HOLES_LAYER_TOP
100
AcDbHatch
 10
0.0
 20
0.0
 30
0.0
210
0.0
220
0.0
230
1.0
  2
SOLID
 70
         1
 71
         1
 91
        1
 92
        1
 93
        1
 72
         2
 10
8.9800000000000004
 20
2.1600000000000001
 40
0.4
 50
0.0
 51
360.0
 73
         1
 97
        1
330
176
 75
         0
 76
         1
 98
        1
 10
0.0
 20
0.0
  0
CIRCLE
  5
178
100
AcDbEntity
  8
PART_HOLES_LAYER_TOP
100
AcDbCircle
 10
10.98
 20
4.16
 30
0.0
 40
0.4
  0
HATCH
  5
179
100
AcDbEntity
  8
PART_HOLES_LAYER_TOP
100
AcDbHatch
 10
0.0
 20
0.0
 30
0.0
210
0.0
220
0.0
230
1.0
  2
SOLID
 70
         1
 71
         1
 91
        1
 92
        1
 93
        1
 72
         2
 10
10.98
 20
4.1600000000000001
 40
0.4
 50
0.0
 51
360.0
 73
         1
 97
        1
330
178
 75
         0
 76
         1
 98
        1
 10
0.0
 20
0.0
  0
CIRCLE
  5
17A
100
AcDbEntity
  8
PART_HOLES_LAYER_TOP
100
AcDbCircle
 10
10.98
 20
2.16
 30
0.0
 40
0.4
  0
HATCH
  5
17B
100
AcDbEntity
  8
PART_HOLES_LAYER_TOP
100
AcDbHatch
 10
0.0
 20
0.0
 30
0.0
210
0.0
220
0.0
230
1.0
  2
SOLID
 70
         1
 71
         1
 91
        1
 92
        1
 93
        1
 72
         2
 10
10.98
 20
2.1600000000000001
 40
0.4
 50
0.0
 51
360.0
 73
         1
 97
        1
330
17A
 75
         0
 76
         1
 98
        1
 10
0.0
 20
0.0
  0
CIRCLE
  5
17C
100
AcDbEntity
  8
PART_HOLES_LAYER_TOP
100
AcDbCircle
 10
12.98
 20
4.16
 30
0.0
 40
0.4
  0
HATCH
  5
17D
100
AcDbEntity
  8
PART_HOLES_LAYER_TOP
100
AcDbHatch
 10
0.0
 20
0.0
 30
0.0
210
0.0
220
0.0
230
1.0
  2
SOLID
 70
         1
 71
         1
 91
        1
 92
        1
 93
        1
 72
         2
 10
12.98
 20
4.1600000000000001
 40
0.4
 50
0.0
 51
360.0
 73
         1
 97
        1
330
17C
 75
         0
 76
         1
 98
        1
 10
0.0
 20
0.0
  0
CIRCLE
  5
17E
100
AcDbEntity
  8
PART_HOLES_LAYER_TOP
100
AcDbCircle
 10
12.98
 20
2.16
 30
0.0
 40
0.4
  0
HATCH
  5
17F
100
AcDbEntity
  8
PART_HOLES_LAYER_TOP
100
AcDbHatch
 10
0.0
 20
0.0
 30
0.0
210
0.0
220
0.0
230
1.0
  2
SOLID
 70
         1
 71
         1
 91
        1
 92
        1
 93
        1
 72
         2
 10
12.98
 20
2.1600000000000001
 40
0.4
 50
0.0
 51
360.0
 73
         1
 97
        1
330
17E
 75
         0
 76
         1
 98
        1
 10
0.0
 20
0.0
  0
CIRCLE
  5
180
100
AcDbEntity
  8
PART_HOLES_LAYER_TOP
100
AcDbCircle
 10
14.98
 20
4.16
 30
0.0
 40
0.4
  0
HATCH
  5
181
100
AcDbEntity
  8
PART_HOLES_LAYER_TOP
100
AcDbHatch
 10
0.0
 20
0.0
 30
0.0
210
0.0
220
0.0
230
1.0
  2
SOLID
 70
         1
 71
         1
 91
        1
 92
        1
 93
        1
 72
         2
 10
14.98
 20
4.1600000000000001
 40
0.4
 50
0.0
 51
360.0
 73
         1
 97
        1
330
180
 75
         0
 76
         1
 98
        1
 10
0.0
 20
0.0
  0
CIRCLE
  5
182
100
AcDbEntity
  8
PART_HOLES_LAYER_TOP
100
AcDbCircle
 10
14.98
 20
2.16
 30
0.0
 40
0.4
  0
HATCH
  5
183
100
AcDbEntity
  8
PART_HOLES_LAYER_TOP
100
AcDbHatch
 10
0.0
 20
0.0
 30
0.0
210
0.0
220
0.0
230
1.0
  2
SOLID
 70
         1
 71
         1
 91
        1
 92
        1
 93
        1
 72
         2
 10
14.98
 20
2.1600000000000001
 40
0.4
 50
0.0
 51
360.0
 73
         1
 97
        1
330
182
 75
         0
 76
         1
 98
        1
 10
0.0
 20
0.0
  0
CIRCLE
  5
184
100
AcDbEntity
  8
PART_HOLES_LAYER_TOP
100
AcDbCircle
 10
16.98
 20
4.16
 30
0.0
 40
0.4
  0
HATCH
  5
185
100
AcDbEntity
  8
PART_HOLES_LAYER_TOP
100
AcDbHatch
 10
0.0
 20
0.0
 30
0.0
210
0.0
220
0.0
230
1.0
  2
SOLID
 70
         1
 71
         1
 91
        1
 92
        1
 93
        1
 72
         2
 10
16.98
 20
4.1600000000000001
 40
0.4
 50
0.0
 51
360.0
 73
         1
 97
        1
330
184
 75
         0
 76
         1
 98
        1
 10
0.0
 20
0.0
  0
CIRCLE
  5
186
100
AcDbEntity
  8
PART_HOLES_LAYER_TOP
100
AcDbCircle
 10
16.98
 20
2.16
 30
0.0
 40
0.4
  0
HATCH
  5
187
100
AcDbEntity
  8
PART_HOLES_LAYER_TOP
100
AcDbHatch
 10
0.0
 20
0.0
 30
0.0
210
0.0
220
0.0
230
1.0
  2
SOLID
 70
         1
 71
         1
 91
        1
 92
        1
 93
        1
 72
         2
 10
16.98
 20
2.1600000000000001
 40
0.4
 50
0.0
 51
360.0
 73
         1
 97
        1
330
186
 75
         0
 76
         1
 98
        1
 10
0.0
 20
0.0
  0
CIRCLE
  5
188
100
AcDbEntity
  8
PART_HOLES_LAYER_TOP
100
AcDbCircle
 10
18.98
 20
4.16
 30
0.0
 40
0.4
  0
HATCH
  5
189
100
AcDbEntity
  8
PART_HOLES_LAYER_TOP
100
AcDbHatch
 10
0.0
 20
0.0
 30
0.0
210
0.0
220
0.0
230
1.0
  2
SOLID
 70
         1
 71
         1
 91
        1
 92
        1
 93
        1
 72
         2
 10
18.98
 20
4.1600000000000001
 40
0.4
 50
0.0
 51
360.0
 73
         1
 97
        1
330
188
 75
         0
 76
         1
 98
        1
 10
0.0
 20
0.0
  0
CIRCLE
  5
18A
100
AcDbEntity
  8
PART_HOLES_LAYER_TOP
100
AcDbCircle
 10
18.98
 20
2.16
 30
0.0
 40
0.4
  0
HATCH
  5
18B
100
AcDbEntity
  8
PART_HOLES_LAYER_TOP
100
AcDbHatch
 10
0.0
 20
0.0
 30
0.0
210
0.0
220
0.0
230
1.0
  2
SOLID
 70
         1
 71
         1
 91
        1
 92
        1
 93
        1
 72
         2
 10
18.98
 20
2.1600000000000001
 40
0.4
 50
0.0
 51
360.0
 73
         1
 97
        1
330
18A
 75
         0
 76
         1
 98
        1
 10
0.0
 20
0.0
  0
CIRCLE
  5
18C
100
AcDbEntity
  8
PART_HOLES_LAYER_TOP
100
AcDbCircle
 10
20.98
 20
4.16
 30
0.0
 40
0.4
  0
HATCH
  5
18D
100
AcDbEntity
  8
PART_HOLES_LAYER_TOP
100
AcDbHatch
 10
0.0
 20
0.0
 30
0.0
210
0.0
220
0.0
230
1.0
  2
SOLID
 70
         1
 71
         1
 91
        1
 92
        1
 93
        1
 72
         2
 10
20.98
 20
4.1600000000000001
 40
0.4
 50
0.0
 51
360.0
 73
         1
 97
        1
330
18C
 75
         0
 76
         1
 98
        1
 10
0.0
 20
0.0
  0
CIRCLE
  5
18E
100
AcDbEntity
  8
PART_HOLES_LAYER_TOP
100
AcDbCircle
 10
20.98
 20
2.16
 30
0.0
 40
0.4
  0
HATCH
  5
18F
100
AcDbEntity
  8
PART_HOLES_LAYER_TOP
100
AcDbHatch
 10
0.0
 20
0.0
 30
0.0
210
0.0
220
0.0
230
1.0
  2
SOLID
 70
         1
 71
         1
 91
        1
 92
        1
 93
        1
 72
         2
 10
20.98
 20
2.1600000000000001
 40
0.4
 50
0.0
 51
360.0
 73
         1
 97
        1
330
18E
 75
         0
 76
         1
 98
        1
 10
0.0
 20
0.0
  0
CIRCLE
  5
190
100
AcDbEntity
  8
PART_HOLES_LAYER_TOP
100
AcDbCircle
 10
22.98
 20
4.16
 30
0.0
 40
0.4
  0
HATCH
  5
191
100
AcDbEntity
  8
PART_HOLES_LAYER_TOP
100
AcDbHatch
 10
0.0
 20
0.0
 30
0.0
210
0.0
220
0.0
230
1.0
  2
SOLID
 70
         1
 71
         1
 91
        1
 92
        1
 93
        1
 72
         2
 10
22.98
 20
4.1600000000000001
 40
0.4
 50
0.0
 51
360.0
 73
         1
 97
        1
330
190
 75
         0
 76
         1
 98
        1
 10
0.0
 20
0.0
  0
CIRCLE
  5
192
100
AcDbEntity
  8
PART_HOLES_LAYER_TOP
100
AcDbCircle
 10
22.98
 20
2.16
 30
0.0
 40
0.4
  0
HATCH
  5
193
100
AcDbEntity
  8
PART_HOLES_LAYER_TOP
100
AcDbHatch
 10
0.0
 20
0.0
 30
0.0
210
0.0
220
0.0
230
1.0
  2
SOLID
 70
         1
 71
         1
 91
        1
 92
        1
 93
        1
 72
         2
 10
22.98
 20
2.1600000000000001
 40
0.4
 50
0.0
 51
360.0
 73
         1
 97
        1
330
192
 75
         0
 76
         1
 98
        1
 10
0.0
 20
0.0
  0
CIRCLE
  5
194
100
AcDbEntity
  8
PART_HOLES_LAYER_TOP
100
AcDbCircle
 10
24.98
 20
4.16
 30
0.0
 40
0.4
  0
HATCH
  5
195
100
AcDbEntity
  8
PART_HOLES_LAYER_TOP
100
AcDbHatch
 10
0.0
 20
0.0
 30
0.0
210
0.0
220
0.0
230
1.0
  2
SOLID
 70
         1
 71
         1
 91
        1
 92
        1
 93
        1
 72
         2
 10
24.98
 20
4.1600000000000001
 40
0.4
 50
0.0
 51
360.0
 73
         1
 97
        1
330
194
 75
         0
 76
         1
 98
        1
 10
0.0
 20
0.0
  0
CIRCLE
  5
196
100
AcDbEntity
  8
PART_HOLES_LAYER_TOP
100
AcDbCircle
 10
24.98
 20
2.16
 30
0.0
 40
0.4
  0
HATCH
  5
197
100
AcDbEntity
  8
PART_HOLES_LAYER_TOP
100
AcDbHatch
 10
0.0
 20
0.0
 30
0.0
210
0.0
220
0.0
230
1.0
  2
SOLID
 70
         1
 71
         1
 91
        1
 92
        1
 93
        1
 72
         2
 10
24.98
 20
2.1600000000000001
 40
0.4
 50
0.0
 51
360.0
 73
         1
 97
        1
330
196
 75
         0
 76
         1
 98
        1
 10
0.0
 20
0.0
  0
CIRCLE
  5
198
100
AcDbEntity
  8
PART_HOLES_LAYER_TOP
100
AcDbCircle
 10
26.98
 20
4.16
 30
0.0
 40
0.4
  0
HATCH
  5
199
100
AcDbEntity
  8
PART_HOLES_LAYER_TOP
100
AcDbHatch
 10
0.0
 20
0.0
 30
0.0
210
0.0
220
0.0
230
1.0
  2
SOLID
 70
         1
 71
         1
 91
        1
 92
        1
 93
        1
 72
         2
 10
26.98
 20
4.1600000000000001
 40
0.4
 50
0.0
 51
360.0
 73
         1
 97
        1
330
198
 75
         0
 76
         1
 98
        1
 10
0.0
 20
0.0
  0
CIRCLE
  5
19A
100
AcDbEntity
  8
PART_HOLES_LAYER_TOP
100
AcDbCircle
 10
26.98
 20
2.16
 30
0.0
 40
0.4
  0
HATCH
  5
19B
100
AcDbEntity
  8
PART_HOLES_LAYER_TOP
100
AcDbHatch
 10
0.0
 20
0.0
 30
0.0
210
0.0
220
0.0
230
1.0
  2
SOLID
 70
         1
 71
         1
 91
        1
 92
        1
 93
        1
 72
         2
 10
26.98
 20
2.1600000000000001
 40
0.4
 50
0.0
 51
360.0
 73
         1
 97
        1
330
19A
 75
         0
 76
         1
 98
        1
 10
0.0
 20
0.0
  0
CIRCLE
  5
19C
100
AcDbEntity
  8
PART_HOLES_LAYER_TOP
100
AcDbCircle
 10
28.98
 20
4.16
 30
0.0
 40
0.4
  0
HATCH
  5
19D
100
AcDbEntity
  8
PART_HOLES_LAYER_TOP
100
AcDbHatch
 10
0.0
 20
0.0
 30
0.0
210
0.0
220
0.0
230
1.0
  2
SOLID
 70
         1
 71
         1
 91
        1
 92
        1
 93
        1
 72
         2
 10
28.98
 20
4.1600000000000001
 40
0.4
 50
0.0
 51
360.0
 73
         1
 97
        1
330
19C
 75
         0
 76
         1
 98
        1
 10
0.0
 20
0.0
  0
CIRCLE
  5
19E
100
AcDbEntity
  8
PART_HOLES_LAYER_TOP
100
AcDbCircle
 10
28.98
 20
2.16
 30
0.0
 40
0.4
  0
HATCH
  5
19F
100
AcDbEntity
  8
PART_HOLES_LAYER_TOP
100
AcDbHatch
 10
0.0
 20
0.0
 30
0.0
210
0.0
220
0.0
230
1.0
  2
SOLID
 70
         1
 71
         1
 91
        1
 92
        1
 93
        1
 72
         2
 10
28.98
 20
2.1600000000000001
 40
0.4
 50
0.0
 51
360.0
 73
         1
 97
        1
330
19E
 75
         0
 76
         1
 98
        1
 10
0.0
 20
0.0
  0
CIRCLE
  5
1A0
100
AcDbEntity
  8
PART_HOLES_LAYER_TOP
100
AcDbCircle
 10
30.98
 20
4.16
 30
0.0
 40
0.4
  0
HATCH
  5
1A1
100
AcDbEntity
  8
PART_HOLES_LAYER_TOP
100
AcDbHatch
 10
0.0
 20
0.0
 30
0.0
210
0.0
220
0.0
230
1.0
  2
SOLID
 70
         1
 71
         1
 91
        1
 92
        1
 93
        1
 72
         2
 10
30.98
 20
4.1600000000000001
 40
0.4
 50
0.0
 51
360.0
 73
         1
 97
        1
330
1A0
 75
         0
 76
         1
 98
        1
 10
0.0
 20
0.0
  0
CIRCLE
  5
1A2
100
AcDbEntity
  8
PART_HOLES_LAYER_TOP
100
AcDbCircle
 10
30.98
 20
2.16
 30
0.0
 40
0.4
  0
HATCH
  5
1A3
100
AcDbEntity
  8
PART_HOLES_LAYER_TOP
100
AcDbHatch
 10
0.0
 20
0.0
 30
0.0
210
0.0
220
0.0
230
1.0
  2
SOLID
 70
         1
 71
         1
 91
        1
 92
        1
 93
        1
 72
         2
 10
30.98
 20
2.1600000000000001
 40
0.4
 50
0.0
 51
360.0
 73
         1
 97
        1
330
1A2
 75
         0
 76
         1
 98
        1
 10
0.0
 20
0.0
  0
CIRCLE
  5
1A4
100
AcDbEntity
  8
PART_HOLES_LAYER_TOP
100
AcDbCircle
 10
32.98
 20
4.16
 30
0.0
 40
0.4
  0
HATCH
  5
1A5
100
AcDbEntity
  8
PART_HOLES_LAYER_TOP
100
AcDbHatch
 10
0.0
 20
0.0
 30
0.0
210
0.0
220
0.0
230
1.0
  2
SOLID
 70
         1
 71
         1
 91
        1
 92
        1
 93
        1
 72
         2
 10
32.979999999999997
 20
4.1600000000000001
 40
0.4
 50
0.0
 51
360.0
 73
         1
 97
        1
330
1A4
 75
         0
 76
         1
 98
        1
 10
0.0
 20
0.0
  0
CIRCLE
  5
1A6
100
AcDbEntity
  8
PART_HOLES_LAYER_TOP
100
AcDbCircle
 10
32.98
 20
2.16
 30
0.0
 40
0.4
  0
HATCH
  5
1A7
100
AcDbEntity
  8
PART_HOLES_LAYER_TOP
100
AcDbHatch
 10
0.0
 20
0.0
 30
0.0
210
0.0
220
0.0
230
1.0
  2
SOLID
 70
         1
 71
         1
 91
        1
 92
        1
 93
        1
 72
         2
 10
32.979999999999997
 20
2.1600000000000001
 40
0.4
 50
0.0
 51
360.0
 73
         1
 97
        1
330
1A6
 75
         0
 76
         1
 98
        1
 10
0.0
 20
0.0
  0
CIRCLE
  5
1A8
100
AcDbEntity
  8
PART_HOLES_LAYER_TOP
100
AcDbCircle
 10
34.98
 20
4.16
 30
0.0
 40
0.4
  0
HATCH
  5
1A9
100
AcDbEntity
  8
PART_HOLES_LAYER_TOP
100
AcDbHatch
 10
0.0
 20
0.0
 30
0.0
210
0.0
220
0.0
230
1.0
  2
SOLID
 70
         1
 71
         1
 91
        1
 92
        1
 93
        1
 72
         2
 10
34.979999999999997
 20
4.1600000000000001
 40
0.4
 50
0.0
 51
360.0
 73
         1
 97
        1
330
1A8
 75
         0
 76
         1
 98
        1
 10
0.0
 20
0.0
  0
CIRCLE
  5
1AA
100
AcDbEntity
  8
PART_HOLES_LAYER_TOP
100
AcDbCircle
 10
34.98
 20
2.16
 30
0.0
 40
0.4
  0
HATCH
  5
1AB
100
AcDbEntity
  8
PART_HOLES_LAYER_TOP
100
AcDbHatch
 10
0.0
 20
0.0
 30
0.0
210
0.0
220
0.0
230
1.0
  2
SOLID
 70
         1
 71
         1
 91
        1
 92
        1
 93
        1
 72
         2
 10
34.979999999999997
 20
2.1600000000000001
 40
0.4
 50
0.0
 51
360.0
 73
         1
 97
        1
330
1AA
 75
         0
 76
         1
 98
        1
 10
0.0
 20
0.0
  0
CIRCLE
  5
1AC
100
AcDbEntity
  8
PART_HOLES_LAYER_TOP
100
AcDbCircle
 10
36.98
 20
4.16
 30
0.0
 40
0.4
  0
HATCH
  5
1AD
100
AcDbEntity
  8
PART_HOLES_LAYER_TOP
100
AcDbHatch
 10
0.0
 20
0.0
 30
0.0
210
0.0
220
0.0
230
1.0
  2
SOLID
 70
         1
 71
         1
 91
        1
 92
        1
 93
        1
 72
         2
 10
36.979999999999997
 20
4.1600000000000001
 40
0.4
 50
0.0
 51
360.0
 73
         1
 97
        1
330
1AC
 75
         0
 76
         1
 98
        1
 10
0.0
 20
0.0
  0
CIRCLE
  5
1AE
100
AcDbEntity
  8
PART_HOLES_LAYER_TOP
100
AcDbCircle
 10
36.98
 20
2.16
 30
0.0
 40
0.4
  0
HATCH
  5
1AF
100
AcDbEntity
  8
PART_HOLES_LAYER_TOP
100
AcDbHatch
 10
0.0
 20
0.0
 30
0.0
210
0.0
220
0.0
230
1.0
  2
SOLID
 70
         1
 71
         1
 91
        1
 92
        1
 93
        1
 72
         2
 10
36.979999999999997
 20
2.1600000000000001
 40
0.4
 50
0.0
 51
360.0
 73
         1
 97
        1
330
1AE
 75
         0
 76
         1
 98
        1
 10
0.0
 20
0.0
  0
CIRCLE
  5
1B0
100
AcDbEntity
  8
PART_HOLES_LAYER_TOP
100
AcDbCircle
 10
38.98
 20
4.16
 30
0.0
 40
0.4
  0
HATCH
  5
1B1
100
AcDbEntity
  8
PART_HOLES_LAYER_TOP
100
AcDbHatch
 10
0.0
 20
0.0
 30
0.0
210
0.0
220
0.0
230
1.0
  2
SOLID
 70
         1
 71
         1
 91
        1
 92
        1
 93
        1
 72
         2
 10
38.979999999999997
 20
4.1600000000000001
 40
0.4
 50
0.0
 51
360.0
 73
         1
 97
        1
330
1B0
 75
         0
 76
         1
 98
        1
 10
0.0
 20
0.0
  0
CIRCLE
  5
1B2
100
AcDbEntity
  8
PART_HOLES_LAYER_TOP
100
AcDbCircle
 10
38.98
 20
2.16
 30
0.0
 40
0.4
  0
HATCH
  5
1B3
100
AcDbEntity
  8
PART_HOLES_LAYER_TOP
100
AcDbHatch
 10
0.0
 20
0.0
 30
0.0
210
0.0
220
0.0
230
1.0
  2
SOLID
 70
         1
 71
         1
 91
        1
 92
        1
 93
        1
 72
         2
 10
38.979999999999997
 20
2.1600000000000001
 40
0.4
 50
0.0
 51
360.0
 73
         1
 97
        1
330
1B2
 75
         0
 76
         1
 98
        1
 10
0.0
 20
0.0
  0
CIRCLE
  5
1B4
100
AcDbEntity
  8
PART_HOLES_LAYER_TOP
100
AcDbCircle
 10
40.98
 20
4.16
 30
0.0
 40
0.4
  0
HATCH
  5
1B5
100
AcDbEntity
  8
PART_HOLES_LAYER_TOP
100
AcDbHatch
 10
0.0
 20
0.0
 30
0.0
210
0.0
220
0.0
230
1.0
  2
SOLID
 70
         1
 71
         1
 91
        1
 92
        1
 93
        1
 72
         2
 10
40.979999999999997
 20
4.1600000000000001
 40
0.4
 50
0.0
 51
360.0
 73
         1
 97
        1
330
1B4
 75
         0
 76
         1
 98
        1
 10
0.0
 20
0.0
  0
CIRCLE
  5
1B6
100
AcDbEntity
  8
PART_HOLES_LAYER_TOP
100
AcDbCircle
 10
40.98
 20
2.16
 30
0.0
 40
0.4
  0
HATCH
  5
1B7
100
AcDbEntity
  8
PART_HOLES_LAYER_TOP
100
AcDbHatch
 10
0.0
 20
0.0
 30
0.0
210
0.0
220
0.0
230
1.0
  2
SOLID
 70
         1
 71
         1
 91
        1
 92
        1
 93
        1
 72
         2
 10
40.979999999999997
 20
2.1600000000000001
 40
0.4
 50
0.0
 51
360.0
 73
         1
 97
        1
330
1B6
 75
         0
 76
         1
 98
        1
 10
0.0
 20
0.0
  0
CIRCLE
  5
1B8
100
AcDbEntity
  8
PART_HOLES_LAYER_TOP
100
AcDbCircle
 10
42.98
 20
4.16
 30
0.0
 40
0.4
  0
HATCH
  5
1B9
100
AcDbEntity
  8
PART_HOLES_LAYER_TOP
100
AcDbHatch
 10
0.0
 20
0.0
 30
0.0
210
0.0
220
0.0
230
1.0
  2
SOLID
 70
         1
 71
         1
 91
        1
 92
        1
 93
        1
 72
         2
 10
42.979999999999997
 20
4.1600000000000001
 40
0.4
 50
0.0
 51
360.0
 73
         1
 97
        1
330
1B8
 75
         0
 76
         1
 98
        1
 10
0.0
 20
0.0
  0
CIRCLE
  5
1BA
100
AcDbEntity
  8
PART_HOLES_LAYER_TOP
100
AcDbCircle
 10
42.98
 20
2.16
 30
0.0
 40
0.4
  0
HATCH
  5
1BB
100
AcDbEntity
  8
PART_HOLES_LAYER_TOP
100
AcDbHatch
 10
0.0
 20
0.0
 30
0.0
210
0.0
220
0.0
230
1.0
  2
SOLID
 70
         1
 71
         1
 91
        1
 92
        1
 93
        1
 72
         2
 10
42.979999999999997
 20
2.1600000000000001
 40
0.4
 50
0.0
 51
360.0
 73
         1
 97
        1
330
1BA
 75
         0
 76
         1
 98
        1
 10
0.0
 20
0.0
  0
CIRCLE
  5
1BC
100
AcDbEntity
  8
PART_HOLES_LAYER_TOP
100
AcDbCircle
 10
44.98
 20
4.16
 30
0.0
 40
0.4
  0
HATCH
  5
1BD
100
AcDbEntity
  8
PART_HOLES_LAYER_TOP
100
AcDbHatch
 10
0.0
 20
0.0
 30
0.0
210
0.0
220
0.0
230
1.0
  2
SOLID
 70
         1
 71
         1
 91
        1
 92
        1
 93
        1
 72
         2
 10
44.979999999999997
 20
4.1600000000000001
 40
0.4
 50
0.0
 51
360.0
 73
         1
 97
        1
330
1BC
 75
         0
 76
         1
 98
        1
 10
0.0
 20
0.0
  0
CIRCLE
  5
1BE
100
AcDbEntity
  8
PART_HOLES_LAYER_TOP
100
AcDbCircle
 10
44.98
 20
2.16
 30
0.0
 40
0.4
  0
HATCH
  5
1BF
100
AcDbEntity
  8
PART_HOLES_LAYER_TOP
100
AcDbHatch
 10
0.0
 20
0.0
 30
0.0
210
0.0
220
0.0
230
1.0
  2
SOLID
 70
         1
 71
         1
 91
        1
 92
        1
 93
        1
 72
         2
 10
44.979999999999997
 20
2.1600000000000001
 40
0.4
 50
0.0
 51
360.0
 73
         1
 97
        1
330
1BE
 75
         0
 76
         1
 98
        1
 10
0.0
 20
0.0
  0
CIRCLE
  5
1C0
100
AcDbEntity
  8
PART_HOLES_LAYER_TOP
100
AcDbCircle
 10
46.98
 20
4.16
 30
0.0
 40
0.4
  0
HATCH
  5
1C1
100
AcDbEntity
  8
PART_HOLES_LAYER_TOP
100
AcDbHatch
 10
0.0
 20
0.0
 30
0.0
210
0.0
220
0.0
230
1.0
  2
SOLID
 70
         1
 71
         1
 91
        1
 92
        1
 93
        1
 72
         2
 10
46.979999999999997
 20
4.1600000000000001
 40
0.4
 50
0.0
 51
360.0
 73
         1
 97
        1
330
1C0
 75
         0
 76
         1
 98
        1
 10
0.0
 20
0.0
  0
CIRCLE
  5
1C2
100
AcDbEntity
  8
PART_HOLES_LAYER_TOP
100
AcDbCircle
 10
46.98
 20
2.16
 30
0.0
 40
0.4
  0
HATCH
  5
1C3
100
AcDbEntity
  8
PART_HOLES_LAYER_TOP
100
AcDbHatch
 10
0.0
 20
0.0
 30
0.0
210
0.0
220
0.0
230
1.0
  2
SOLID
 70
         1
 71
         1
 91
        1
 92
        1
 93
        1
 72
         2
 10
46.979999999999997
 20
2.1600000000000001
 40
0.4
 50
0.0
 51
360.0
 73
         1
 97
        1
330
1C2
 75
         0
 76
         1
 98
        1
 10
0.0
 20
0.0
  0
CIRCLE
  5
1C4
100
AcDbEntity
  8
PART_HOLES_LAYER_TOP
100
AcDbCircle
 10
48.98
 20
4.16
 30
0.0
 40
0.4
  0
HATCH
  5
1C5
100
AcDbEntity
  8
PART_HOLES_LAYER_TOP
100
AcDbHatch
 10
0.0
 20
0.0
 30
0.0
210
0.0
220
0.0
230
1.0
  2
SOLID
 70
         1
 71
         1
 91
        1
 92
        1
 93
        1
 72
         2
 10
48.979999999999997
 20
4.1600000000000001
 40
0.4
 50
0.0
 51
360.0
 73
         1
 97
        1
330
1C4
 75
         0
 76
         1
 98
        1
 10
0.0
 20
0.0
  0
CIRCLE
  5
1C6
100
AcDbEntity
  8
PART_HOLES_LAYER_TOP
100
AcDbCircle
 10
48.98
 20
2.16
 30
0.0
 40
0.4
  0
HATCH
  5
1C7
100
AcDbEntity
  8
PART_HOLES_LAYER_TOP
100
AcDbHatch
 10
0.0
 20
0.0
 30
0.0
210
0.0
220
0.0
230
1.0
  2
SOLID
 70
         1
 71
         1
 91
        1
 92
        1
 93
        1
 72
         2
 10
48.979999999999997
 20
2.1600000000000001
 40
0.4
 50
0.0
 51
360.0
 73
         1
 97
        1
330
1C6
 75
         0
 76
         1
 98
        1
 10
0.0
 20
0.0
  0
CIRCLE
  5
1C8
100
AcDbEntity
  8
PART_HOLES_LAYER_TOP
100
AcDbCircle
 10
50.98
 20
4.16
 30
0.0
 40
0.4
  0
HATCH
  5
1C9
100
AcDbEntity
  8
PART_HOLES_LAYER_TOP
100
AcDbHatch
 10
0.0
 20
0.0
 30
0.0
210
0.0
220
0.0
230
1.0
  2
SOLID
 70
         1
 71
         1
 91
        1
 92
        1
 93
        1
 72
         2
 10
50.979999999999997
 20
4.1600000000000001
 40
0.4
 50
0.0
 51
360.0
 73
         1
 97
        1
330
1C8
 75
         0
 76
         1
 98
        1
 10
0.0
 20
0.0
  0
CIRCLE
  5
1CA
100
AcDbEntity
  8
PART_HOLES_LAYER_TOP
100
AcDbCircle
 10
50.98
 20
2.16
 30
0.0
 40
0.4
  0
HATCH
  5
1CB
100
AcDbEntity
  8
PART_HOLES_LAYER_TOP
100
AcDbHatch
 10
0.0
 20
0.0
 30
0.0
210
0.0
220
0.0
230
1.0
  2
SOLID
 70
         1
 71
         1
 91
        1
 92
        1
 93
        1
 72
         2
 10
50.979999999999997
 20
2.1600000000000001
 40
0.4
 50
0.0
 51
360.0
 73
         1
 97
        1
330
1CA
 75
         0
 76
         1
 98
        1
 10
0.0
 20
0.0
  0
CIRCLE
  5
1CC
100
AcDbEntity
  8
PART_HOLES_LAYER_TOP
100
AcDbCircle
 10
52.98
 20
4.16
 30
0.0
 40
0.4
  0
HATCH
  5
1CD
100
AcDbEntity
  8
PART_HOLES_LAYER_TOP
100
AcDbHatch
 10
0.0
 20
0.0
 30
0.0
210
0.0
220
0.0
230
1.0
  2
SOLID
 70
         1
 71
         1
 91
        1
 92
        1
 93
        1
 72
         2
 10
52.979999999999997
 20
4.1600000000000001
 40
0.4
 50
0.0
 51
360.0
 73
         1
 97
        1
330
1CC
 75
         0
 76
         1
 98
        1
 10
0.0
 20
0.0
  0
CIRCLE
  5
1CE
100
AcDbEntity
  8
PART_HOLES_LAYER_TOP
100
AcDbCircle
 10
52.98
 20
2.16
 30
0.0
 40
0.4
  0
HATCH
  5
1CF
100
AcDbEntity
  8
PART_HOLES_LAYER_TOP
100
AcDbHatch
 10
0.0
 20
0.0
 30
0.0
210
0.0
220
0.0
230
1.0
  2
SOLID
 70
         1
 71
         1
 91
        1
 92
        1
 93
        1
 72
         2
 10
52.979999999999997
 20
2.1600000000000001
 40
0.4
 50
0.0
 51
360.0
 73
         1
 97
        1
330
1CE
 75
         0
 76
         1
 98
        1
 10
0.0
 20
0.0
  0
CIRCLE
  5
1D0
100
AcDbEntity
  8
PART_HOLES_LAYER_TOP
100
AcDbCircle
 10
54.98
 20
4.16
 30
0.0
 40
0.4
  0
HATCH
  5
1D1
100
AcDbEntity
  8
PART_HOLES_LAYER_TOP
100
AcDbHatch
 10
0.0
 20
0.0
 30
0.0
210
0.0
220
0.0
230
1.0
  2
SOLID
 70
         1
 71
         1
 91
        1
 92
        1
 93
        1
 72
         2
 10
54.979999999999997
 20
4.1600000000000001
 40
0.4
 50
0.0
 51
360.0
 73
         1
 97
        1
330
1D0
 75
         0
 76
         1
 98
        1
 10
0.0
 20
0.0
  0
CIRCLE
  5
1D2
100
AcDbEntity
  8
PART_HOLES_LAYER_TOP
100
AcDbCircle
 10
54.98
 20
2.16
 30
0.0
 40
0.4
  0
HATCH
  5
1D3
100
AcDbEntity
  8
PART_HOLES_LAYER_TOP
100
AcDbHatch
 10
0.0
 20
0.0
 30
0.0
210
0.0
220
0.0
230
1.0
  2
SOLID
 70
         1
 71
         1
 91
        1
 92
        1
 93
        1
 72
         2
 10
54.979999999999997
 20
2.1600000000000001
 40
0.4
 50
0.0
 51
360.0
 73
         1
 97
        1
330
1D2
 75
         0
 76
         1
 98
        1
 10
0.0
 20
0.0
  0
CIRCLE
  5
1D4
100
AcDbEntity
  8
PART_HOLES_LAYER_TOP
100
AcDbCircle
 10
56.98
 20
4.16
 30
0.0
 40
0.4
  0
HATCH
  5
1D5
100
AcDbEntity
  8
PART_HOLES_LAYER_TOP
100
AcDbHatch
 10
0.0
 20
0.0
 30
0.0
210
0.0
220
0.0
230
1.0
  2
SOLID
 70
         1
 71
         1
 91
        1
 92
        1
 93
        1
 72
         2
 10
56.979999999999997
 20
4.1600000000000001
 40
0.4
 50
0.0
 51
360.0
 73
         1
 97
        1
330
1D4
 75
         0
 76
         1
 98
        1
 10
0.0
 20
0.0
  0
CIRCLE
  5
1D6
100
AcDbEntity
  8
PART_HOLES_LAYER_TOP
100
AcDbCircle
 10
56.98
 20
2.16
 30
0.0
 40
0.4
  0
HATCH
  5
1D7
100
AcDbEntity
  8
PART_HOLES_LAYER_TOP
100
AcDbHatch
 10
0.0
 20
0.0
 30
0.0
210
0.0
220
0.0
230
1.0
  2
SOLID
 70
         1
 71
         1
 91
        1
 92
        1
 93
        1
 72
         2
 10
56.979999999999997
 20
2.1600000000000001
 40
0.4
 50
0.0
 51
360.0
 73
         1
 97
        1
330
1D6
 75
         0
 76
         1
 98
        1
 10
0.0
 20
0.0
  0
CIRCLE
  5
1D8
100
AcDbEntity
  8
PART_HOLES_LAYER_TOP
100
AcDbCircle
 10
58.98
 20
4.16
 30
0.0
 40
0.4
  0
HATCH
  5
1D9
100
AcDbEntity
  8
PART_HOLES_LAYER_TOP
100
AcDbHatch
 10
0.0
 20
0.0
 30
0.0
210
0.0
220
0.0
230
1.0
  2
SOLID
 70
         1
 71
         1
 91
        1
 92
        1
 93
        1
 72
         2
 10
58.979999999999997
 20
4.1600000000000001
 40
0.4
 50
0.0
 51
360.0
 73
         1
 97
        1
330
1D8
 75
         0
 76
         1
 98
        1
 10
0.0
 20
0.0
  0
CIRCLE
  5
1DA
100
AcDbEntity
  8
PART_HOLES_LAYER_TOP
100
AcDbCircle
 10
58.98
 20
2.16
 30
0.0
 40
0.4
  0
HATCH
  5
1DB
100
AcDbEntity
  8
PART_HOLES_LAYER_TOP
100
AcDbHatch
 10
0.0
 20
0.0
 30
0.0
210
0.0
220
0.0
230
1.0
  2
SOLID
 70
         1
 71
         1
 91
        1
 92
        1
 93
        1
 72
         2
 10
58.979999999999997
 20
2.1600000000000001
 40
0.4
 50
0.0
 51
360.0
 73
         1
 97
        1
330
1DA
 75
         0
 76
         1
 98
        1
 10
0.0
 20
0.0
  0
CIRCLE
  5
1DC
100
AcDbEntity
  8
PART_HOLES_LAYER_TOP
100
AcDbCircle
 10
60.98
 20
4.16
 30
0.0
 40
0.4
  0
HATCH
  5
1DD
100
AcDbEntity
  8
PART_HOLES_LAYER_TOP
100
AcDbHatch
 10
0.0
 20
0.0
 30
0.0
210
0.0
220
0.0
230
1.0
  2
SOLID
 70
         1
 71
         1
 91
        1
 92
        1
 93
        1
 72
         2
 10
60.979999999999997
 20
4.1600000000000001
 40
0.4
 50
0.0
 51
360.0
 73
         1
 97
        1
330
1DC
 75
         0
 76
         1
 98
        1
 10
0.0
 20
0.0
  0
CIRCLE
  5
1DE
100
AcDbEntity
  8
PART_HOLES_LAYER_TOP
100
AcDbCircle
 10
60.98
 20
2.16
 30
0.0
 40
0.4
  0
HATCH
  5
1DF
100
AcDbEntity
  8
PART_HOLES_LAYER_TOP
100
AcDbHatch
 10
0.0
 20
0.0
 30
0.0
210
0.0
220
0.0
230
1.0
  2
SOLID
 70
         1
 71
         1
 91
        1
 92
        1
 93
        1
 72
         2
 10
60.979999999999997
 20
2.1600000000000001
 40
0.4
 50
0.0
 51
360.0
 73
         1
 97
        1
330
1DE
 75
         0
 76
         1
 98
        1
 10
0.0
 20
0.0
  0
CIRCLE
  5
1E0
100
AcDbEntity
  8
PART_HOLES_LAYER_TOP
100
AcDbCircle
 10
62.98
 20
4.16
 30
0.0
 40
0.4
  0
HATCH
  5
1E1
100
AcDbEntity
  8
PART_HOLES_LAYER_TOP
100
AcDbHatch
 10
0.0
 20
0.0
 30
0.0
210
0.0
220
0.0
230
1.0
  2
SOLID
 70
         1
 71
         1
 91
        1
 92
        1
 93
        1
 72
         2
 10
62.979999999999997
 20
4.1600000000000001
 40
0.4
 50
0.0
 51
360.0
 73
         1
 97
        1
330
1E0
 75
         0
 76
         1
 98
        1
 10
0.0
 20
0.0
  0
CIRCLE
  5
1E2
100
AcDbEntity
  8
PART_HOLES_LAYER_TOP
100
AcDbCircle
 10
62.98
 20
2.16
 30
0.0
 40
0.4
  0
HATCH
  5
1E3
100
AcDbEntity
  8
PART_HOLES_LAYER_TOP
100
AcDbHatch
 10
0.0
 20
0.0
 30
0.0
210
0.0
220
0.0
230
1.0
  2
SOLID
 70
         1
 71
         1
 91
        1
 92
        1
 93
        1
 72
         2
 10
62.979999999999997
 20
2.1600000000000001
 40
0.4
 50
0.0
 51
360.0
 73
         1
 97
        1
330
1E2
 75
         0
 76
         1
 98
        1
 10
0.0
 20
0.0
  0
CIRCLE
  5
1E4
100
AcDbEntity
  8
PART_HOLES_LAYER_TOP
100
AcDbCircle
 10
64.98
 20
4.16
 30
0.0
 40
0.4
  0
HATCH
  5
1E5
100
AcDbEntity
  8
PART_HOLES_LAYER_TOP
100
AcDbHatch
 10
0.0
 20
0.0
 30
0.0
210
0.0
220
0.0
230
1.0
  2
SOLID
 70
         1
 71
         1
 91
        1
 92
        1
 93
        1
 72
         2
 10
64.980000000000004
 20
4.1600000000000001
 40
0.4
 50
0.0
 51
360.0
 73
         1
 97
        1
330
1E4
 75
         0
 76
         1
 98
        1
 10
0.0
 20
0.0
  0
CIRCLE
  5
1E6
100
AcDbEntity
  8
PART_HOLES_LAYER_TOP
100
AcDbCircle
 10
64.98
 20
2.16
 30
0.0
 40
0.4
  0
HATCH
  5
1E7
100
AcDbEntity
  8
PART_HOLES_LAYER_TOP
100
AcDbHatch
 10
0.0
 20
0.0
 30
0.0
210
0.0
220
0.0
230
1.0
  2
SOLID
 70
         1
 71
         1
 91
        1
 92
        1
 93
        1
 72
         2
 10
64.980000000000004
 20
2.1600000000000001
 40
0.4
 50
0.0
 51
360.0
 73
         1
 97
        1
330
1E6
 75
         0
 76
         1
 98
        1
 10
0.0
 20
0.0
  0
LWPOLYLINE
  5
1E8
100
AcDbEntity
  8
PART_PADS_SMD_TOP
100
AcDbPolyline
 90
        4
 70
         1
 10
4.87
 20
17.82
 10
4.87
 20
18.32
 10
5.27
 20
18.32
 10
5.27
 20
17.82
  0
LWPOLYLINE
  5
1E9
100
AcDbEntity
  8
PART_PADS_SMD_TOP
100
AcDbPolyline
 90
        4
 70
         1
 10
4.07
 20
17.82
 10
4.07
 20
18.32
 10
4.47
 20
18.32
 10
4.47
 20
17.82
  0
LWPOLYLINE
  5
1EA
100
AcDbEntity
  8
PART_PADS_SMD_TOP
100
AcDbPolyline
 90
        4
 70
         1
 10
50.02
 20
54.58
 10
50.02
 20
54.98
 10
50.52
 20
54.98
 10
50.52
 20
54.58
  0
LWPOLYLINE
  5
1EB
100
AcDbEntity
  8
PART_PADS_SMD_TOP
100
AcDbPolyline
 90
        4
 70
         1
 10
50.02
 20
53.78
 10
50.02
 20
54.18
 10
50.52
 20
54.18
 10
50.52
 20
53.78
  0
LWPOLYLINE
  5
1EC
100
AcDbEntity
  8
PART_PADS_SMD_TOP
100
AcDbPolyline
 90
        4
 70
         1
 10
57.04
 20
53.64
 10
57.04
 20
55.04
 10
58.64
 20
55.04
 10
58.64
 20
53.64
  0
LWPOLYLINE
  5
1ED
100
AcDbEntity
  8
PART_PADS_SMD_TOP
100
AcDbPolyline
 90
        4
 70
         1
 10
51.04
 20
53.64
 10
51.04
 20
55.04
 10
52.64
 20
55.04
 10
52.64
 20
53.64
  0
LWPOLYLINE
  5
1EE
100
AcDbEntity
  8
PART_PADS_SMD_TOP
100
AcDbPolyline
 90
        4
 70
         1
 10
50.02
 20
49.03
 10
50.02
 20
49.43
 10
50.52
 20
49.43
 10
50.52
 20
49.03
  0
LWPOLYLINE
  5
1EF
100
AcDbEntity
  8
PART_PADS_SMD_TOP
100
AcDbPolyline
 90
        4
 70
         1
 10
50.02
 20
48.23
 10
50.02
 20
48.63
 10
50.52
 20
48.63
 10
50.52
 20
48.23
  0
LWPOLYLINE
  5
1F0
100
AcDbEntity
  8
PART_PADS_SMD_TOP
100
AcDbPolyline
 90
        4
 70
         1
 10
57.04
 20
48.1
 10
57.04
 20
49.5
 10
58.64
 20
49.5
 10
58.64
 20
48.1
  0
LWPOLYLINE
  5
1F1
100
AcDbEntity
  8
PART_PADS_SMD_TOP
100
AcDbPolyline
 90
        4
 70
         1
 10
51.04
 20
48.1
 10
51.04
 20
49.5
 10
52.64
 20
49.5
 10
52.64
 20
48.1
  0
LWPOLYLINE
  5
1F2
100
AcDbEntity
  8
PART_PADS_SMD_TOP
100
AcDbPolyline
 90
        4
 70
         1
 10
14.0
 20
41.79
 10
14.0
 20
42.29
 10
14.4
 20
42.29
 10
14.4
 20
41.79
  0
LWPOLYLINE
  5
1F3
100
AcDbEntity
  8
PART_PADS_SMD_TOP
100
AcDbPolyline
 90
        4
 70
         1
 10
13.2
 20
41.79
 10
13.2
 20
42.29
 10
13.6
 20
42.29
 10
13.6
 20
41.79
  0
LWPOLYLINE
  5
1F4
100
AcDbEntity
  8
PART_PADS_SMD_TOP
100
AcDbPolyline
 90
        4
 70
         1
 10
25.285
 20
39.36
 10
25.285
 20
40.21
 10
26.535
 20
40.21
 10
26.535
 20
39.36
  0
LWPOLYLINE
  5
1F5
100
AcDbEntity
  8
PART_PADS_SMD_TOP
100
AcDbPolyline
 90
        4
 70
         1
 10
25.285
 20
40.91
 10
25.285
 20
41.76
 10
26.535
 20
41.76
 10
26.535
 20
40.91
  0
LWPOLYLINE
  5
1F6
100
AcDbEntity
  8
PART_PADS_SMD_TOP
100
AcDbPolyline
 90
        4
 70
         1
 10
23.485
 20
39.36
 10
23.485
 20
40.21
 10
24.735
 20
40.21
 10
24.735
 20
39.36
  0
LWPOLYLINE
  5
1F7
100
AcDbEntity
  8
PART_PADS_SMD_TOP
100
AcDbPolyline
 90
        4
 70
         1
 10
23.485
 20
40.91
 10
23.485
 20
41.76
 10
24.735
 20
41.76
 10
24.735
 20
40.91
  0
LWPOLYLINE
  5
1F8
100
AcDbEntity
  8
PART_PADS_SMD_TOP
100
AcDbPolyline
 90
        4
 70
         1
 10
22.12
 20
42.245
 10
22.12
 20
43.495
 10
22.97
 20
43.495
 10
22.97
 20
42.245
  0
LWPOLYLINE
  5
1F9
100
AcDbEntity
  8
PART_PADS_SMD_TOP
100
AcDbPolyline
 90
        4
 70
         1
 10
23.67
 20
42.245
 10
23.67
 20
43.495
 10
24.52
 20
43.495
 10
24.52
 20
42.245
  0
LWPOLYLINE
  5
1FA
100
AcDbEntity
  8
PART_PADS_SMD_TOP
100
AcDbPolyline
 90
        4
 70
         1
 10
27.01
 20
42.245
 10
27.01
 20
43.495
 10
27.86
 20
43.495
 10
27.86
 20
42.245
  0
LWPOLYLINE
  5
1FB
100
AcDbEntity
  8
PART_PADS_SMD_TOP
100
AcDbPolyline
 90
        4
 70
         1
 10
25.46
 20
42.245
 10
25.46
 20
43.495
 10
26.31
 20
43.495
 10
26.31
 20
42.245
  0
LWPOLYLINE
  5
1FC
100
AcDbEntity
  8
PART_PADS_SMD_TOP
100
AcDbPolyline
 90
        4
 70
         1
 10
20.625
 20
25.375
 10
20.625
 20
26.625
 10
21.475
 20
26.625
 10
21.475
 20
25.375
  0
LWPOLYLINE
  5
1FD
100
AcDbEntity
  8
PART_PADS_SMD_TOP
100
AcDbPolyline
 90
        4
 70
         1
 10
19.075
 20
25.375
 10
19.075
 20
26.625
 10
19.925
 20
26.625
 10
19.925
 20
25.375
  0
LWPOLYLINE
  5
1FE
100
AcDbEntity
  8
PART_PADS_SMD_TOP
100
AcDbPolyline
 90
        4
 70
         1
 10
17.525
 20
25.375
 10
17.525
 20
26.625
 10
18.375
 20
26.625
 10
18.375
 20
25.375
  0
LWPOLYLINE
  5
1FF
100
AcDbEntity
  8
PART_PADS_SMD_TOP
100
AcDbPolyline
 90
        4
 70
         1
 10
19.79
 20
31.74
 10
19.79
 20
32.14
 10
20.29
 20
32.14
 10
20.29
 20
31.74
  0
LWPOLYLINE
  5
200
100
AcDbEntity
  8
PART_PADS_SMD_TOP
100
AcDbPolyline
 90
        4
 70
         1
 10
19.79
 20
30.94
 10
19.79
 20
31.34
 10
20.29
 20
31.34
 10
20.29
 20
30.94
  0
LWPOLYLINE
  5
201
100
AcDbEntity
  8
PART_PADS_SMD_TOP
100
AcDbPolyline
 90
        4
 70
         1
 10
11.85
 20
25.925
 10
11.85
 20
26.725
 10
13.35
 20
26.725
 10
13.35
 20
25.925
  0
LWPOLYLINE
  5
202
100
AcDbEntity
  8
PART_PADS_SMD_TOP
100
AcDbPolyline
 90
        4
 70
         1
 10
11.85
 20
23.275
 10
11.85
 20
24.075
 10
13.35
 20
24.075
 10
13.35
 20
23.275
  0
LWPOLYLINE
  5
203
100
AcDbEntity
  8
PART_PADS_SMD_TOP
100
AcDbPolyline
 90
        4
 70
         1
 10
28.1
 20
20.05
 10
28.1
 20
20.55
 10
28.5
 20
20.55
 10
28.5
 20
20.05
  0
LWPOLYLINE
  5
204
100
AcDbEntity
  8
PART_PADS_SMD_TOP
100
AcDbPolyline
 90
        4
 70
         1
 10
28.9
 20
20.05
 10
28.9
 20
20.55
 10
29.3
 20
20.55
 10
29.3
 20
20.05
  0
LWPOLYLINE
  5
205
100
AcDbEntity
  8
PART_PADS_SMD_TOP
100
AcDbPolyline
 90
        4
 70
         1
 10
26.0
 20
15.75
 10
26.0
 20
16.25
 10
26.4
 20
16.25
 10
26.4
 20
15.75
  0
LWPOLYLINE
  5
206
100
AcDbEntity
  8
PART_PADS_SMD_TOP
100
AcDbPolyline
 90
        4
 70
         1
 10
25.2
 20
15.75
 10
25.2
 20
16.25
 10
25.6
 20
16.25
 10
25.6
 20
15.75
  0
LWPOLYLINE
  5
207
100
AcDbEntity
  8
PART_PADS_SMD_TOP
100
AcDbPolyline
 90
        4
 70
         1
 10
41.1545
 20
51.38
 10
41.1545
 20
52.23
 10
42.4045
 20
52.23
 10
42.4045
 20
51.38
  0
LWPOLYLINE
  5
208
100
AcDbEntity
  8
PART_PADS_SMD_TOP
100
AcDbPolyline
 90
        4
 70
         1
 10
41.1545
 20
52.93
 10
41.1545
 20
53.78
 10
42.4045
 20
53.78
 10
42.4045
 20
52.93
  0
LWPOLYLINE
  5
209
100
AcDbEntity
  8
PART_PADS_SMD_TOP
100
AcDbPolyline
 90
        4
 70
         1
 10
43.02
 20
54.67
 10
43.02
 20
55.07
 10
43.52
 20
55.07
 10
43.52
 20
54.67
  0
LWPOLYLINE
  5
20A
100
AcDbEntity
  8
PART_PADS_SMD_TOP
100
AcDbPolyline
 90
        4
 70
         1
 10
43.02
 20
55.47
 10
43.02
 20
55.87
 10
43.52
 20
55.87
 10
43.52
 20
55.47
  0
LWPOLYLINE
  5
20B
100
AcDbEntity
  8
PART_PADS_SMD_TOP
100
AcDbPolyline
 90
        4
 70
         1
 10
43.02
 20
52.38
 10
43.02
 20
52.78
 10
43.52
 20
52.78
 10
43.52
 20
52.38
  0
LWPOLYLINE
  5
20C
100
AcDbEntity
  8
PART_PADS_SMD_TOP
100
AcDbPolyline
 90
        4
 70
         1
 10
43.02
 20
51.58
 10
43.02
 20
51.98
 10
43.52
 20
51.98
 10
43.52
 20
51.58
  0
LWPOLYLINE
  5
20D
100
AcDbEntity
  8
PART_PADS_SMD_TOP
100
AcDbPolyline
 90
        4
 70
         1
 10
42.253
 20
54.605
 10
42.253
 20
54.955
 10
42.753
 20
54.955
 10
42.753
 20
54.605
  0
LWPOLYLINE
  5
20E
100
AcDbEntity
  8
PART_PADS_SMD_TOP
100
AcDbPolyline
 90
        4
 70
         1
 10
42.253
 20
55.605
 10
42.253
 20
55.955
 10
42.753
 20
55.955
 10
42.753
 20
55.605
  0
LWPOLYLINE
  5
20F
100
AcDbEntity
  8
PART_PADS_SMD_TOP
100
AcDbPolyline
 90
        4
 70
         1
 10
40.806
 20
55.105
 10
40.806
 20
55.455
 10
41.306
 20
55.455
 10
41.306
 20
55.105
  0
LWPOLYLINE
  5
210
100
AcDbEntity
  8
PART_PADS_SMD_TOP
100
AcDbPolyline
 90
        4
 70
         1
 10
42.82
 20
43.06
 10
42.82
 20
43.46
 10
43.32
 20
43.46
 10
43.32
 20
43.06
  0
LWPOLYLINE
  5
211
100
AcDbEntity
  8
PART_PADS_SMD_TOP
100
AcDbPolyline
 90
        4
 70
         1
 10
42.82
 20
43.86
 10
42.82
 20
44.26
 10
43.32
 20
44.26
 10
43.32
 20
43.86
  0
LWPOLYLINE
  5
212
100
AcDbEntity
  8
PART_PADS_SMD_TOP
100
AcDbPolyline
 90
        4
 70
         1
 10
42.82
 20
40.38
 10
42.82
 20
40.78
 10
43.32
 20
40.78
 10
43.32
 20
40.38
  0
LWPOLYLINE
  5
213
100
AcDbEntity
  8
PART_PADS_SMD_TOP
100
AcDbPolyline
 90
        4
 70
         1
 10
42.82
 20
39.58
 10
42.82
 20
39.98
 10
43.32
 20
39.98
 10
43.32
 20
39.58
  0
LWPOLYLINE
  5
214
100
AcDbEntity
  8
PART_PADS_SMD_TOP
100
AcDbPolyline
 90
        4
 70
         1
 10
40.9545
 20
39.72
 10
40.9545
 20
40.57
 10
42.2045
 20
40.57
 10
42.2045
 20
39.72
  0
LWPOLYLINE
  5
215
100
AcDbEntity
  8
PART_PADS_SMD_TOP
100
AcDbPolyline
 90
        4
 70
         1
 10
40.9545
 20
41.27
 10
40.9545
 20
42.12
 10
42.2045
 20
42.12
 10
42.2045
 20
41.27
  0
LWPOLYLINE
  5
216
100
AcDbEntity
  8
PART_PADS_SMD_TOP
100
AcDbPolyline
 90
        4
 70
         1
 10
42.053
 20
42.985
 10
42.053
 20
43.335
 10
42.553
 20
43.335
 10
42.553
 20
42.985
  0
LWPOLYLINE
  5
217
100
AcDbEntity
  8
PART_PADS_SMD_TOP
100
AcDbPolyline
 90
        4
 70
         1
 10
42.053
 20
43.985
 10
42.053
 20
44.335
 10
42.553
 20
44.335
 10
42.553
 20
43.985
  0
LWPOLYLINE
  5
218
100
AcDbEntity
  8
PART_PADS_SMD_TOP
100
AcDbPolyline
 90
        4
 70
         1
 10
40.606
 20
43.485
 10
40.606
 20
43.835
 10
41.106
 20
43.835
 10
41.106
 20
43.485
  0
LWPOLYLINE
  5
219
100
AcDbEntity
  8
PART_PADS_SMD_TOP
100
AcDbPolyline
 90
        4
 70
         1
 10
41.0545
 20
45.5
 10
41.0545
 20
46.35
 10
42.3045
 20
46.35
 10
42.3045
 20
45.5
  0
LWPOLYLINE
  5
21A
100
AcDbEntity
  8
PART_PADS_SMD_TOP
100
AcDbPolyline
 90
        4
 70
         1
 10
41.0545
 20
47.05
 10
41.0545
 20
47.9
 10
42.3045
 20
47.9
 10
42.3045
 20
47.05
  0
LWPOLYLINE
  5
21B
100
AcDbEntity
  8
PART_PADS_SMD_TOP
100
AcDbPolyline
 90
        4
 70
         1
 10
42.92
 20
48.8
 10
42.92
 20
49.2
 10
43.42
 20
49.2
 10
43.42
 20
48.8
  0
LWPOLYLINE
  5
21C
100
AcDbEntity
  8
PART_PADS_SMD_TOP
100
AcDbPolyline
 90
        4
 70
         1
 10
42.92
 20
49.6
 10
42.92
 20
50.0
 10
43.42
 20
50.0
 10
43.42
 20
49.6
  0
LWPOLYLINE
  5
21D
100
AcDbEntity
  8
PART_PADS_SMD_TOP
100
AcDbPolyline
 90
        4
 70
         1
 10
42.92
 20
46.75
 10
42.92
 20
47.15
 10
43.42
 20
47.15
 10
43.42
 20
46.75
  0
LWPOLYLINE
  5
21E
100
AcDbEntity
  8
PART_PADS_SMD_TOP
100
AcDbPolyline
 90
        4
 70
         1
 10
42.92
 20
45.95
 10
42.92
 20
46.35
 10
43.42
 20
46.35
 10
43.42
 20
45.95
  0
LWPOLYLINE
  5
21F
100
AcDbEntity
  8
PART_PADS_SMD_TOP
100
AcDbPolyline
 90
        4
 70
         1
 10
42.153
 20
48.685
 10
42.153
 20
49.035
 10
42.653
 20
49.035
 10
42.653
 20
48.685
  0
LWPOLYLINE
  5
220
100
AcDbEntity
  8
PART_PADS_SMD_TOP
100
AcDbPolyline
 90
        4
 70
         1
 10
42.153
 20
49.685
 10
42.153
 20
50.035
 10
42.653
 20
50.035
 10
42.653
 20
49.685
  0
LWPOLYLINE
  5
221
100
AcDbEntity
  8
PART_PADS_SMD_TOP
100
AcDbPolyline
 90
        4
 70
         1
 10
40.706
 20
49.185
 10
40.706
 20
49.535
 10
41.206
 20
49.535
 10
41.206
 20
49.185
  0
LWPOLYLINE
  5
222
100
AcDbEntity
  8
PART_PADS_SMD_TOP
100
AcDbPolyline
 90
        4
 70
         1
 10
25.625
 20
25.375
 10
25.625
 20
26.625
 10
26.475
 20
26.625
 10
26.475
 20
25.375
  0
LWPOLYLINE
  5
223
100
AcDbEntity
  8
PART_PADS_SMD_TOP
100
AcDbPolyline
 90
        4
 70
         1
 10
24.075
 20
25.375
 10
24.075
 20
26.625
 10
24.925
 20
26.625
 10
24.925
 20
25.375
  0
LWPOLYLINE
  5
224
100
AcDbEntity
  8
PART_PADS_SMD_TOP
100
AcDbPolyline
 90
        4
 70
         1
 10
22.525
 20
25.375
 10
22.525
 20
26.625
 10
23.375
 20
26.625
 10
23.375
 20
25.375
  0
LWPOLYLINE
  5
225
100
AcDbEntity
  8
PART_PADS_SMD_TOP
100
AcDbPolyline
 90
        4
 70
         1
 10
30.625
 20
25.375
 10
30.625
 20
26.625
 10
31.475
 20
26.625
 10
31.475
 20
25.375
  0
LWPOLYLINE
  5
226
100
AcDbEntity
  8
PART_PADS_SMD_TOP
100
AcDbPolyline
 90
        4
 70
         1
 10
29.075
 20
25.375
 10
29.075
 20
26.625
 10
29.925
 20
26.625
 10
29.925
 20
25.375
  0
LWPOLYLINE
  5
227
100
AcDbEntity
  8
PART_PADS_SMD_TOP
100
AcDbPolyline
 90
        4
 70
         1
 10
27.525
 20
25.375
 10
27.525
 20
26.625
 10
28.375
 20
26.625
 10
28.375
 20
25.375
  0
LWPOLYLINE
  5
228
100
AcDbEntity
  8
PART_PADS_SMD_TOP
100
AcDbPolyline
 90
        4
 70
         1
 10
25.18
 20
21.9845
 10
25.18
 20
23.3845
 10
25.63
 20
23.3845
 10
25.63
 20
21.9845
  0
LWPOLYLINE
  5
229
100
AcDbEntity
  8
PART_PADS_SMD_TOP
100
AcDbPolyline
 90
        4
 70
         1
 10
23.91
 20
21.9845
 10
23.91
 20
23.3845
 10
24.36
 20
23.3845
 10
24.36
 20
21.9845
  0
LWPOLYLINE
  5
22A
100
AcDbEntity
  8
PART_PADS_SMD_TOP
100
AcDbPolyline
 90
        4
 70
         1
 10
22.64
 20
21.9845
 10
22.64
 20
23.3845
 10
23.09
 20
23.3845
 10
23.09
 20
21.9845
  0
LWPOLYLINE
  5
22B
100
AcDbEntity
  8
PART_PADS_SMD_TOP
100
AcDbPolyline
 90
        4
 70
         1
 10
21.37
 20
21.9845
 10
21.37
 20
23.3845
 10
21.82
 20
23.3845
 10
21.82
 20
21.9845
  0
LWPOLYLINE
  5
22C
100
AcDbEntity
  8
PART_PADS_SMD_TOP
100
AcDbPolyline
 90
        4
 70
         1
 10
21.37
 20
16.5845
 10
21.37
 20
17.9845
 10
21.82
 20
17.9845
 10
21.82
 20
16.5845
  0
LWPOLYLINE
  5
22D
100
AcDbEntity
  8
PART_PADS_SMD_TOP
100
AcDbPolyline
 90
        4
 70
         1
 10
22.64
 20
16.5845
 10
22.64
 20
17.9845
 10
23.09
 20
17.9845
 10
23.09
 20
16.5845
  0
LWPOLYLINE
  5
22E
100
AcDbEntity
  8
PART_PADS_SMD_TOP
100
AcDbPolyline
 90
        4
 70
         1
 10
23.91
 20
16.5845
 10
23.91
 20
17.9845
 10
24.36
 20
17.9845
 10
24.36
 20
16.5845
  0
LWPOLYLINE
  5
22F
100
AcDbEntity
  8
PART_PADS_SMD_TOP
100
AcDbPolyline
 90
        4
 70
         1
 10
25.18
 20
16.5845
 10
25.18
 20
17.9845
 10
25.63
 20
17.9845
 10
25.63
 20
16.5845
  0
LWPOLYLINE
  5
230
100
AcDbEntity
  8
PART_PADS_SMD_TOP
100
AcDbPolyline
 90
        4
 70
         1
 10
27.875
 20
21.3
 10
27.875
 20
22.15
 10
29.125
 20
22.15
 10
29.125
 20
21.3
  0
LWPOLYLINE
  5
231
100
AcDbEntity
  8
PART_PADS_SMD_TOP
100
AcDbPolyline
 90
        4
 70
         1
 10
27.875
 20
22.85
 10
27.875
 20
23.7
 10
29.125
 20
23.7
 10
29.125
 20
22.85
  0
LWPOLYLINE
  5
232
100
AcDbEntity
  8
PART_PADS_SMD_TOP
100
AcDbPolyline
 90
        4
 70
         1
 10
19.23
 20
22.74
 10
19.23
 20
23.24
 10
19.63
 20
23.24
 10
19.63
 20
22.74
  0
LWPOLYLINE
  5
233
100
AcDbEntity
  8
PART_PADS_SMD_TOP
100
AcDbPolyline
 90
        4
 70
         1
 10
18.43
 20
22.74
 10
18.43
 20
23.24
 10
18.83
 20
23.24
 10
18.83
 20
22.74
  0
LWPOLYLINE
  5
234
100
AcDbEntity
  8
PART_PADS_SMD_TOP
100
AcDbPolyline
 90
        4
 70
         1
 10
40.99
 20
31.81
 10
40.99
 20
32.31
 10
41.39
 20
32.31
 10
41.39
 20
31.81
  0
LWPOLYLINE
  5
235
100
AcDbEntity
  8
PART_PADS_SMD_TOP
100
AcDbPolyline
 90
        4
 70
         1
 10
40.19
 20
31.81
 10
40.19
 20
32.31
 10
40.59
 20
32.31
 10
40.59
 20
31.81
  0
LWPOLYLINE
  5
236
100
AcDbEntity
  8
PART_PADS_SMD_TOP
100
AcDbPolyline
 90
        4
 70
         1
 10
33.35
 20
42.54
 10
33.35
 20
43.04
 10
33.75
 20
43.04
 10
33.75
 20
42.54
  0
LWPOLYLINE
  5
237
100
AcDbEntity
  8
PART_PADS_SMD_TOP
100
AcDbPolyline
 90
        4
 70
         1
 10
32.55
 20
42.54
 10
32.55
 20
43.04
 10
32.95
 20
43.04
 10
32.95
 20
42.54
  0
LWPOLYLINE
  5
238
100
AcDbEntity
  8
PART_PADS_SMD_TOP
100
AcDbPolyline
 90
        4
 70
         1
 10
7.44
 20
14.94
 10
7.44
 20
15.44
 10
7.84
 20
15.44
 10
7.84
 20
14.94
  0
LWPOLYLINE
  5
239
100
AcDbEntity
  8
PART_PADS_SMD_TOP
100
AcDbPolyline
 90
        4
 70
         1
 10
6.64
 20
14.94
 10
6.64
 20
15.44
 10
7.04
 20
15.44
 10
7.04
 20
14.94
  0
LWPOLYLINE
  5
23A
100
AcDbEntity
  8
PART_PADS_SMD_TOP
100
AcDbPolyline
 90
        4
 70
         1
 10
57.04
 20
42.56
 10
57.04
 20
43.96
 10
58.64
 20
43.96
 10
58.64
 20
42.56
  0
LWPOLYLINE
  5
23B
100
AcDbEntity
  8
PART_PADS_SMD_TOP
100
AcDbPolyline
 90
        4
 70
         1
 10
51.04
 20
42.56
 10
51.04
 20
43.96
 10
52.64
 20
43.96
 10
52.64
 20
42.56
  0
LWPOLYLINE
  5
23C
100
AcDbEntity
  8
PART_PADS_SMD_TOP
100
AcDbPolyline
 90
        4
 70
         1
 10
50.02
 20
43.43
 10
50.02
 20
43.83
 10
50.52
 20
43.83
 10
50.52
 20
43.43
  0
LWPOLYLINE
  5
23D
100
AcDbEntity
  8
PART_PADS_SMD_TOP
100
AcDbPolyline
 90
        4
 70
         1
 10
50.02
 20
42.63
 10
50.02
 20
43.03
 10
50.52
 20
43.03
 10
50.52
 20
42.63
  0
LWPOLYLINE
  5
23E
100
AcDbEntity
  8
PART_PADS_SMD_TOP
100
AcDbPolyline
 90
        4
 70
         1
 10
6.485
 20
33.05
 10
6.485
 20
33.9
 10
7.735
 20
33.9
 10
7.735
 20
33.05
  0
LWPOLYLINE
  5
23F
100
AcDbEntity
  8
PART_PADS_SMD_TOP
100
AcDbPolyline
 90
        4
 70
         1
 10
6.485
 20
31.5
 10
6.485
 20
32.35
 10
7.735
 20
32.35
 10
7.735
 20
31.5
  0
LWPOLYLINE
  5
240
100
AcDbEntity
  8
PART_PADS_SMD_TOP
100
AcDbPolyline
 90
        4
 70
         1
 10
30.55
 20
28.02
 10
30.55
 20
28.52
 10
30.95
 20
28.52
 10
30.95
 20
28.02
  0
LWPOLYLINE
  5
241
100
AcDbEntity
  8
PART_PADS_SMD_TOP
100
AcDbPolyline
 90
        4
 70
         1
 10
29.75
 20
28.02
 10
29.75
 20
28.52
 10
30.15
 20
28.52
 10
30.15
 20
28.02
  0
LWPOLYLINE
  5
242
100
AcDbEntity
  8
PART_PADS_SMD_TOP
100
AcDbPolyline
 90
        4
 70
         1
 10
26.02
 20
36.51
 10
26.02
 20
37.01
 10
26.42
 20
37.01
 10
26.42
 20
36.51
  0
LWPOLYLINE
  5
243
100
AcDbEntity
  8
PART_PADS_SMD_TOP
100
AcDbPolyline
 90
        4
 70
         1
 10
25.22
 20
36.51
 10
25.22
 20
37.01
 10
25.62
 20
37.01
 10
25.62
 20
36.51
  0
LWPOLYLINE
  5
244
100
AcDbEntity
  8
PART_PADS_SMD_TOP
100
AcDbPolyline
 90
        4
 70
         1
 10
23.39
 20
36.51
 10
23.39
 20
37.01
 10
23.79
 20
37.01
 10
23.79
 20
36.51
  0
LWPOLYLINE
  5
245
100
AcDbEntity
  8
PART_PADS_SMD_TOP
100
AcDbPolyline
 90
        4
 70
         1
 10
24.19
 20
36.51
 10
24.19
 20
37.01
 10
24.59
 20
37.01
 10
24.59
 20
36.51
  0
LWPOLYLINE
  5
246
100
AcDbEntity
  8
PART_PADS_SMD_TOP
100
AcDbPolyline
 90
        4
 70
         1
 10
29.0
 20
36.51
 10
29.0
 20
37.01
 10
29.4
 20
37.01
 10
29.4
 20
36.51
  0
LWPOLYLINE
  5
247
100
AcDbEntity
  8
PART_PADS_SMD_TOP
100
AcDbPolyline
 90
        4
 70
         1
 10
29.8
 20
36.51
 10
29.8
 20
37.01
 10
30.2
 20
37.01
 10
30.2
 20
36.51
  0
LWPOLYLINE
  5
248
100
AcDbEntity
  8
PART_PADS_SMD_TOP
100
AcDbPolyline
 90
        4
 70
         1
 10
21.65
 20
36.51
 10
21.65
 20
37.01
 10
22.05
 20
37.01
 10
22.05
 20
36.51
  0
LWPOLYLINE
  5
249
100
AcDbEntity
  8
PART_PADS_SMD_TOP
100
AcDbPolyline
 90
        4
 70
         1
 10
22.45
 20
36.51
 10
22.45
 20
37.01
 10
22.85
 20
37.01
 10
22.85
 20
36.51
  0
LWPOLYLINE
  5
24A
100
AcDbEntity
  8
PART_PADS_SMD_TOP
100
AcDbPolyline
 90
        4
 70
         1
 10
28.66
 20
28.02
 10
28.66
 20
28.52
 10
29.06
 20
28.52
 10
29.06
 20
28.02
  0
LWPOLYLINE
  5
24B
100
AcDbEntity
  8
PART_PADS_SMD_TOP
100
AcDbPolyline
 90
        4
 70
         1
 10
27.86
 20
28.02
 10
27.86
 20
28.52
 10
28.26
 20
28.52
 10
28.26
 20
28.02
  0
LWPOLYLINE
  5
24C
100
AcDbEntity
  8
PART_PADS_SMD_TOP
100
AcDbPolyline
 90
        4
 70
         1
 10
25.55
 20
28.02
 10
25.55
 20
28.52
 10
25.95
 20
28.52
 10
25.95
 20
28.02
  0
LWPOLYLINE
  5
24D
100
AcDbEntity
  8
PART_PADS_SMD_TOP
100
AcDbPolyline
 90
        4
 70
         1
 10
26.35
 20
28.02
 10
26.35
 20
28.52
 10
26.75
 20
28.52
 10
26.75
 20
28.02
  0
LWPOLYLINE
  5
24E
100
AcDbEntity
  8
PART_PADS_SMD_TOP
100
AcDbPolyline
 90
        4
 70
         1
 10
22.28
 20
28.02
 10
22.28
 20
28.52
 10
22.68
 20
28.52
 10
22.68
 20
28.02
  0
LWPOLYLINE
  5
24F
100
AcDbEntity
  8
PART_PADS_SMD_TOP
100
AcDbPolyline
 90
        4
 70
         1
 10
23.08
 20
28.02
 10
23.08
 20
28.52
 10
23.48
 20
28.52
 10
23.48
 20
28.02
  0
LWPOLYLINE
  5
250
100
AcDbEntity
  8
PART_PADS_SMD_TOP
100
AcDbPolyline
 90
        4
 70
         1
 10
21.45
 20
29.17
 10
21.45
 20
30.57
 10
21.9
 20
30.57
 10
21.9
 20
29.17
  0
LWPOLYLINE
  5
251
100
AcDbEntity
  8
PART_PADS_SMD_TOP
100
AcDbPolyline
 90
        4
 70
         1
 10
22.72
 20
29.17
 10
22.72
 20
30.57
 10
23.17
 20
30.57
 10
23.17
 20
29.17
  0
LWPOLYLINE
  5
252
100
AcDbEntity
  8
PART_PADS_SMD_TOP
100
AcDbPolyline
 90
        4
 70
         1
 10
23.99
 20
29.17
 10
23.99
 20
30.57
 10
24.44
 20
30.57
 10
24.44
 20
29.17
  0
LWPOLYLINE
  5
253
100
AcDbEntity
  8
PART_PADS_SMD_TOP
100
AcDbPolyline
 90
        4
 70
         1
 10
25.26
 20
29.17
 10
25.26
 20
30.57
 10
25.71
 20
30.57
 10
25.71
 20
29.17
  0
LWPOLYLINE
  5
254
100
AcDbEntity
  8
PART_PADS_SMD_TOP
100
AcDbPolyline
 90
        4
 70
         1
 10
26.53
 20
29.17
 10
26.53
 20
30.57
 10
26.98
 20
30.57
 10
26.98
 20
29.17
  0
LWPOLYLINE
  5
255
100
AcDbEntity
  8
PART_PADS_SMD_TOP
100
AcDbPolyline
 90
        4
 70
         1
 10
27.8
 20
29.17
 10
27.8
 20
30.57
 10
28.25
 20
30.57
 10
28.25
 20
29.17
  0
LWPOLYLINE
  5
256
100
AcDbEntity
  8
PART_PADS_SMD_TOP
100
AcDbPolyline
 90
        4
 70
         1
 10
29.07
 20
29.17
 10
29.07
 20
30.57
 10
29.52
 20
30.57
 10
29.52
 20
29.17
  0
LWPOLYLINE
  5
257
100
AcDbEntity
  8
PART_PADS_SMD_TOP
100
AcDbPolyline
 90
        4
 70
         1
 10
30.34
 20
29.17
 10
30.34
 20
30.57
 10
30.79
 20
30.57
 10
30.79
 20
29.17
  0
LWPOLYLINE
  5
258
100
AcDbEntity
  8
PART_PADS_SMD_TOP
100
AcDbPolyline
 90
        4
 70
         1
 10
30.34
 20
34.57
 10
30.34
 20
35.97
 10
30.79
 20
35.97
 10
30.79
 20
34.57
  0
LWPOLYLINE
  5
259
100
AcDbEntity
  8
PART_PADS_SMD_TOP
100
AcDbPolyline
 90
        4
 70
         1
 10
29.07
 20
34.57
 10
29.07
 20
35.97
 10
29.52
 20
35.97
 10
29.52
 20
34.57
  0
LWPOLYLINE
  5
25A
100
AcDbEntity
  8
PART_PADS_SMD_TOP
100
AcDbPolyline
 90
        4
 70
         1
 10
27.8
 20
34.57
 10
27.8
 20
35.97
 10
28.25
 20
35.97
 10
28.25
 20
34.57
  0
LWPOLYLINE
  5
25B
100
AcDbEntity
  8
PART_PADS_SMD_TOP
100
AcDbPolyline
 90
        4
 70
         1
 10
26.53
 20
34.57
 10
26.53
 20
35.97
 10
26.98
 20
35.97
 10
26.98
 20
34.57
  0
LWPOLYLINE
  5
25C
100
AcDbEntity
  8
PART_PADS_SMD_TOP
100
AcDbPolyline
 90
        4
 70
         1
 10
25.26
 20
34.57
 10
25.26
 20
35.97
 10
25.71
 20
35.97
 10
25.71
 20
34.57
  0
LWPOLYLINE
  5
25D
100
AcDbEntity
  8
PART_PADS_SMD_TOP
100
AcDbPolyline
 90
        4
 70
         1
 10
23.99
 20
34.57
 10
23.99
 20
35.97
 10
24.44
 20
35.97
 10
24.44
 20
34.57
  0
LWPOLYLINE
  5
25E
100
AcDbEntity
  8
PART_PADS_SMD_TOP
100
AcDbPolyline
 90
        4
 70
         1
 10
22.72
 20
34.57
 10
22.72
 20
35.97
 10
23.17
 20
35.97
 10
23.17
 20
34.57
  0
LWPOLYLINE
  5
25F
100
AcDbEntity
  8
PART_PADS_SMD_TOP
100
AcDbPolyline
 90
        4
 70
         1
 10
21.45
 20
34.57
 10
21.45
 20
35.97
 10
21.9
 20
35.97
 10
21.9
 20
34.57
  0
TEXT
  5
261
100
AcDbEntity
  8
PIN_NUMBERS_BTM
100
AcDbText
 10
1.882068
 20
2.877496
 30
0.0
 40
0.508
  1
1
  7
COURIER_NEW
 72
         1
 11
2.1
 21
3.1
 31
0.0
100
AcDbText
 73
         2
  0
TEXT
  5
262
100
AcDbEntity
  8
PIN_NUMBERS_BTM
100
AcDbText
 10
1.852068
 20
53.367496
 30
0.0
 40
0.508
  1
1
  7
COURIER_NEW
 72
         1
 11
2.07
 21
53.59
 31
0.0
100
AcDbText
 73
         2
  0
TEXT
  5
263
100
AcDbEntity
  8
PIN_NUMBERS_BTM
100
AcDbText
 10
4.852068
 20
17.847496
 30
0.0
 40
0.508
  1
2
  7
COURIER_NEW
 72
         1
 11
5.07
 21
18.07
 31
0.0
100
AcDbText
 73
         2
  0
TEXT
  5
264
100
AcDbEntity
  8
PIN_NUMBERS_BTM
100
AcDbText
 10
4.052068
 20
17.847496
 30
0.0
 40
0.508
  1
1
  7
COURIER_NEW
 72
         1
 11
4.27
 21
18.07
 31
0.0
100
AcDbText
 73
         2
  0
TEXT
  5
265
100
AcDbEntity
  8
PIN_NUMBERS_BTM
100
AcDbText
 10
50.052068
 20
54.557496
 30
0.0
 40
0.508
  1
2
  7
COURIER_NEW
 72
         1
 11
50.27
 21
54.78
 31
0.0
100
AcDbText
 73
         2
  0
TEXT
  5
266
100
AcDbEntity
  8
PIN_NUMBERS_BTM
100
AcDbText
 10
50.052068
 20
53.757496
 30
0.0
 40
0.508
  1
1
  7
COURIER_NEW
 72
         1
 11
50.27
 21
53.98
 31
0.0
100
AcDbText
 73
         2
  0
TEXT
  5
267
100
AcDbEntity
  8
PIN_NUMBERS_BTM
100
AcDbText
 10
57.622068
 20
54.117496
 30
0.0
 40
0.508
  1
1
  7
COURIER_NEW
 72
         1
 11
57.84
 21
54.34
 31
0.0
100
AcDbText
 73
         2
  0
TEXT
  5
268
100
AcDbEntity
  8
PIN_NUMBERS_BTM
100
AcDbText
 10
51.622068
 20
54.117496
 30
0.0
 40
0.508
  1
2
  7
COURIER_NEW
 72
         1
 11
51.84
 21
54.34
 31
0.0
100
AcDbText
 73
         2
  0
TEXT
  5
269
100
AcDbEntity
  8
PIN_NUMBERS_BTM
100
AcDbText
 10
50.052068
 20
49.007496
 30
0.0
 40
0.508
  1
2
  7
COURIER_NEW
 72
         1
 11
50.27
 21
49.23
 31
0.0
100
AcDbText
 73
         2
  0
TEXT
  5
26A
100
AcDbEntity
  8
PIN_NUMBERS_BTM
100
AcDbText
 10
50.052068
 20
48.207496
 30
0.0
 40
0.508
  1
1
  7
COURIER_NEW
 72
         1
 11
50.27
 21
48.43
 31
0.0
100
AcDbText
 73
         2
  0
TEXT
  5
26B
100
AcDbEntity
  8
PIN_NUMBERS_BTM
100
AcDbText
 10
57.622068
 20
48.577496
 30
0.0
 40
0.508
  1
1
  7
COURIER_NEW
 72
         1
 11
57.84
 21
48.8
 31
0.0
100
AcDbText
 73
         2
  0
TEXT
  5
26C
100
AcDbEntity
  8
PIN_NUMBERS_BTM
100
AcDbText
 10
51.622068
 20
48.577496
 30
0.0
 40
0.508
  1
2
  7
COURIER_NEW
 72
         1
 11
51.84
 21
48.8
 31
0.0
100
AcDbText
 73
         2
  0
TEXT
  5
26D
100
AcDbEntity
  8
PIN_NUMBERS_BTM
100
AcDbText
 10
13.982068
 20
41.817496
 30
0.0
 40
0.508
  1
2
  7
COURIER_NEW
 72
         1
 11
14.2
 21
42.04
 31
0.0
100
AcDbText
 73
         2
  0
TEXT
  5
26E
100
AcDbEntity
  8
PIN_NUMBERS_BTM
100
AcDbText
 10
13.182068
 20
41.817496
 30
0.0
 40
0.508
  1
1
  7
COURIER_NEW
 72
         1
 11
13.4
 21
42.04
 31
0.0
100
AcDbText
 73
         2
  0
TEXT
  5
26F
100
AcDbEntity
  8
PIN_NUMBERS_BTM
100
AcDbText
 10
27.542068
 20
61.877496
 30
0.0
 40
0.508
  1
1
  7
COURIER_NEW
 72
         1
 11
27.76
 21
62.1
 31
0.0
100
AcDbText
 73
         2
  0
TEXT
  5
270
100
AcDbEntity
  8
PIN_NUMBERS_BTM
100
AcDbText
 10
30.312068
 20
61.877496
 30
0.0
 40
0.508
  1
2
  7
COURIER_NEW
 72
         1
 11
30.53
 21
62.1
 31
0.0
100
AcDbText
 73
         2
  0
TEXT
  5
271
100
AcDbEntity
  8
PIN_NUMBERS_BTM
100
AcDbText
 10
33.082068
 20
61.877496
 30
0.0
 40
0.508
  1
3
  7
COURIER_NEW
 72
         1
 11
33.3
 21
62.1
 31
0.0
100
AcDbText
 73
         2
  0
TEXT
  5
272
100
AcDbEntity
  8
PIN_NUMBERS_BTM
100
AcDbText
 10
35.852068
 20
61.877496
 30
0.0
 40
0.508
  1
4
  7
COURIER_NEW
 72
         1
 11
36.07
 21
62.1
 31
0.0
100
AcDbText
 73
         2
  0
TEXT
  5
273
100
AcDbEntity
  8
PIN_NUMBERS_BTM
100
AcDbText
 10
38.622068
 20
61.877496
 30
0.0
 40
0.508
  1
5
  7
COURIER_NEW
 72
         1
 11
38.84
 21
62.1
 31
0.0
100
AcDbText
 73
         2
  0
TEXT
  5
274
100
AcDbEntity
  8
PIN_NUMBERS_BTM
100
AcDbText
 10
28.927068
 20
64.717496
 30
0.0
 40
0.508
  1
6
  7
COURIER_NEW
 72
         1
 11
29.145
 21
64.94
 31
0.0
100
AcDbText
 73
         2
  0
TEXT
  5
275
100
AcDbEntity
  8
PIN_NUMBERS_BTM
100
AcDbText
 10
31.697068
 20
64.717496
 30
0.0
 40
0.508
  1
7
  7
COURIER_NEW
 72
         1
 11
31.915
 21
64.94
 31
0.0
100
AcDbText
 73
         2
  0
TEXT
  5
276
100
AcDbEntity
  8
PIN_NUMBERS_BTM
100
AcDbText
 10
34.467068
 20
64.717496
 30
0.0
 40
0.508
  1
8
  7
COURIER_NEW
 72
         1
 11
34.685
 21
64.94
 31
0.0
100
AcDbText
 73
         2
  0
TEXT
  5
277
100
AcDbEntity
  8
PIN_NUMBERS_BTM
100
AcDbText
 10
37.237068
 20
64.717496
 30
0.0
 40
0.508
  1
9
  7
COURIER_NEW
 72
         1
 11
37.455
 21
64.94
 31
0.0
100
AcDbText
 73
         2
  0
TEXT
  5
278
100
AcDbEntity
  8
PIN_NUMBERS_BTM
100
AcDbText
 10
20.374136
 20
63.417496
 30
0.0
 40
0.508
  1
10
  7
COURIER_NEW
 72
         1
 11
20.81
 21
63.64
 31
0.0
100
AcDbText
 73
         2
  0
TEXT
  5
279
100
AcDbEntity
  8
PIN_NUMBERS_BTM
100
AcDbText
 10
45.354136
 20
63.417496
 30
0.0
 40
0.508
  1
11
  7
COURIER_NEW
 72
         1
 11
45.79
 21
63.64
 31
0.0
100
AcDbText
 73
         2
  0
TEXT
  5
27A
100
AcDbEntity
  8
PIN_NUMBERS_BTM
100
AcDbText
 10
25.692068
 20
39.562496
 30
0.0
 40
0.508
  1
1
  7
COURIER_NEW
 72
         1
 11
25.91
 21
39.785
 31
0.0
100
AcDbText
 73
         2
  0
TEXT
  5
27B
100
AcDbEntity
  8
PIN_NUMBERS_BTM
100
AcDbText
 10
25.692068
 20
41.112496
 30
0.0
 40
0.508
  1
2
  7
COURIER_NEW
 72
         1
 11
25.91
 21
41.335
 31
0.0
100
AcDbText
 73
         2
  0
TEXT
  5
27C
100
AcDbEntity
  8
PIN_NUMBERS_BTM
100
AcDbText
 10
23.892068
 20
39.562496
 30
0.0
 40
0.508
  1
1
  7
COURIER_NEW
 72
         1
 11
24.11
 21
39.785
 31
0.0
100
AcDbText
 73
         2
  0
TEXT
  5
27D
100
AcDbEntity
  8
PIN_NUMBERS_BTM
100
AcDbText
 10
23.892068
 20
41.112496
 30
0.0
 40
0.508
  1
2
  7
COURIER_NEW
 72
         1
 11
24.11
 21
41.335
 31
0.0
100
AcDbText
 73
         2
  0
TEXT
  5
27E
100
AcDbEntity
  8
PIN_NUMBERS_BTM
100
AcDbText
 10
22.327068
 20
42.647496
 30
0.0
 40
0.508
  1
1
  7
COURIER_NEW
 72
         1
 11
22.545
 21
42.87
 31
0.0
100
AcDbText
 73
         2
  0
TEXT
  5
27F
100
AcDbEntity
  8
PIN_NUMBERS_BTM
100
AcDbText
 10
23.877068
 20
42.647496
 30
0.0
 40
0.508
  1
2
  7
COURIER_NEW
 72
         1
 11
24.095
 21
42.87
 31
0.0
100
AcDbText
 73
         2
  0
TEXT
  5
280
100
AcDbEntity
  8
PIN_NUMBERS_BTM
100
AcDbText
 10
27.217068
 20
42.647496
 30
0.0
 40
0.508
  1
1
  7
COURIER_NEW
 72
         1
 11
27.435
 21
42.87
 31
0.0
100
AcDbText
 73
         2
  0
TEXT
  5
281
100
AcDbEntity
  8
PIN_NUMBERS_BTM
100
AcDbText
 10
25.667068
 20
42.647496
 30
0.0
 40
0.508
  1
2
  7
COURIER_NEW
 72
         1
 11
25.885
 21
42.87
 31
0.0
100
AcDbText
 73
         2
  0
TEXT
  5
282
100
AcDbEntity
  8
PIN_NUMBERS_BTM
100
AcDbText
 10
20.832068
 20
25.777496
 30
0.0
 40
0.508
  1
1
  7
COURIER_NEW
 72
         1
 11
21.05
 21
26.0
 31
0.0
100
AcDbText
 73
         2
  0
TEXT
  5
283
100
AcDbEntity
  8
PIN_NUMBERS_BTM
100
AcDbText
 10
19.282068
 20
25.777496
 30
0.0
 40
0.508
  1
2
  7
COURIER_NEW
 72
         1
 11
19.5
 21
26.0
 31
0.0
100
AcDbText
 73
         2
  0
TEXT
  5
284
100
AcDbEntity
  8
PIN_NUMBERS_BTM
100
AcDbText
 10
17.732068
 20
25.777496
 30
0.0
 40
0.508
  1
3
  7
COURIER_NEW
 72
         1
 11
17.95
 21
26.0
 31
0.0
100
AcDbText
 73
         2
  0
TEXT
  5
285
100
AcDbEntity
  8
PIN_NUMBERS_BTM
100
AcDbText
 10
19.822068
 20
31.717496
 30
0.0
 40
0.508
  1
2
  7
COURIER_NEW
 72
         1
 11
20.04
 21
31.94
 31
0.0
100
AcDbText
 73
         2
  0
TEXT
  5
286
100
AcDbEntity
  8
PIN_NUMBERS_BTM
100
AcDbText
 10
19.822068
 20
30.917496
 30
0.0
 40
0.508
  1
1
  7
COURIER_NEW
 72
         1
 11
20.04
 21
31.14
 31
0.0
100
AcDbText
 73
         2
  0
TEXT
  5
287
100
AcDbEntity
  8
PIN_NUMBERS_BTM
100
AcDbText
 10
12.382068
 20
26.102496
 30
0.0
 40
0.508
  1
1
  7
COURIER_NEW
 72
         1
 11
12.6
 21
26.325
 31
0.0
100
AcDbText
 73
         2
  0
TEXT
  5
288
100
AcDbEntity
  8
PIN_NUMBERS_BTM
100
AcDbText
 10
12.382068
 20
23.452496
 30
0.0
 40
0.508
  1
2
  7
COURIER_NEW
 72
         1
 11
12.6
 21
23.675
 31
0.0
100
AcDbText
 73
         2
  0
TEXT
  5
289
100
AcDbEntity
  8
PIN_NUMBERS_BTM
100
AcDbText
 10
28.082068
 20
20.077496
 30
0.0
 40
0.508
  1
2
  7
COURIER_NEW
 72
         1
 11
28.3
 21
20.3
 31
0.0
100
AcDbText
 73
         2
  0
TEXT
  5
28A
100
AcDbEntity
  8
PIN_NUMBERS_BTM
100
AcDbText
 10
28.882068
 20
20.077496
 30
0.0
 40
0.508
  1
1
  7
COURIER_NEW
 72
         1
 11
29.1
 21
20.3
 31
0.0
100
AcDbText
 73
         2
  0
TEXT
  5
28B
100
AcDbEntity
  8
PIN_NUMBERS_BTM
100
AcDbText
 10
25.982068
 20
15.777496
 30
0.0
 40
0.508
  1
2
  7
COURIER_NEW
 72
         1
 11
26.2
 21
16.0
 31
0.0
100
AcDbText
 73
         2
  0
TEXT
  5
28C
100
AcDbEntity
  8
PIN_NUMBERS_BTM
100
AcDbText
 10
25.182068
 20
15.777496
 30
0.0
 40
0.508
  1
1
  7
COURIER_NEW
 72
         1
 11
25.4
 21
16.0
 31
0.0
100
AcDbText
 73
         2
  0
TEXT
  5
28D
100
AcDbEntity
  8
PIN_NUMBERS_BTM
100
AcDbText
 10
41.561568
 20
51.582496
 30
0.0
 40
0.508
  1
1
  7
COURIER_NEW
 72
         1
 11
41.7795
 21
51.805
 31
0.0
100
AcDbText
 73
         2
  0
TEXT
  5
28E
100
AcDbEntity
  8
PIN_NUMBERS_BTM
100
AcDbText
 10
41.561568
 20
53.132496
 30
0.0
 40
0.508
  1
2
  7
COURIER_NEW
 72
         1
 11
41.7795
 21
53.355
 31
0.0
100
AcDbText
 73
         2
  0
TEXT
  5
28F
100
AcDbEntity
  8
PIN_NUMBERS_BTM
100
AcDbText
 10
43.052068
 20
54.647496
 30
0.0
 40
0.508
  1
2
  7
COURIER_NEW
 72
         1
 11
43.27
 21
54.87
 31
0.0
100
AcDbText
 73
         2
  0
TEXT
  5
290
100
AcDbEntity
  8
PIN_NUMBERS_BTM
100
AcDbText
 10
43.052068
 20
55.447496
 30
0.0
 40
0.508
  1
1
  7
COURIER_NEW
 72
         1
 11
43.27
 21
55.67
 31
0.0
100
AcDbText
 73
         2
  0
TEXT
  5
291
100
AcDbEntity
  8
PIN_NUMBERS_BTM
100
AcDbText
 10
43.052068
 20
52.357496
 30
0.0
 40
0.508
  1
2
  7
COURIER_NEW
 72
         1
 11
43.27
 21
52.58
 31
0.0
100
AcDbText
 73
         2
  0
TEXT
  5
292
100
AcDbEntity
  8
PIN_NUMBERS_BTM
100
AcDbText
 10
43.052068
 20
51.557496
 30
0.0
 40
0.508
  1
1
  7
COURIER_NEW
 72
         1
 11
43.27
 21
51.78
 31
0.0
100
AcDbText
 73
         2
  0
TEXT
  5
293
100
AcDbEntity
  8
PIN_NUMBERS_BTM
100
AcDbText
 10
42.285068
 20
54.557496
 30
0.0
 40
0.508
  1
1
  7
COURIER_NEW
 72
         1
 11
42.503
 21
54.78
 31
0.0
100
AcDbText
 73
         2
  0
TEXT
  5
294
100
AcDbEntity
  8
PIN_NUMBERS_BTM
100
AcDbText
 10
42.285068
 20
55.557496
 30
0.0
 40
0.508
  1
2
  7
COURIER_NEW
 72
         1
 11
42.503
 21
55.78
 31
0.0
100
AcDbText
 73
         2
  0
TEXT
  5
295
100
AcDbEntity
  8
PIN_NUMBERS_BTM
100
AcDbText
 10
40.838068
 20
55.057496
 30
0.0
 40
0.508
  1
3
  7
COURIER_NEW
 72
         1
 11
41.056
 21
55.28
 31
0.0
100
AcDbText
 73
         2
  0
TEXT
  5
296
100
AcDbEntity
  8
PIN_NUMBERS_BTM
100
AcDbText
 10
42.852068
 20
43.037496
 30
0.0
 40
0.508
  1
2
  7
COURIER_NEW
 72
         1
 11
43.07
 21
43.26
 31
0.0
100
AcDbText
 73
         2
  0
TEXT
  5
297
100
AcDbEntity
  8
PIN_NUMBERS_BTM
100
AcDbText
 10
42.852068
 20
43.837496
 30
0.0
 40
0.508
  1
1
  7
COURIER_NEW
 72
         1
 11
43.07
 21
44.06
 31
0.0
100
AcDbText
 73
         2
  0
TEXT
  5
298
100
AcDbEntity
  8
PIN_NUMBERS_BTM
100
AcDbText
 10
42.852068
 20
40.357496
 30
0.0
 40
0.508
  1
2
  7
COURIER_NEW
 72
         1
 11
43.07
 21
40.58
 31
0.0
100
AcDbText
 73
         2
  0
TEXT
  5
299
100
AcDbEntity
  8
PIN_NUMBERS_BTM
100
AcDbText
 10
42.852068
 20
39.557496
 30
0.0
 40
0.508
  1
1
  7
COURIER_NEW
 72
         1
 11
43.07
 21
39.78
 31
0.0
100
AcDbText
 73
         2
  0
TEXT
  5
29A
100
AcDbEntity
  8
PIN_NUMBERS_BTM
100
AcDbText
 10
41.361568
 20
39.922496
 30
0.0
 40
0.508
  1
1
  7
COURIER_NEW
 72
         1
 11
41.5795
 21
40.145
 31
0.0
100
AcDbText
 73
         2
  0
TEXT
  5
29B
100
AcDbEntity
  8
PIN_NUMBERS_BTM
100
AcDbText
 10
41.361568
 20
41.472496
 30
0.0
 40
0.508
  1
2
  7
COURIER_NEW
 72
         1
 11
41.5795
 21
41.695
 31
0.0
100
AcDbText
 73
         2
  0
TEXT
  5
29C
100
AcDbEntity
  8
PIN_NUMBERS_BTM
100
AcDbText
 10
42.085068
 20
42.937496
 30
0.0
 40
0.508
  1
1
  7
COURIER_NEW
 72
         1
 11
42.303
 21
43.16
 31
0.0
100
AcDbText
 73
         2
  0
TEXT
  5
29D
100
AcDbEntity
  8
PIN_NUMBERS_BTM
100
AcDbText
 10
42.085068
 20
43.937496
 30
0.0
 40
0.508
  1
2
  7
COURIER_NEW
 72
         1
 11
42.303
 21
44.16
 31
0.0
100
AcDbText
 73
         2
  0
TEXT
  5
29E
100
AcDbEntity
  8
PIN_NUMBERS_BTM
100
AcDbText
 10
40.638068
 20
43.437496
 30
0.0
 40
0.508
  1
3
  7
COURIER_NEW
 72
         1
 11
40.856
 21
43.66
 31
0.0
100
AcDbText
 73
         2
  0
TEXT
  5
29F
100
AcDbEntity
  8
PIN_NUMBERS_BTM
100
AcDbText
 10
41.461568
 20
45.702496
 30
0.0
 40
0.508
  1
1
  7
COURIER_NEW
 72
         1
 11
41.6795
 21
45.925
 31
0.0
100
AcDbText
 73
         2
  0
TEXT
  5
2A0
100
AcDbEntity
  8
PIN_NUMBERS_BTM
100
AcDbText
 10
41.461568
 20
47.252496
 30
0.0
 40
0.508
  1
2
  7
COURIER_NEW
 72
         1
 11
41.6795
 21
47.475
 31
0.0
100
AcDbText
 73
         2
  0
TEXT
  5
2A1
100
AcDbEntity
  8
PIN_NUMBERS_BTM
100
AcDbText
 10
42.952068
 20
48.777496
 30
0.0
 40
0.508
  1
2
  7
COURIER_NEW
 72
         1
 11
43.17
 21
49.0
 31
0.0
100
AcDbText
 73
         2
  0
TEXT
  5
2A2
100
AcDbEntity
  8
PIN_NUMBERS_BTM
100
AcDbText
 10
42.952068
 20
49.577496
 30
0.0
 40
0.508
  1
1
  7
COURIER_NEW
 72
         1
 11
43.17
 21
49.8
 31
0.0
100
AcDbText
 73
         2
  0
TEXT
  5
2A3
100
AcDbEntity
  8
PIN_NUMBERS_BTM
100
AcDbText
 10
42.952068
 20
46.727496
 30
0.0
 40
0.508
  1
2
  7
COURIER_NEW
 72
         1
 11
43.17
 21
46.95
 31
0.0
100
AcDbText
 73
         2
  0
TEXT
  5
2A4
100
AcDbEntity
  8
PIN_NUMBERS_BTM
100
AcDbText
 10
42.952068
 20
45.927496
 30
0.0
 40
0.508
  1
1
  7
COURIER_NEW
 72
         1
 11
43.17
 21
46.15
 31
0.0
100
AcDbText
 73
         2
  0
TEXT
  5
2A5
100
AcDbEntity
  8
PIN_NUMBERS_BTM
100
AcDbText
 10
42.185068
 20
48.637496
 30
0.0
 40
0.508
  1
1
  7
COURIER_NEW
 72
         1
 11
42.403
 21
48.86
 31
0.0
100
AcDbText
 73
         2
  0
TEXT
  5
2A6
100
AcDbEntity
  8
PIN_NUMBERS_BTM
100
AcDbText
 10
42.185068
 20
49.637496
 30
0.0
 40
0.508
  1
2
  7
COURIER_NEW
 72
         1
 11
42.403
 21
49.86
 31
0.0
100
AcDbText
 73
         2
  0
TEXT
  5
2A7
100
AcDbEntity
  8
PIN_NUMBERS_BTM
100
AcDbText
 10
40.738068
 20
49.137496
 30
0.0
 40
0.508
  1
3
  7
COURIER_NEW
 72
         1
 11
40.956
 21
49.36
 31
0.0
100
AcDbText
 73
         2
  0
TEXT
  5
2A8
100
AcDbEntity
  8
PIN_NUMBERS_BTM
100
AcDbText
 10
25.832068
 20
25.777496
 30
0.0
 40
0.508
  1
1
  7
COURIER_NEW
 72
         1
 11
26.05
 21
26.0
 31
0.0
100
AcDbText
 73
         2
  0
TEXT
  5
2A9
100
AcDbEntity
  8
PIN_NUMBERS_BTM
100
AcDbText
 10
24.282068
 20
25.777496
 30
0.0
 40
0.508
  1
2
  7
COURIER_NEW
 72
         1
 11
24.5
 21
26.0
 31
0.0
100
AcDbText
 73
         2
  0
TEXT
  5
2AA
100
AcDbEntity
  8
PIN_NUMBERS_BTM
100
AcDbText
 10
22.732068
 20
25.777496
 30
0.0
 40
0.508
  1
3
  7
COURIER_NEW
 72
         1
 11
22.95
 21
26.0
 31
0.0
100
AcDbText
 73
         2
  0
TEXT
  5
2AB
100
AcDbEntity
  8
PIN_NUMBERS_BTM
100
AcDbText
 10
30.832068
 20
25.777496
 30
0.0
 40
0.508
  1
1
  7
COURIER_NEW
 72
         1
 11
31.05
 21
26.0
 31
0.0
100
AcDbText
 73
         2
  0
TEXT
  5
2AC
100
AcDbEntity
  8
PIN_NUMBERS_BTM
100
AcDbText
 10
29.282068
 20
25.777496
 30
0.0
 40
0.508
  1
2
  7
COURIER_NEW
 72
         1
 11
29.5
 21
26.0
 31
0.0
100
AcDbText
 73
         2
  0
TEXT
  5
2AD
100
AcDbEntity
  8
PIN_NUMBERS_BTM
100
AcDbText
 10
27.732068
 20
25.777496
 30
0.0
 40
0.508
  1
3
  7
COURIER_NEW
 72
         1
 11
27.95
 21
26.0
 31
0.0
100
AcDbText
 73
         2
  0
TEXT
  5
2AE
100
AcDbEntity
  8
PIN_NUMBERS_BTM
100
AcDbText
 10
25.187068
 20
22.461996
 30
0.0
 40
0.508
  1
1
  7
COURIER_NEW
 72
         1
 11
25.405
 21
22.6845
 31
0.0
100
AcDbText
 73
         2
  0
TEXT
  5
2AF
100
AcDbEntity
  8
PIN_NUMBERS_BTM
100
AcDbText
 10
23.917068
 20
22.461996
 30
0.0
 40
0.508
  1
2
  7
COURIER_NEW
 72
         1
 11
24.135
 21
22.6845
 31
0.0
100
AcDbText
 73
         2
  0
TEXT
  5
2B0
100
AcDbEntity
  8
PIN_NUMBERS_BTM
100
AcDbText
 10
22.647068
 20
22.461996
 30
0.0
 40
0.508
  1
3
  7
COURIER_NEW
 72
         1
 11
22.865
 21
22.6845
 31
0.0
100
AcDbText
 73
         2
  0
TEXT
  5
2B1
100
AcDbEntity
  8
PIN_NUMBERS_BTM
100
AcDbText
 10
21.377068
 20
22.461996
 30
0.0
 40
0.508
  1
4
  7
COURIER_NEW
 72
         1
 11
21.595
 21
22.6845
 31
0.0
100
AcDbText
 73
         2
  0
TEXT
  5
2B2
100
AcDbEntity
  8
PIN_NUMBERS_BTM
100
AcDbText
 10
21.377068
 20
17.061996
 30
0.0
 40
0.508
  1
5
  7
COURIER_NEW
 72
         1
 11
21.595
 21
17.2845
 31
0.0
100
AcDbText
 73
         2
  0
TEXT
  5
2B3
100
AcDbEntity
  8
PIN_NUMBERS_BTM
100
AcDbText
 10
22.647068
 20
17.061996
 30
0.0
 40
0.508
  1
6
  7
COURIER_NEW
 72
         1
 11
22.865
 21
17.2845
 31
0.0
100
AcDbText
 73
         2
  0
TEXT
  5
2B4
100
AcDbEntity
  8
PIN_NUMBERS_BTM
100
AcDbText
 10
23.917068
 20
17.061996
 30
0.0
 40
0.508
  1
7
  7
COURIER_NEW
 72
         1
 11
24.135
 21
17.2845
 31
0.0
100
AcDbText
 73
         2
  0
TEXT
  5
2B5
100
AcDbEntity
  8
PIN_NUMBERS_BTM
100
AcDbText
 10
25.187068
 20
17.061996
 30
0.0
 40
0.508
  1
8
  7
COURIER_NEW
 72
         1
 11
25.405
 21
17.2845
 31
0.0
100
AcDbText
 73
         2
  0
TEXT
  5
2B6
100
AcDbEntity
  8
PIN_NUMBERS_BTM
100
AcDbText
 10
28.282068
 20
21.502496
 30
0.0
 40
0.508
  1
2
  7
COURIER_NEW
 72
         1
 11
28.5
 21
21.725
 31
0.0
100
AcDbText
 73
         2
  0
TEXT
  5
2B7
100
AcDbEntity
  8
PIN_NUMBERS_BTM
100
AcDbText
 10
28.282068
 20
23.052496
 30
0.0
 40
0.508
  1
1
  7
COURIER_NEW
 72
         1
 11
28.5
 21
23.275
 31
0.0
100
AcDbText
 73
         2
  0
TEXT
  5
2B8
100
AcDbEntity
  8
PIN_NUMBERS_BTM
100
AcDbText
 10
19.212068
 20
22.767496
 30
0.0
 40
0.508
  1
2
  7
COURIER_NEW
 72
         1
 11
19.43
 21
22.99
 31
0.0
100
AcDbText
 73
         2
  0
TEXT
  5
2B9
100
AcDbEntity
  8
PIN_NUMBERS_BTM
100
AcDbText
 10
18.412068
 20
22.767496
 30
0.0
 40
0.508
  1
1
  7
COURIER_NEW
 72
         1
 11
18.63
 21
22.99
 31
0.0
100
AcDbText
 73
         2
  0
TEXT
  5
2BA
100
AcDbEntity
  8
PIN_NUMBERS_BTM
100
AcDbText
 10
40.972068
 20
31.837496
 30
0.0
 40
0.508
  1
2
  7
COURIER_NEW
 72
         1
 11
41.19
 21
32.06
 31
0.0
100
AcDbText
 73
         2
  0
TEXT
  5
2BB
100
AcDbEntity
  8
PIN_NUMBERS_BTM
100
AcDbText
 10
40.172068
 20
31.837496
 30
0.0
 40
0.508
  1
1
  7
COURIER_NEW
 72
         1
 11
40.39
 21
32.06
 31
0.0
100
AcDbText
 73
         2
  0
TEXT
  5
2BC
100
AcDbEntity
  8
PIN_NUMBERS_BTM
100
AcDbText
 10
33.332068
 20
42.567496
 30
0.0
 40
0.508
  1
2
  7
COURIER_NEW
 72
         1
 11
33.55
 21
42.79
 31
0.0
100
AcDbText
 73
         2
  0
TEXT
  5
2BD
100
AcDbEntity
  8
PIN_NUMBERS_BTM
100
AcDbText
 10
32.532068
 20
42.567496
 30
0.0
 40
0.508
  1
1
  7
COURIER_NEW
 72
         1
 11
32.75
 21
42.79
 31
0.0
100
AcDbText
 73
         2
  0
TEXT
  5
2BE
100
AcDbEntity
  8
PIN_NUMBERS_BTM
100
AcDbText
 10
7.422068
 20
14.967496
 30
0.0
 40
0.508
  1
2
  7
COURIER_NEW
 72
         1
 11
7.64
 21
15.19
 31
0.0
100
AcDbText
 73
         2
  0
TEXT
  5
2BF
100
AcDbEntity
  8
PIN_NUMBERS_BTM
100
AcDbText
 10
6.622068
 20
14.967496
 30
0.0
 40
0.508
  1
1
  7
COURIER_NEW
 72
         1
 11
6.84
 21
15.19
 31
0.0
100
AcDbText
 73
         2
  0
TEXT
  5
2C0
100
AcDbEntity
  8
PIN_NUMBERS_BTM
100
AcDbText
 10
57.622068
 20
43.037496
 30
0.0
 40
0.508
  1
1
  7
COURIER_NEW
 72
         1
 11
57.84
 21
43.26
 31
0.0
100
AcDbText
 73
         2
  0
TEXT
  5
2C1
100
AcDbEntity
  8
PIN_NUMBERS_BTM
100
AcDbText
 10
51.622068
 20
43.037496
 30
0.0
 40
0.508
  1
2
  7
COURIER_NEW
 72
         1
 11
51.84
 21
43.26
 31
0.0
100
AcDbText
 73
         2
  0
TEXT
  5
2C2
100
AcDbEntity
  8
PIN_NUMBERS_BTM
100
AcDbText
 10
50.052068
 20
43.407496
 30
0.0
 40
0.508
  1
2
  7
COURIER_NEW
 72
         1
 11
50.27
 21
43.63
 31
0.0
100
AcDbText
 73
         2
  0
TEXT
  5
2C3
100
AcDbEntity
  8
PIN_NUMBERS_BTM
100
AcDbText
 10
50.052068
 20
42.607496
 30
0.0
 40
0.508
  1
1
  7
COURIER_NEW
 72
         1
 11
50.27
 21
42.83
 31
0.0
100
AcDbText
 73
         2
  0
TEXT
  5
2C4
100
AcDbEntity
  8
PIN_NUMBERS_BTM
100
AcDbText
 10
68.862068
 20
68.837496
 30
0.0
 40
0.508
  1
1
  7
COURIER_NEW
 72
         1
 11
69.08
 21
69.06
 31
0.0
100
AcDbText
 73
         2
  0
TEXT
  5
2C5
100
AcDbEntity
  8
PIN_NUMBERS_BTM
100
AcDbText
 10
60.872068
 20
34.737496
 30
0.0
 40
0.508
  1
1
  7
COURIER_NEW
 72
         1
 11
61.09
 21
34.96
 31
0.0
100
AcDbText
 73
         2
  0
TEXT
  5
2C6
100
AcDbEntity
  8
PIN_NUMBERS_BTM
100
AcDbText
 10
4.052068
 20
21.077496
 30
0.0
 40
0.508
  1
1
  7
COURIER_NEW
 72
         1
 11
4.27
 21
21.3
 31
0.0
100
AcDbText
 73
         2
  0
TEXT
  5
2C7
100
AcDbEntity
  8
PIN_NUMBERS_BTM
100
AcDbText
 10
1.512068
 20
21.077496
 30
0.0
 40
0.508
  1
2
  7
COURIER_NEW
 72
         1
 11
1.73
 21
21.3
 31
0.0
100
AcDbText
 73
         2
  0
TEXT
  5
2C8
100
AcDbEntity
  8
PIN_NUMBERS_BTM
100
AcDbText
 10
4.052068
 20
23.617496
 30
0.0
 40
0.508
  1
3
  7
COURIER_NEW
 72
         1
 11
4.27
 21
23.84
 31
0.0
100
AcDbText
 73
         2
  0
TEXT
  5
2C9
100
AcDbEntity
  8
PIN_NUMBERS_BTM
100
AcDbText
 10
1.512068
 20
23.617496
 30
0.0
 40
0.508
  1
4
  7
COURIER_NEW
 72
         1
 11
1.73
 21
23.84
 31
0.0
100
AcDbText
 73
         2
  0
TEXT
  5
2CA
100
AcDbEntity
  8
PIN_NUMBERS_BTM
100
AcDbText
 10
4.052068
 20
26.157496
 30
0.0
 40
0.508
  1
5
  7
COURIER_NEW
 72
         1
 11
4.27
 21
26.38
 31
0.0
100
AcDbText
 73
         2
  0
TEXT
  5
2CB
100
AcDbEntity
  8
PIN_NUMBERS_BTM
100
AcDbText
 10
1.512068
 20
26.157496
 30
0.0
 40
0.508
  1
6
  7
COURIER_NEW
 72
         1
 11
1.73
 21
26.38
 31
0.0
100
AcDbText
 73
         2
  0
TEXT
  5
2CC
100
AcDbEntity
  8
PIN_NUMBERS_BTM
100
AcDbText
 10
4.052068
 20
28.697496
 30
0.0
 40
0.508
  1
7
  7
COURIER_NEW
 72
         1
 11
4.27
 21
28.92
 31
0.0
100
AcDbText
 73
         2
  0
TEXT
  5
2CD
100
AcDbEntity
  8
PIN_NUMBERS_BTM
100
AcDbText
 10
1.512068
 20
28.697496
 30
0.0
 40
0.508
  1
8
  7
COURIER_NEW
 72
         1
 11
1.73
 21
28.92
 31
0.0
100
AcDbText
 73
         2
  0
TEXT
  5
2CE
100
AcDbEntity
  8
PIN_NUMBERS_BTM
100
AcDbText
 10
4.052068
 20
31.237496
 30
0.0
 40
0.508
  1
9
  7
COURIER_NEW
 72
         1
 11
4.27
 21
31.46
 31
0.0
100
AcDbText
 73
         2
  0
TEXT
  5
2CF
100
AcDbEntity
  8
PIN_NUMBERS_BTM
100
AcDbText
 10
1.294136
 20
31.237496
 30
0.0
 40
0.508
  1
10
  7
COURIER_NEW
 72
         1
 11
1.73
 21
31.46
 31
0.0
100
AcDbText
 73
         2
  0
TEXT
  5
2D0
100
AcDbEntity
  8
PIN_NUMBERS_BTM
100
AcDbText
 10
3.834136
 20
33.777496
 30
0.0
 40
0.508
  1
11
  7
COURIER_NEW
 72
         1
 11
4.27
 21
34.0
 31
0.0
100
AcDbText
 73
         2
  0
TEXT
  5
2D1
100
AcDbEntity
  8
PIN_NUMBERS_BTM
100
AcDbText
 10
1.294136
 20
33.777496
 30
0.0
 40
0.508
  1
12
  7
COURIER_NEW
 72
         1
 11
1.73
 21
34.0
 31
0.0
100
AcDbText
 73
         2
  0
TEXT
  5
2D2
100
AcDbEntity
  8
PIN_NUMBERS_BTM
100
AcDbText
 10
3.834136
 20
36.317496
 30
0.0
 40
0.508
  1
13
  7
COURIER_NEW
 72
         1
 11
4.27
 21
36.54
 31
0.0
100
AcDbText
 73
         2
  0
TEXT
  5
2D3
100
AcDbEntity
  8
PIN_NUMBERS_BTM
100
AcDbText
 10
1.294136
 20
36.317496
 30
0.0
 40
0.508
  1
14
  7
COURIER_NEW
 72
         1
 11
1.73
 21
36.54
 31
0.0
100
AcDbText
 73
         2
  0
TEXT
  5
2D4
100
AcDbEntity
  8
PIN_NUMBERS_BTM
100
AcDbText
 10
3.834136
 20
38.857496
 30
0.0
 40
0.508
  1
15
  7
COURIER_NEW
 72
         1
 11
4.27
 21
39.08
 31
0.0
100
AcDbText
 73
         2
  0
TEXT
  5
2D5
100
AcDbEntity
  8
PIN_NUMBERS_BTM
100
AcDbText
 10
1.294136
 20
38.857496
 30
0.0
 40
0.508
  1
16
  7
COURIER_NEW
 72
         1
 11
1.73
 21
39.08
 31
0.0
100
AcDbText
 73
         2
  0
TEXT
  5
2D6
100
AcDbEntity
  8
PIN_NUMBERS_BTM
100
AcDbText
 10
3.834136
 20
41.397496
 30
0.0
 40
0.508
  1
17
  7
COURIER_NEW
 72
         1
 11
4.27
 21
41.62
 31
0.0
100
AcDbText
 73
         2
  0
TEXT
  5
2D7
100
AcDbEntity
  8
PIN_NUMBERS_BTM
100
AcDbText
 10
1.294136
 20
41.397496
 30
0.0
 40
0.508
  1
18
  7
COURIER_NEW
 72
         1
 11
1.73
 21
41.62
 31
0.0
100
AcDbText
 73
         2
  0
TEXT
  5
2D8
100
AcDbEntity
  8
PIN_NUMBERS_BTM
100
AcDbText
 10
3.834136
 20
43.937496
 30
0.0
 40
0.508
  1
19
  7
COURIER_NEW
 72
         1
 11
4.27
 21
44.16
 31
0.0
100
AcDbText
 73
         2
  0
TEXT
  5
2D9
100
AcDbEntity
  8
PIN_NUMBERS_BTM
100
AcDbText
 10
1.294136
 20
43.937496
 30
0.0
 40
0.508
  1
20
  7
COURIER_NEW
 72
         1
 11
1.73
 21
44.16
 31
0.0
100
AcDbText
 73
         2
  0
TEXT
  5
2DA
100
AcDbEntity
  8
PIN_NUMBERS_BTM
100
AcDbText
 10
6.892068
 20
33.252496
 30
0.0
 40
0.508
  1
1
  7
COURIER_NEW
 72
         1
 11
7.11
 21
33.475
 31
0.0
100
AcDbText
 73
         2
  0
TEXT
  5
2DB
100
AcDbEntity
  8
PIN_NUMBERS_BTM
100
AcDbText
 10
6.892068
 20
31.702496
 30
0.0
 40
0.508
  1
2
  7
COURIER_NEW
 72
         1
 11
7.11
 21
31.925
 31
0.0
100
AcDbText
 73
         2
  0
TEXT
  5
2DC
100
AcDbEntity
  8
PIN_NUMBERS_BTM
100
AcDbText
 10
30.532068
 20
28.047496
 30
0.0
 40
0.508
  1
2
  7
COURIER_NEW
 72
         1
 11
30.75
 21
28.27
 31
0.0
100
AcDbText
 73
         2
  0
TEXT
  5
2DD
100
AcDbEntity
  8
PIN_NUMBERS_BTM
100
AcDbText
 10
29.732068
 20
28.047496
 30
0.0
 40
0.508
  1
1
  7
COURIER_NEW
 72
         1
 11
29.95
 21
28.27
 31
0.0
100
AcDbText
 73
         2
  0
TEXT
  5
2DE
100
AcDbEntity
  8
PIN_NUMBERS_BTM
100
AcDbText
 10
26.002068
 20
36.537496
 30
0.0
 40
0.508
  1
2
  7
COURIER_NEW
 72
         1
 11
26.22
 21
36.76
 31
0.0
100
AcDbText
 73
         2
  0
TEXT
  5
2DF
100
AcDbEntity
  8
PIN_NUMBERS_BTM
100
AcDbText
 10
25.202068
 20
36.537496
 30
0.0
 40
0.508
  1
1
  7
COURIER_NEW
 72
         1
 11
25.42
 21
36.76
 31
0.0
100
AcDbText
 73
         2
  0
TEXT
  5
2E0
100
AcDbEntity
  8
PIN_NUMBERS_BTM
100
AcDbText
 10
23.372068
 20
36.537496
 30
0.0
 40
0.508
  1
2
  7
COURIER_NEW
 72
         1
 11
23.59
 21
36.76
 31
0.0
100
AcDbText
 73
         2
  0
TEXT
  5
2E1
100
AcDbEntity
  8
PIN_NUMBERS_BTM
100
AcDbText
 10
24.172068
 20
36.537496
 30
0.0
 40
0.508
  1
1
  7
COURIER_NEW
 72
         1
 11
24.39
 21
36.76
 31
0.0
100
AcDbText
 73
         2
  0
TEXT
  5
2E2
100
AcDbEntity
  8
PIN_NUMBERS_BTM
100
AcDbText
 10
28.982068
 20
36.537496
 30
0.0
 40
0.508
  1
2
  7
COURIER_NEW
 72
         1
 11
29.2
 21
36.76
 31
0.0
100
AcDbText
 73
         2
  0
TEXT
  5
2E3
100
AcDbEntity
  8
PIN_NUMBERS_BTM
100
AcDbText
 10
29.782068
 20
36.537496
 30
0.0
 40
0.508
  1
1
  7
COURIER_NEW
 72
         1
 11
30.0
 21
36.76
 31
0.0
100
AcDbText
 73
         2
  0
TEXT
  5
2E4
100
AcDbEntity
  8
PIN_NUMBERS_BTM
100
AcDbText
 10
21.632068
 20
36.537496
 30
0.0
 40
0.508
  1
2
  7
COURIER_NEW
 72
         1
 11
21.85
 21
36.76
 31
0.0
100
AcDbText
 73
         2
  0
TEXT
  5
2E5
100
AcDbEntity
  8
PIN_NUMBERS_BTM
100
AcDbText
 10
22.432068
 20
36.537496
 30
0.0
 40
0.508
  1
1
  7
COURIER_NEW
 72
         1
 11
22.65
 21
36.76
 31
0.0
100
AcDbText
 73
         2
  0
TEXT
  5
2E6
100
AcDbEntity
  8
PIN_NUMBERS_BTM
100
AcDbText
 10
28.642068
 20
28.047496
 30
0.0
 40
0.508
  1
2
  7
COURIER_NEW
 72
         1
 11
28.86
 21
28.27
 31
0.0
100
AcDbText
 73
         2
  0
TEXT
  5
2E7
100
AcDbEntity
  8
PIN_NUMBERS_BTM
100
AcDbText
 10
27.842068
 20
28.047496
 30
0.0
 40
0.508
  1
1
  7
COURIER_NEW
 72
         1
 11
28.06
 21
28.27
 31
0.0
100
AcDbText
 73
         2
  0
TEXT
  5
2E8
100
AcDbEntity
  8
PIN_NUMBERS_BTM
100
AcDbText
 10
25.532068
 20
28.047496
 30
0.0
 40
0.508
  1
2
  7
COURIER_NEW
 72
         1
 11
25.75
 21
28.27
 31
0.0
100
AcDbText
 73
         2
  0
TEXT
  5
2E9
100
AcDbEntity
  8
PIN_NUMBERS_BTM
100
AcDbText
 10
26.332068
 20
28.047496
 30
0.0
 40
0.508
  1
1
  7
COURIER_NEW
 72
         1
 11
26.55
 21
28.27
 31
0.0
100
AcDbText
 73
         2
  0
TEXT
  5
2EA
100
AcDbEntity
  8
PIN_NUMBERS_BTM
100
AcDbText
 10
22.262068
 20
28.047496
 30
0.0
 40
0.508
  1
2
  7
COURIER_NEW
 72
         1
 11
22.48
 21
28.27
 31
0.0
100
AcDbText
 73
         2
  0
TEXT
  5
2EB
100
AcDbEntity
  8
PIN_NUMBERS_BTM
100
AcDbText
 10
23.062068
 20
28.047496
 30
0.0
 40
0.508
  1
1
  7
COURIER_NEW
 72
         1
 11
23.28
 21
28.27
 31
0.0
100
AcDbText
 73
         2
  0
TEXT
  5
2EC
100
AcDbEntity
  8
PIN_NUMBERS_BTM
100
AcDbText
 10
21.457068
 20
29.647496
 30
0.0
 40
0.508
  1
1
  7
COURIER_NEW
 72
         1
 11
21.675
 21
29.87
 31
0.0
100
AcDbText
 73
         2
  0
TEXT
  5
2ED
100
AcDbEntity
  8
PIN_NUMBERS_BTM
100
AcDbText
 10
22.727068
 20
29.647496
 30
0.0
 40
0.508
  1
2
  7
COURIER_NEW
 72
         1
 11
22.945
 21
29.87
 31
0.0
100
AcDbText
 73
         2
  0
TEXT
  5
2EE
100
AcDbEntity
  8
PIN_NUMBERS_BTM
100
AcDbText
 10
23.997068
 20
29.647496
 30
0.0
 40
0.508
  1
3
  7
COURIER_NEW
 72
         1
 11
24.215
 21
29.87
 31
0.0
100
AcDbText
 73
         2
  0
TEXT
  5
2EF
100
AcDbEntity
  8
PIN_NUMBERS_BTM
100
AcDbText
 10
25.267068
 20
29.647496
 30
0.0
 40
0.508
  1
4
  7
COURIER_NEW
 72
         1
 11
25.485
 21
29.87
 31
0.0
100
AcDbText
 73
         2
  0
TEXT
  5
2F0
100
AcDbEntity
  8
PIN_NUMBERS_BTM
100
AcDbText
 10
26.537068
 20
29.647496
 30
0.0
 40
0.508
  1
5
  7
COURIER_NEW
 72
         1
 11
26.755
 21
29.87
 31
0.0
100
AcDbText
 73
         2
  0
TEXT
  5
2F1
100
AcDbEntity
  8
PIN_NUMBERS_BTM
100
AcDbText
 10
27.807068
 20
29.647496
 30
0.0
 40
0.508
  1
6
  7
COURIER_NEW
 72
         1
 11
28.025
 21
29.87
 31
0.0
100
AcDbText
 73
         2
  0
TEXT
  5
2F2
100
AcDbEntity
  8
PIN_NUMBERS_BTM
100
AcDbText
 10
29.077068
 20
29.647496
 30
0.0
 40
0.508
  1
7
  7
COURIER_NEW
 72
         1
 11
29.295
 21
29.87
 31
0.0
100
AcDbText
 73
         2
  0
TEXT
  5
2F3
100
AcDbEntity
  8
PIN_NUMBERS_BTM
100
AcDbText
 10
30.347068
 20
29.647496
 30
0.0
 40
0.508
  1
8
  7
COURIER_NEW
 72
         1
 11
30.565
 21
29.87
 31
0.0
100
AcDbText
 73
         2
  0
TEXT
  5
2F4
100
AcDbEntity
  8
PIN_NUMBERS_BTM
100
AcDbText
 10
30.347068
 20
35.047496
 30
0.0
 40
0.508
  1
9
  7
COURIER_NEW
 72
         1
 11
30.565
 21
35.27
 31
0.0
100
AcDbText
 73
         2
  0
TEXT
  5
2F5
100
AcDbEntity
  8
PIN_NUMBERS_BTM
100
AcDbText
 10
28.859136
 20
35.047496
 30
0.0
 40
0.508
  1
10
  7
COURIER_NEW
 72
         1
 11
29.295
 21
35.27
 31
0.0
100
AcDbText
 73
         2
  0
TEXT
  5
2F6
100
AcDbEntity
  8
PIN_NUMBERS_BTM
100
AcDbText
 10
27.589136
 20
35.047496
 30
0.0
 40
0.508
  1
11
  7
COURIER_NEW
 72
         1
 11
28.025
 21
35.27
 31
0.0
100
AcDbText
 73
         2
  0
TEXT
  5
2F7
100
AcDbEntity
  8
PIN_NUMBERS_BTM
100
AcDbText
 10
26.319136
 20
35.047496
 30
0.0
 40
0.508
  1
12
  7
COURIER_NEW
 72
         1
 11
26.755
 21
35.27
 31
0.0
100
AcDbText
 73
         2
  0
TEXT
  5
2F8
100
AcDbEntity
  8
PIN_NUMBERS_BTM
100
AcDbText
 10
25.049136
 20
35.047496
 30
0.0
 40
0.508
  1
13
  7
COURIER_NEW
 72
         1
 11
25.485
 21
35.27
 31
0.0
100
AcDbText
 73
         2
  0
TEXT
  5
2F9
100
AcDbEntity
  8
PIN_NUMBERS_BTM
100
AcDbText
 10
23.779136
 20
35.047496
 30
0.0
 40
0.508
  1
14
  7
COURIER_NEW
 72
         1
 11
24.215
 21
35.27
 31
0.0
100
AcDbText
 73
         2
  0
TEXT
  5
2FA
100
AcDbEntity
  8
PIN_NUMBERS_BTM
100
AcDbText
 10
22.509136
 20
35.047496
 30
0.0
 40
0.508
  1
15
  7
COURIER_NEW
 72
         1
 11
22.945
 21
35.27
 31
0.0
100
AcDbText
 73
         2
  0
TEXT
  5
2FB
100
AcDbEntity
  8
PIN_NUMBERS_BTM
100
AcDbText
 10
21.239136
 20
35.047496
 30
0.0
 40
0.508
  1
16
  7
COURIER_NEW
 72
         1
 11
21.675
 21
35.27
 31
0.0
100
AcDbText
 73
         2
  0
TEXT
  5
2FC
100
AcDbEntity
  8
PIN_NUMBERS_BTM
100
AcDbText
 10
6.762068
 20
11.097496
 30
0.0
 40
0.508
  1
1
  7
COURIER_NEW
 72
         1
 11
6.98
 21
11.32
 31
0.0
100
AcDbText
 73
         2
  0
TEXT
  5
2FD
100
AcDbEntity
  8
PIN_NUMBERS_BTM
100
AcDbText
 10
8.762068
 20
11.097496
 30
0.0
 40
0.508
  1
3
  7
COURIER_NEW
 72
         1
 11
8.98
 21
11.32
 31
0.0
100
AcDbText
 73
         2
  0
TEXT
  5
2FE
100
AcDbEntity
  8
PIN_NUMBERS_BTM
100
AcDbText
 10
10.762068
 20
11.097496
 30
0.0
 40
0.508
  1
5
  7
COURIER_NEW
 72
         1
 11
10.98
 21
11.32
 31
0.0
100
AcDbText
 73
         2
  0
TEXT
  5
2FF
100
AcDbEntity
  8
PIN_NUMBERS_BTM
100
AcDbText
 10
12.762068
 20
11.097496
 30
0.0
 40
0.508
  1
7
  7
COURIER_NEW
 72
         1
 11
12.98
 21
11.32
 31
0.0
100
AcDbText
 73
         2
  0
TEXT
  5
300
100
AcDbEntity
  8
PIN_NUMBERS_BTM
100
AcDbText
 10
14.762068
 20
11.097496
 30
0.0
 40
0.508
  1
9
  7
COURIER_NEW
 72
         1
 11
14.98
 21
11.32
 31
0.0
100
AcDbText
 73
         2
  0
TEXT
  5
301
100
AcDbEntity
  8
PIN_NUMBERS_BTM
100
AcDbText
 10
16.544136
 20
11.097496
 30
0.0
 40
0.508
  1
11
  7
COURIER_NEW
 72
         1
 11
16.98
 21
11.32
 31
0.0
100
AcDbText
 73
         2
  0
TEXT
  5
302
100
AcDbEntity
  8
PIN_NUMBERS_BTM
100
AcDbText
 10
18.544136
 20
11.097496
 30
0.0
 40
0.508
  1
13
  7
COURIER_NEW
 72
         1
 11
18.98
 21
11.32
 31
0.0
100
AcDbText
 73
         2
  0
TEXT
  5
303
100
AcDbEntity
  8
PIN_NUMBERS_BTM
100
AcDbText
 10
20.544136
 20
11.097496
 30
0.0
 40
0.508
  1
15
  7
COURIER_NEW
 72
         1
 11
20.98
 21
11.32
 31
0.0
100
AcDbText
 73
         2
  0
TEXT
  5
304
100
AcDbEntity
  8
PIN_NUMBERS_BTM
100
AcDbText
 10
22.544136
 20
11.097496
 30
0.0
 40
0.508
  1
17
  7
COURIER_NEW
 72
         1
 11
22.98
 21
11.32
 31
0.0
100
AcDbText
 73
         2
  0
TEXT
  5
305
100
AcDbEntity
  8
PIN_NUMBERS_BTM
100
AcDbText
 10
24.544136
 20
11.097496
 30
0.0
 40
0.508
  1
19
  7
COURIER_NEW
 72
         1
 11
24.98
 21
11.32
 31
0.0
100
AcDbText
 73
         2
  0
TEXT
  5
306
100
AcDbEntity
  8
PIN_NUMBERS_BTM
100
AcDbText
 10
26.544136
 20
11.097496
 30
0.0
 40
0.508
  1
21
  7
COURIER_NEW
 72
         1
 11
26.98
 21
11.32
 31
0.0
100
AcDbText
 73
         2
  0
TEXT
  5
307
100
AcDbEntity
  8
PIN_NUMBERS_BTM
100
AcDbText
 10
28.544136
 20
11.097496
 30
0.0
 40
0.508
  1
23
  7
COURIER_NEW
 72
         1
 11
28.98
 21
11.32
 31
0.0
100
AcDbText
 73
         2
  0
TEXT
  5
308
100
AcDbEntity
  8
PIN_NUMBERS_BTM
100
AcDbText
 10
30.544136
 20
11.097496
 30
0.0
 40
0.508
  1
25
  7
COURIER_NEW
 72
         1
 11
30.98
 21
11.32
 31
0.0
100
AcDbText
 73
         2
  0
TEXT
  5
309
100
AcDbEntity
  8
PIN_NUMBERS_BTM
100
AcDbText
 10
32.544136
 20
11.097496
 30
0.0
 40
0.508
  1
27
  7
COURIER_NEW
 72
         1
 11
32.98
 21
11.32
 31
0.0
100
AcDbText
 73
         2
  0
TEXT
  5
30A
100
AcDbEntity
  8
PIN_NUMBERS_BTM
100
AcDbText
 10
34.544136
 20
11.097496
 30
0.0
 40
0.508
  1
29
  7
COURIER_NEW
 72
         1
 11
34.98
 21
11.32
 31
0.0
100
AcDbText
 73
         2
  0
TEXT
  5
30B
100
AcDbEntity
  8
PIN_NUMBERS_BTM
100
AcDbText
 10
36.544136
 20
11.097496
 30
0.0
 40
0.508
  1
31
  7
COURIER_NEW
 72
         1
 11
36.98
 21
11.32
 31
0.0
100
AcDbText
 73
         2
  0
TEXT
  5
30C
100
AcDbEntity
  8
PIN_NUMBERS_BTM
100
AcDbText
 10
38.544136
 20
11.097496
 30
0.0
 40
0.508
  1
33
  7
COURIER_NEW
 72
         1
 11
38.98
 21
11.32
 31
0.0
100
AcDbText
 73
         2
  0
TEXT
  5
30D
100
AcDbEntity
  8
PIN_NUMBERS_BTM
100
AcDbText
 10
40.544136
 20
11.097496
 30
0.0
 40
0.508
  1
35
  7
COURIER_NEW
 72
         1
 11
40.98
 21
11.32
 31
0.0
100
AcDbText
 73
         2
  0
TEXT
  5
30E
100
AcDbEntity
  8
PIN_NUMBERS_BTM
100
AcDbText
 10
42.544136
 20
11.097496
 30
0.0
 40
0.508
  1
37
  7
COURIER_NEW
 72
         1
 11
42.98
 21
11.32
 31
0.0
100
AcDbText
 73
         2
  0
TEXT
  5
30F
100
AcDbEntity
  8
PIN_NUMBERS_BTM
100
AcDbText
 10
44.544136
 20
11.097496
 30
0.0
 40
0.508
  1
39
  7
COURIER_NEW
 72
         1
 11
44.98
 21
11.32
 31
0.0
100
AcDbText
 73
         2
  0
TEXT
  5
310
100
AcDbEntity
  8
PIN_NUMBERS_BTM
100
AcDbText
 10
46.544136
 20
11.097496
 30
0.0
 40
0.508
  1
41
  7
COURIER_NEW
 72
         1
 11
46.98
 21
11.32
 31
0.0
100
AcDbText
 73
         2
  0
TEXT
  5
311
100
AcDbEntity
  8
PIN_NUMBERS_BTM
100
AcDbText
 10
48.544136
 20
11.097496
 30
0.0
 40
0.508
  1
43
  7
COURIER_NEW
 72
         1
 11
48.98
 21
11.32
 31
0.0
100
AcDbText
 73
         2
  0
TEXT
  5
312
100
AcDbEntity
  8
PIN_NUMBERS_BTM
100
AcDbText
 10
50.544136
 20
11.097496
 30
0.0
 40
0.508
  1
45
  7
COURIER_NEW
 72
         1
 11
50.98
 21
11.32
 31
0.0
100
AcDbText
 73
         2
  0
TEXT
  5
313
100
AcDbEntity
  8
PIN_NUMBERS_BTM
100
AcDbText
 10
52.544136
 20
11.097496
 30
0.0
 40
0.508
  1
47
  7
COURIER_NEW
 72
         1
 11
52.98
 21
11.32
 31
0.0
100
AcDbText
 73
         2
  0
TEXT
  5
314
100
AcDbEntity
  8
PIN_NUMBERS_BTM
100
AcDbText
 10
54.544136
 20
11.097496
 30
0.0
 40
0.508
  1
49
  7
COURIER_NEW
 72
         1
 11
54.98
 21
11.32
 31
0.0
100
AcDbText
 73
         2
  0
TEXT
  5
315
100
AcDbEntity
  8
PIN_NUMBERS_BTM
100
AcDbText
 10
56.544136
 20
11.097496
 30
0.0
 40
0.508
  1
51
  7
COURIER_NEW
 72
         1
 11
56.98
 21
11.32
 31
0.0
100
AcDbText
 73
         2
  0
TEXT
  5
316
100
AcDbEntity
  8
PIN_NUMBERS_BTM
100
AcDbText
 10
58.544136
 20
11.097496
 30
0.0
 40
0.508
  1
53
  7
COURIER_NEW
 72
         1
 11
58.98
 21
11.32
 31
0.0
100
AcDbText
 73
         2
  0
TEXT
  5
317
100
AcDbEntity
  8
PIN_NUMBERS_BTM
100
AcDbText
 10
60.544136
 20
11.097496
 30
0.0
 40
0.508
  1
55
  7
COURIER_NEW
 72
         1
 11
60.98
 21
11.32
 31
0.0
100
AcDbText
 73
         2
  0
TEXT
  5
318
100
AcDbEntity
  8
PIN_NUMBERS_BTM
100
AcDbText
 10
62.544136
 20
11.097496
 30
0.0
 40
0.508
  1
57
  7
COURIER_NEW
 72
         1
 11
62.98
 21
11.32
 31
0.0
100
AcDbText
 73
         2
  0
TEXT
  5
319
100
AcDbEntity
  8
PIN_NUMBERS_BTM
100
AcDbText
 10
64.544136
 20
11.097496
 30
0.0
 40
0.508
  1
59
  7
COURIER_NEW
 72
         1
 11
64.98
 21
11.32
 31
0.0
100
AcDbText
 73
         2
  0
TEXT
  5
31A
100
AcDbEntity
  8
PIN_NUMBERS_BTM
100
AcDbText
 10
6.762068
 20
9.097496
 30
0.0
 40
0.508
  1
2
  7
COURIER_NEW
 72
         1
 11
6.98
 21
9.32
 31
0.0
100
AcDbText
 73
         2
  0
TEXT
  5
31B
100
AcDbEntity
  8
PIN_NUMBERS_BTM
100
AcDbText
 10
8.762068
 20
9.097496
 30
0.0
 40
0.508
  1
4
  7
COURIER_NEW
 72
         1
 11
8.98
 21
9.32
 31
0.0
100
AcDbText
 73
         2
  0
TEXT
  5
31C
100
AcDbEntity
  8
PIN_NUMBERS_BTM
100
AcDbText
 10
10.762068
 20
9.097496
 30
0.0
 40
0.508
  1
6
  7
COURIER_NEW
 72
         1
 11
10.98
 21
9.32
 31
0.0
100
AcDbText
 73
         2
  0
TEXT
  5
31D
100
AcDbEntity
  8
PIN_NUMBERS_BTM
100
AcDbText
 10
12.762068
 20
9.097496
 30
0.0
 40
0.508
  1
8
  7
COURIER_NEW
 72
         1
 11
12.98
 21
9.32
 31
0.0
100
AcDbText
 73
         2
  0
TEXT
  5
31E
100
AcDbEntity
  8
PIN_NUMBERS_BTM
100
AcDbText
 10
14.544136
 20
9.097496
 30
0.0
 40
0.508
  1
10
  7
COURIER_NEW
 72
         1
 11
14.98
 21
9.32
 31
0.0
100
AcDbText
 73
         2
  0
TEXT
  5
31F
100
AcDbEntity
  8
PIN_NUMBERS_BTM
100
AcDbText
 10
16.544136
 20
9.097496
 30
0.0
 40
0.508
  1
12
  7
COURIER_NEW
 72
         1
 11
16.98
 21
9.32
 31
0.0
100
AcDbText
 73
         2
  0
TEXT
  5
320
100
AcDbEntity
  8
PIN_NUMBERS_BTM
100
AcDbText
 10
18.544136
 20
9.097496
 30
0.0
 40
0.508
  1
14
  7
COURIER_NEW
 72
         1
 11
18.98
 21
9.32
 31
0.0
100
AcDbText
 73
         2
  0
TEXT
  5
321
100
AcDbEntity
  8
PIN_NUMBERS_BTM
100
AcDbText
 10
20.544136
 20
9.097496
 30
0.0
 40
0.508
  1
16
  7
COURIER_NEW
 72
         1
 11
20.98
 21
9.32
 31
0.0
100
AcDbText
 73
         2
  0
TEXT
  5
322
100
AcDbEntity
  8
PIN_NUMBERS_BTM
100
AcDbText
 10
22.544136
 20
9.097496
 30
0.0
 40
0.508
  1
18
  7
COURIER_NEW
 72
         1
 11
22.98
 21
9.32
 31
0.0
100
AcDbText
 73
         2
  0
TEXT
  5
323
100
AcDbEntity
  8
PIN_NUMBERS_BTM
100
AcDbText
 10
24.544136
 20
9.097496
 30
0.0
 40
0.508
  1
20
  7
COURIER_NEW
 72
         1
 11
24.98
 21
9.32
 31
0.0
100
AcDbText
 73
         2
  0
TEXT
  5
324
100
AcDbEntity
  8
PIN_NUMBERS_BTM
100
AcDbText
 10
26.544136
 20
9.097496
 30
0.0
 40
0.508
  1
22
  7
COURIER_NEW
 72
         1
 11
26.98
 21
9.32
 31
0.0
100
AcDbText
 73
         2
  0
TEXT
  5
325
100
AcDbEntity
  8
PIN_NUMBERS_BTM
100
AcDbText
 10
28.544136
 20
9.097496
 30
0.0
 40
0.508
  1
24
  7
COURIER_NEW
 72
         1
 11
28.98
 21
9.32
 31
0.0
100
AcDbText
 73
         2
  0
TEXT
  5
326
100
AcDbEntity
  8
PIN_NUMBERS_BTM
100
AcDbText
 10
30.544136
 20
9.097496
 30
0.0
 40
0.508
  1
26
  7
COURIER_NEW
 72
         1
 11
30.98
 21
9.32
 31
0.0
100
AcDbText
 73
         2
  0
TEXT
  5
327
100
AcDbEntity
  8
PIN_NUMBERS_BTM
100
AcDbText
 10
32.544136
 20
9.097496
 30
0.0
 40
0.508
  1
28
  7
COURIER_NEW
 72
         1
 11
32.98
 21
9.32
 31
0.0
100
AcDbText
 73
         2
  0
TEXT
  5
328
100
AcDbEntity
  8
PIN_NUMBERS_BTM
100
AcDbText
 10
34.544136
 20
9.097496
 30
0.0
 40
0.508
  1
30
  7
COURIER_NEW
 72
         1
 11
34.98
 21
9.32
 31
0.0
100
AcDbText
 73
         2
  0
TEXT
  5
329
100
AcDbEntity
  8
PIN_NUMBERS_BTM
100
AcDbText
 10
36.544136
 20
9.097496
 30
0.0
 40
0.508
  1
32
  7
COURIER_NEW
 72
         1
 11
36.98
 21
9.32
 31
0.0
100
AcDbText
 73
         2
  0
TEXT
  5
32A
100
AcDbEntity
  8
PIN_NUMBERS_BTM
100
AcDbText
 10
38.544136
 20
9.097496
 30
0.0
 40
0.508
  1
34
  7
COURIER_NEW
 72
         1
 11
38.98
 21
9.32
 31
0.0
100
AcDbText
 73
         2
  0
TEXT
  5
32B
100
AcDbEntity
  8
PIN_NUMBERS_BTM
100
AcDbText
 10
40.544136
 20
9.097496
 30
0.0
 40
0.508
  1
36
  7
COURIER_NEW
 72
         1
 11
40.98
 21
9.32
 31
0.0
100
AcDbText
 73
         2
  0
TEXT
  5
32C
100
AcDbEntity
  8
PIN_NUMBERS_BTM
100
AcDbText
 10
42.544136
 20
9.097496
 30
0.0
 40
0.508
  1
38
  7
COURIER_NEW
 72
         1
 11
42.98
 21
9.32
 31
0.0
100
AcDbText
 73
         2
  0
TEXT
  5
32D
100
AcDbEntity
  8
PIN_NUMBERS_BTM
100
AcDbText
 10
44.544136
 20
9.097496
 30
0.0
 40
0.508
  1
40
  7
COURIER_NEW
 72
         1
 11
44.98
 21
9.32
 31
0.0
100
AcDbText
 73
         2
  0
TEXT
  5
32E
100
AcDbEntity
  8
PIN_NUMBERS_BTM
100
AcDbText
 10
46.544136
 20
9.097496
 30
0.0
 40
0.508
  1
42
  7
COURIER_NEW
 72
         1
 11
46.98
 21
9.32
 31
0.0
100
AcDbText
 73
         2
  0
TEXT
  5
32F
100
AcDbEntity
  8
PIN_NUMBERS_BTM
100
AcDbText
 10
48.544136
 20
9.097496
 30
0.0
 40
0.508
  1
44
  7
COURIER_NEW
 72
         1
 11
48.98
 21
9.32
 31
0.0
100
AcDbText
 73
         2
  0
TEXT
  5
330
100
AcDbEntity
  8
PIN_NUMBERS_BTM
100
AcDbText
 10
50.544136
 20
9.097496
 30
0.0
 40
0.508
  1
46
  7
COURIER_NEW
 72
         1
 11
50.98
 21
9.32
 31
0.0
100
AcDbText
 73
         2
  0
TEXT
  5
331
100
AcDbEntity
  8
PIN_NUMBERS_BTM
100
AcDbText
 10
52.544136
 20
9.097496
 30
0.0
 40
0.508
  1
48
  7
COURIER_NEW
 72
         1
 11
52.98
 21
9.32
 31
0.0
100
AcDbText
 73
         2
  0
TEXT
  5
332
100
AcDbEntity
  8
PIN_NUMBERS_BTM
100
AcDbText
 10
54.544136
 20
9.097496
 30
0.0
 40
0.508
  1
50
  7
COURIER_NEW
 72
         1
 11
54.98
 21
9.32
 31
0.0
100
AcDbText
 73
         2
  0
TEXT
  5
333
100
AcDbEntity
  8
PIN_NUMBERS_BTM
100
AcDbText
 10
56.544136
 20
9.097496
 30
0.0
 40
0.508
  1
52
  7
COURIER_NEW
 72
         1
 11
56.98
 21
9.32
 31
0.0
100
AcDbText
 73
         2
  0
TEXT
  5
334
100
AcDbEntity
  8
PIN_NUMBERS_BTM
100
AcDbText
 10
58.544136
 20
9.097496
 30
0.0
 40
0.508
  1
54
  7
COURIER_NEW
 72
         1
 11
58.98
 21
9.32
 31
0.0
100
AcDbText
 73
         2
  0
TEXT
  5
335
100
AcDbEntity
  8
PIN_NUMBERS_BTM
100
AcDbText
 10
60.544136
 20
9.097496
 30
0.0
 40
0.508
  1
56
  7
COURIER_NEW
 72
         1
 11
60.98
 21
9.32
 31
0.0
100
AcDbText
 73
         2
  0
TEXT
  5
336
100
AcDbEntity
  8
PIN_NUMBERS_BTM
100
AcDbText
 10
62.544136
 20
9.097496
 30
0.0
 40
0.508
  1
58
  7
COURIER_NEW
 72
         1
 11
62.98
 21
9.32
 31
0.0
100
AcDbText
 73
         2
  0
TEXT
  5
337
100
AcDbEntity
  8
PIN_NUMBERS_BTM
100
AcDbText
 10
64.544136
 20
9.097496
 30
0.0
 40
0.508
  1
60
  7
COURIER_NEW
 72
         1
 11
64.98
 21
9.32
 31
0.0
100
AcDbText
 73
         2
  0
TEXT
  5
338
100
AcDbEntity
  8
PIN_NUMBERS_BTM
100
AcDbText
 10
68.862068
 20
2.837496
 30
0.0
 40
0.508
  1
1
  7
COURIER_NEW
 72
         1
 11
69.08
 21
3.06
 31
0.0
100
AcDbText
 73
         2
  0
TEXT
  5
339
100
AcDbEntity
  8
PIN_NUMBERS_BTM
100
AcDbText
 10
6.762068
 20
3.937496
 30
0.0
 40
0.508
  1
1
  7
COURIER_NEW
 72
         1
 11
6.98
 21
4.16
 31
0.0
100
AcDbText
 73
         2
  0
TEXT
  5
33A
100
AcDbEntity
  8
PIN_NUMBERS_BTM
100
AcDbText
 10
6.762068
 20
1.937496
 30
0.0
 40
0.508
  1
2
  7
COURIER_NEW
 72
         1
 11
6.98
 21
2.16
 31
0.0
100
AcDbText
 73
         2
  0
TEXT
  5
33B
100
AcDbEntity
  8
PIN_NUMBERS_BTM
100
AcDbText
 10
8.762068
 20
3.937496
 30
0.0
 40
0.508
  1
3
  7
COURIER_NEW
 72
         1
 11
8.98
 21
4.16
 31
0.0
100
AcDbText
 73
         2
  0
TEXT
  5
33C
100
AcDbEntity
  8
PIN_NUMBERS_BTM
100
AcDbText
 10
8.762068
 20
1.937496
 30
0.0
 40
0.508
  1
4
  7
COURIER_NEW
 72
         1
 11
8.98
 21
2.16
 31
0.0
100
AcDbText
 73
         2
  0
TEXT
  5
33D
100
AcDbEntity
  8
PIN_NUMBERS_BTM
100
AcDbText
 10
10.762068
 20
3.937496
 30
0.0
 40
0.508
  1
5
  7
COURIER_NEW
 72
         1
 11
10.98
 21
4.16
 31
0.0
100
AcDbText
 73
         2
  0
TEXT
  5
33E
100
AcDbEntity
  8
PIN_NUMBERS_BTM
100
AcDbText
 10
10.762068
 20
1.937496
 30
0.0
 40
0.508
  1
6
  7
COURIER_NEW
 72
         1
 11
10.98
 21
2.16
 31
0.0
100
AcDbText
 73
         2
  0
TEXT
  5
33F
100
AcDbEntity
  8
PIN_NUMBERS_BTM
100
AcDbText
 10
12.762068
 20
3.937496
 30
0.0
 40
0.508
  1
7
  7
COURIER_NEW
 72
         1
 11
12.98
 21
4.16
 31
0.0
100
AcDbText
 73
         2
  0
TEXT
  5
340
100
AcDbEntity
  8
PIN_NUMBERS_BTM
100
AcDbText
 10
12.762068
 20
1.937496
 30
0.0
 40
0.508
  1
8
  7
COURIER_NEW
 72
         1
 11
12.98
 21
2.16
 31
0.0
100
AcDbText
 73
         2
  0
TEXT
  5
341
100
AcDbEntity
  8
PIN_NUMBERS_BTM
100
AcDbText
 10
14.762068
 20
3.937496
 30
0.0
 40
0.508
  1
9
  7
COURIER_NEW
 72
         1
 11
14.98
 21
4.16
 31
0.0
100
AcDbText
 73
         2
  0
TEXT
  5
342
100
AcDbEntity
  8
PIN_NUMBERS_BTM
100
AcDbText
 10
14.544136
 20
1.937496
 30
0.0
 40
0.508
  1
10
  7
COURIER_NEW
 72
         1
 11
14.98
 21
2.16
 31
0.0
100
AcDbText
 73
         2
  0
TEXT
  5
343
100
AcDbEntity
  8
PIN_NUMBERS_BTM
100
AcDbText
 10
16.544136
 20
3.937496
 30
0.0
 40
0.508
  1
11
  7
COURIER_NEW
 72
         1
 11
16.98
 21
4.16
 31
0.0
100
AcDbText
 73
         2
  0
TEXT
  5
344
100
AcDbEntity
  8
PIN_NUMBERS_BTM
100
AcDbText
 10
16.544136
 20
1.937496
 30
0.0
 40
0.508
  1
12
  7
COURIER_NEW
 72
         1
 11
16.98
 21
2.16
 31
0.0
100
AcDbText
 73
         2
  0
TEXT
  5
345
100
AcDbEntity
  8
PIN_NUMBERS_BTM
100
AcDbText
 10
18.544136
 20
3.937496
 30
0.0
 40
0.508
  1
13
  7
COURIER_NEW
 72
         1
 11
18.98
 21
4.16
 31
0.0
100
AcDbText
 73
         2
  0
TEXT
  5
346
100
AcDbEntity
  8
PIN_NUMBERS_BTM
100
AcDbText
 10
18.544136
 20
1.937496
 30
0.0
 40
0.508
  1
14
  7
COURIER_NEW
 72
         1
 11
18.98
 21
2.16
 31
0.0
100
AcDbText
 73
         2
  0
TEXT
  5
347
100
AcDbEntity
  8
PIN_NUMBERS_BTM
100
AcDbText
 10
20.544136
 20
3.937496
 30
0.0
 40
0.508
  1
15
  7
COURIER_NEW
 72
         1
 11
20.98
 21
4.16
 31
0.0
100
AcDbText
 73
         2
  0
TEXT
  5
348
100
AcDbEntity
  8
PIN_NUMBERS_BTM
100
AcDbText
 10
20.544136
 20
1.937496
 30
0.0
 40
0.508
  1
16
  7
COURIER_NEW
 72
         1
 11
20.98
 21
2.16
 31
0.0
100
AcDbText
 73
         2
  0
TEXT
  5
349
100
AcDbEntity
  8
PIN_NUMBERS_BTM
100
AcDbText
 10
22.544136
 20
3.937496
 30
0.0
 40
0.508
  1
17
  7
COURIER_NEW
 72
         1
 11
22.98
 21
4.16
 31
0.0
100
AcDbText
 73
         2
  0
TEXT
  5
34A
100
AcDbEntity
  8
PIN_NUMBERS_BTM
100
AcDbText
 10
22.544136
 20
1.937496
 30
0.0
 40
0.508
  1
18
  7
COURIER_NEW
 72
         1
 11
22.98
 21
2.16
 31
0.0
100
AcDbText
 73
         2
  0
TEXT
  5
34B
100
AcDbEntity
  8
PIN_NUMBERS_BTM
100
AcDbText
 10
24.544136
 20
3.937496
 30
0.0
 40
0.508
  1
19
  7
COURIER_NEW
 72
         1
 11
24.98
 21
4.16
 31
0.0
100
AcDbText
 73
         2
  0
TEXT
  5
34C
100
AcDbEntity
  8
PIN_NUMBERS_BTM
100
AcDbText
 10
24.544136
 20
1.937496
 30
0.0
 40
0.508
  1
20
  7
COURIER_NEW
 72
         1
 11
24.98
 21
2.16
 31
0.0
100
AcDbText
 73
         2
  0
TEXT
  5
34D
100
AcDbEntity
  8
PIN_NUMBERS_BTM
100
AcDbText
 10
26.544136
 20
3.937496
 30
0.0
 40
0.508
  1
21
  7
COURIER_NEW
 72
         1
 11
26.98
 21
4.16
 31
0.0
100
AcDbText
 73
         2
  0
TEXT
  5
34E
100
AcDbEntity
  8
PIN_NUMBERS_BTM
100
AcDbText
 10
26.544136
 20
1.937496
 30
0.0
 40
0.508
  1
22
  7
COURIER_NEW
 72
         1
 11
26.98
 21
2.16
 31
0.0
100
AcDbText
 73
         2
  0
TEXT
  5
34F
100
AcDbEntity
  8
PIN_NUMBERS_BTM
100
AcDbText
 10
28.544136
 20
3.937496
 30
0.0
 40
0.508
  1
23
  7
COURIER_NEW
 72
         1
 11
28.98
 21
4.16
 31
0.0
100
AcDbText
 73
         2
  0
TEXT
  5
350
100
AcDbEntity
  8
PIN_NUMBERS_BTM
100
AcDbText
 10
28.544136
 20
1.937496
 30
0.0
 40
0.508
  1
24
  7
COURIER_NEW
 72
         1
 11
28.98
 21
2.16
 31
0.0
100
AcDbText
 73
         2
  0
TEXT
  5
351
100
AcDbEntity
  8
PIN_NUMBERS_BTM
100
AcDbText
 10
30.544136
 20
3.937496
 30
0.0
 40
0.508
  1
25
  7
COURIER_NEW
 72
         1
 11
30.98
 21
4.16
 31
0.0
100
AcDbText
 73
         2
  0
TEXT
  5
352
100
AcDbEntity
  8
PIN_NUMBERS_BTM
100
AcDbText
 10
30.544136
 20
1.937496
 30
0.0
 40
0.508
  1
26
  7
COURIER_NEW
 72
         1
 11
30.98
 21
2.16
 31
0.0
100
AcDbText
 73
         2
  0
TEXT
  5
353
100
AcDbEntity
  8
PIN_NUMBERS_BTM
100
AcDbText
 10
32.544136
 20
3.937496
 30
0.0
 40
0.508
  1
27
  7
COURIER_NEW
 72
         1
 11
32.98
 21
4.16
 31
0.0
100
AcDbText
 73
         2
  0
TEXT
  5
354
100
AcDbEntity
  8
PIN_NUMBERS_BTM
100
AcDbText
 10
32.544136
 20
1.937496
 30
0.0
 40
0.508
  1
28
  7
COURIER_NEW
 72
         1
 11
32.98
 21
2.16
 31
0.0
100
AcDbText
 73
         2
  0
TEXT
  5
355
100
AcDbEntity
  8
PIN_NUMBERS_BTM
100
AcDbText
 10
34.544136
 20
3.937496
 30
0.0
 40
0.508
  1
29
  7
COURIER_NEW
 72
         1
 11
34.98
 21
4.16
 31
0.0
100
AcDbText
 73
         2
  0
TEXT
  5
356
100
AcDbEntity
  8
PIN_NUMBERS_BTM
100
AcDbText
 10
34.544136
 20
1.937496
 30
0.0
 40
0.508
  1
30
  7
COURIER_NEW
 72
         1
 11
34.98
 21
2.16
 31
0.0
100
AcDbText
 73
         2
  0
TEXT
  5
357
100
AcDbEntity
  8
PIN_NUMBERS_BTM
100
AcDbText
 10
36.544136
 20
3.937496
 30
0.0
 40
0.508
  1
31
  7
COURIER_NEW
 72
         1
 11
36.98
 21
4.16
 31
0.0
100
AcDbText
 73
         2
  0
TEXT
  5
358
100
AcDbEntity
  8
PIN_NUMBERS_BTM
100
AcDbText
 10
36.544136
 20
1.937496
 30
0.0
 40
0.508
  1
32
  7
COURIER_NEW
 72
         1
 11
36.98
 21
2.16
 31
0.0
100
AcDbText
 73
         2
  0
TEXT
  5
359
100
AcDbEntity
  8
PIN_NUMBERS_BTM
100
AcDbText
 10
38.544136
 20
3.937496
 30
0.0
 40
0.508
  1
33
  7
COURIER_NEW
 72
         1
 11
38.98
 21
4.16
 31
0.0
100
AcDbText
 73
         2
  0
TEXT
  5
35A
100
AcDbEntity
  8
PIN_NUMBERS_BTM
100
AcDbText
 10
38.544136
 20
1.937496
 30
0.0
 40
0.508
  1
34
  7
COURIER_NEW
 72
         1
 11
38.98
 21
2.16
 31
0.0
100
AcDbText
 73
         2
  0
TEXT
  5
35B
100
AcDbEntity
  8
PIN_NUMBERS_BTM
100
AcDbText
 10
40.544136
 20
3.937496
 30
0.0
 40
0.508
  1
35
  7
COURIER_NEW
 72
         1
 11
40.98
 21
4.16
 31
0.0
100
AcDbText
 73
         2
  0
TEXT
  5
35C
100
AcDbEntity
  8
PIN_NUMBERS_BTM
100
AcDbText
 10
40.544136
 20
1.937496
 30
0.0
 40
0.508
  1
36
  7
COURIER_NEW
 72
         1
 11
40.98
 21
2.16
 31
0.0
100
AcDbText
 73
         2
  0
TEXT
  5
35D
100
AcDbEntity
  8
PIN_NUMBERS_BTM
100
AcDbText
 10
42.544136
 20
3.937496
 30
0.0
 40
0.508
  1
37
  7
COURIER_NEW
 72
         1
 11
42.98
 21
4.16
 31
0.0
100
AcDbText
 73
         2
  0
TEXT
  5
35E
100
AcDbEntity
  8
PIN_NUMBERS_BTM
100
AcDbText
 10
42.544136
 20
1.937496
 30
0.0
 40
0.508
  1
38
  7
COURIER_NEW
 72
         1
 11
42.98
 21
2.16
 31
0.0
100
AcDbText
 73
         2
  0
TEXT
  5
35F
100
AcDbEntity
  8
PIN_NUMBERS_BTM
100
AcDbText
 10
44.544136
 20
3.937496
 30
0.0
 40
0.508
  1
39
  7
COURIER_NEW
 72
         1
 11
44.98
 21
4.16
 31
0.0
100
AcDbText
 73
         2
  0
TEXT
  5
360
100
AcDbEntity
  8
PIN_NUMBERS_BTM
100
AcDbText
 10
44.544136
 20
1.937496
 30
0.0
 40
0.508
  1
40
  7
COURIER_NEW
 72
         1
 11
44.98
 21
2.16
 31
0.0
100
AcDbText
 73
         2
  0
TEXT
  5
361
100
AcDbEntity
  8
PIN_NUMBERS_BTM
100
AcDbText
 10
46.544136
 20
3.937496
 30
0.0
 40
0.508
  1
41
  7
COURIER_NEW
 72
         1
 11
46.98
 21
4.16
 31
0.0
100
AcDbText
 73
         2
  0
TEXT
  5
362
100
AcDbEntity
  8
PIN_NUMBERS_BTM
100
AcDbText
 10
46.544136
 20
1.937496
 30
0.0
 40
0.508
  1
42
  7
COURIER_NEW
 72
         1
 11
46.98
 21
2.16
 31
0.0
100
AcDbText
 73
         2
  0
TEXT
  5
363
100
AcDbEntity
  8
PIN_NUMBERS_BTM
100
AcDbText
 10
48.544136
 20
3.937496
 30
0.0
 40
0.508
  1
43
  7
COURIER_NEW
 72
         1
 11
48.98
 21
4.16
 31
0.0
100
AcDbText
 73
         2
  0
TEXT
  5
364
100
AcDbEntity
  8
PIN_NUMBERS_BTM
100
AcDbText
 10
48.544136
 20
1.937496
 30
0.0
 40
0.508
  1
44
  7
COURIER_NEW
 72
         1
 11
48.98
 21
2.16
 31
0.0
100
AcDbText
 73
         2
  0
TEXT
  5
365
100
AcDbEntity
  8
PIN_NUMBERS_BTM
100
AcDbText
 10
50.544136
 20
3.937496
 30
0.0
 40
0.508
  1
45
  7
COURIER_NEW
 72
         1
 11
50.98
 21
4.16
 31
0.0
100
AcDbText
 73
         2
  0
TEXT
  5
366
100
AcDbEntity
  8
PIN_NUMBERS_BTM
100
AcDbText
 10
50.544136
 20
1.937496
 30
0.0
 40
0.508
  1
46
  7
COURIER_NEW
 72
         1
 11
50.98
 21
2.16
 31
0.0
100
AcDbText
 73
         2
  0
TEXT
  5
367
100
AcDbEntity
  8
PIN_NUMBERS_BTM
100
AcDbText
 10
52.544136
 20
3.937496
 30
0.0
 40
0.508
  1
47
  7
COURIER_NEW
 72
         1
 11
52.98
 21
4.16
 31
0.0
100
AcDbText
 73
         2
  0
TEXT
  5
368
100
AcDbEntity
  8
PIN_NUMBERS_BTM
100
AcDbText
 10
52.544136
 20
1.937496
 30
0.0
 40
0.508
  1
48
  7
COURIER_NEW
 72
         1
 11
52.98
 21
2.16
 31
0.0
100
AcDbText
 73
         2
  0
TEXT
  5
369
100
AcDbEntity
  8
PIN_NUMBERS_BTM
100
AcDbText
 10
54.544136
 20
3.937496
 30
0.0
 40
0.508
  1
49
  7
COURIER_NEW
 72
         1
 11
54.98
 21
4.16
 31
0.0
100
AcDbText
 73
         2
  0
TEXT
  5
36A
100
AcDbEntity
  8
PIN_NUMBERS_BTM
100
AcDbText
 10
54.544136
 20
1.937496
 30
0.0
 40
0.508
  1
50
  7
COURIER_NEW
 72
         1
 11
54.98
 21
2.16
 31
0.0
100
AcDbText
 73
         2
  0
TEXT
  5
36B
100
AcDbEntity
  8
PIN_NUMBERS_BTM
100
AcDbText
 10
56.544136
 20
3.937496
 30
0.0
 40
0.508
  1
51
  7
COURIER_NEW
 72
         1
 11
56.98
 21
4.16
 31
0.0
100
AcDbText
 73
         2
  0
TEXT
  5
36C
100
AcDbEntity
  8
PIN_NUMBERS_BTM
100
AcDbText
 10
56.544136
 20
1.937496
 30
0.0
 40
0.508
  1
52
  7
COURIER_NEW
 72
         1
 11
56.98
 21
2.16
 31
0.0
100
AcDbText
 73
         2
  0
TEXT
  5
36D
100
AcDbEntity
  8
PIN_NUMBERS_BTM
100
AcDbText
 10
58.544136
 20
3.937496
 30
0.0
 40
0.508
  1
53
  7
COURIER_NEW
 72
         1
 11
58.98
 21
4.16
 31
0.0
100
AcDbText
 73
         2
  0
TEXT
  5
36E
100
AcDbEntity
  8
PIN_NUMBERS_BTM
100
AcDbText
 10
58.544136
 20
1.937496
 30
0.0
 40
0.508
  1
54
  7
COURIER_NEW
 72
         1
 11
58.98
 21
2.16
 31
0.0
100
AcDbText
 73
         2
  0
TEXT
  5
36F
100
AcDbEntity
  8
PIN_NUMBERS_BTM
100
AcDbText
 10
60.544136
 20
3.937496
 30
0.0
 40
0.508
  1
55
  7
COURIER_NEW
 72
         1
 11
60.98
 21
4.16
 31
0.0
100
AcDbText
 73
         2
  0
TEXT
  5
370
100
AcDbEntity
  8
PIN_NUMBERS_BTM
100
AcDbText
 10
60.544136
 20
1.937496
 30
0.0
 40
0.508
  1
56
  7
COURIER_NEW
 72
         1
 11
60.98
 21
2.16
 31
0.0
100
AcDbText
 73
         2
  0
TEXT
  5
371
100
AcDbEntity
  8
PIN_NUMBERS_BTM
100
AcDbText
 10
62.544136
 20
3.937496
 30
0.0
 40
0.508
  1
57
  7
COURIER_NEW
 72
         1
 11
62.98
 21
4.16
 31
0.0
100
AcDbText
 73
         2
  0
TEXT
  5
372
100
AcDbEntity
  8
PIN_NUMBERS_BTM
100
AcDbText
 10
62.544136
 20
1.937496
 30
0.0
 40
0.508
  1
58
  7
COURIER_NEW
 72
         1
 11
62.98
 21
2.16
 31
0.0
100
AcDbText
 73
         2
  0
TEXT
  5
373
100
AcDbEntity
  8
PIN_NUMBERS_BTM
100
AcDbText
 10
64.544136
 20
3.937496
 30
0.0
 40
0.508
  1
59
  7
COURIER_NEW
 72
         1
 11
64.98
 21
4.16
 31
0.0
100
AcDbText
 73
         2
  0
TEXT
  5
374
100
AcDbEntity
  8
PIN_NUMBERS_BTM
100
AcDbText
 10
64.544136
 20
1.937496
 30
0.0
 40
0.508
  1
60
  7
COURIER_NEW
 72
         1
 11
64.98
 21
2.16
 31
0.0
100
AcDbText
 73
         2
  0
TEXT
  5
375
100
AcDbEntity
  8
PIN_NUMBERS_TOP
100
AcDbText
 10
1.882068
 20
2.877496
 30
0.0
 40
0.508
  1
1
  7
COURIER_NEW
 72
         1
 11
2.1
 21
3.1
 31
0.0
100
AcDbText
 73
         2
  0
TEXT
  5
376
100
AcDbEntity
  8
PIN_NUMBERS_TOP
100
AcDbText
 10
1.852068
 20
53.367496
 30
0.0
 40
0.508
  1
1
  7
COURIER_NEW
 72
         1
 11
2.07
 21
53.59
 31
0.0
100
AcDbText
 73
         2
  0
TEXT
  5
377
100
AcDbEntity
  8
PIN_NUMBERS_TOP
100
AcDbText
 10
4.852068
 20
17.847496
 30
0.0
 40
0.508
  1
2
  7
COURIER_NEW
 72
         1
 11
5.07
 21
18.07
 31
0.0
100
AcDbText
 73
         2
  0
TEXT
  5
378
100
AcDbEntity
  8
PIN_NUMBERS_TOP
100
AcDbText
 10
4.052068
 20
17.847496
 30
0.0
 40
0.508
  1
1
  7
COURIER_NEW
 72
         1
 11
4.27
 21
18.07
 31
0.0
100
AcDbText
 73
         2
  0
TEXT
  5
379
100
AcDbEntity
  8
PIN_NUMBERS_TOP
100
AcDbText
 10
50.052068
 20
54.557496
 30
0.0
 40
0.508
  1
2
  7
COURIER_NEW
 72
         1
 11
50.27
 21
54.78
 31
0.0
100
AcDbText
 73
         2
  0
TEXT
  5
37A
100
AcDbEntity
  8
PIN_NUMBERS_TOP
100
AcDbText
 10
50.052068
 20
53.757496
 30
0.0
 40
0.508
  1
1
  7
COURIER_NEW
 72
         1
 11
50.27
 21
53.98
 31
0.0
100
AcDbText
 73
         2
  0
TEXT
  5
37B
100
AcDbEntity
  8
PIN_NUMBERS_TOP
100
AcDbText
 10
57.622068
 20
54.117496
 30
0.0
 40
0.508
  1
1
  7
COURIER_NEW
 72
         1
 11
57.84
 21
54.34
 31
0.0
100
AcDbText
 73
         2
  0
TEXT
  5
37C
100
AcDbEntity
  8
PIN_NUMBERS_TOP
100
AcDbText
 10
51.622068
 20
54.117496
 30
0.0
 40
0.508
  1
2
  7
COURIER_NEW
 72
         1
 11
51.84
 21
54.34
 31
0.0
100
AcDbText
 73
         2
  0
TEXT
  5
37D
100
AcDbEntity
  8
PIN_NUMBERS_TOP
100
AcDbText
 10
50.052068
 20
49.007496
 30
0.0
 40
0.508
  1
2
  7
COURIER_NEW
 72
         1
 11
50.27
 21
49.23
 31
0.0
100
AcDbText
 73
         2
  0
TEXT
  5
37E
100
AcDbEntity
  8
PIN_NUMBERS_TOP
100
AcDbText
 10
50.052068
 20
48.207496
 30
0.0
 40
0.508
  1
1
  7
COURIER_NEW
 72
         1
 11
50.27
 21
48.43
 31
0.0
100
AcDbText
 73
         2
  0
TEXT
  5
37F
100
AcDbEntity
  8
PIN_NUMBERS_TOP
100
AcDbText
 10
57.622068
 20
48.577496
 30
0.0
 40
0.508
  1
1
  7
COURIER_NEW
 72
         1
 11
57.84
 21
48.8
 31
0.0
100
AcDbText
 73
         2
  0
TEXT
  5
380
100
AcDbEntity
  8
PIN_NUMBERS_TOP
100
AcDbText
 10
51.622068
 20
48.577496
 30
0.0
 40
0.508
  1
2
  7
COURIER_NEW
 72
         1
 11
51.84
 21
48.8
 31
0.0
100
AcDbText
 73
         2
  0
TEXT
  5
381
100
AcDbEntity
  8
PIN_NUMBERS_TOP
100
AcDbText
 10
13.982068
 20
41.817496
 30
0.0
 40
0.508
  1
2
  7
COURIER_NEW
 72
         1
 11
14.2
 21
42.04
 31
0.0
100
AcDbText
 73
         2
  0
TEXT
  5
382
100
AcDbEntity
  8
PIN_NUMBERS_TOP
100
AcDbText
 10
13.182068
 20
41.817496
 30
0.0
 40
0.508
  1
1
  7
COURIER_NEW
 72
         1
 11
13.4
 21
42.04
 31
0.0
100
AcDbText
 73
         2
  0
TEXT
  5
383
100
AcDbEntity
  8
PIN_NUMBERS_TOP
100
AcDbText
 10
27.542068
 20
61.877496
 30
0.0
 40
0.508
  1
1
  7
COURIER_NEW
 72
         1
 11
27.76
 21
62.1
 31
0.0
100
AcDbText
 73
         2
  0
TEXT
  5
384
100
AcDbEntity
  8
PIN_NUMBERS_TOP
100
AcDbText
 10
30.312068
 20
61.877496
 30
0.0
 40
0.508
  1
2
  7
COURIER_NEW
 72
         1
 11
30.53
 21
62.1
 31
0.0
100
AcDbText
 73
         2
  0
TEXT
  5
385
100
AcDbEntity
  8
PIN_NUMBERS_TOP
100
AcDbText
 10
33.082068
 20
61.877496
 30
0.0
 40
0.508
  1
3
  7
COURIER_NEW
 72
         1
 11
33.3
 21
62.1
 31
0.0
100
AcDbText
 73
         2
  0
TEXT
  5
386
100
AcDbEntity
  8
PIN_NUMBERS_TOP
100
AcDbText
 10
35.852068
 20
61.877496
 30
0.0
 40
0.508
  1
4
  7
COURIER_NEW
 72
         1
 11
36.07
 21
62.1
 31
0.0
100
AcDbText
 73
         2
  0
TEXT
  5
387
100
AcDbEntity
  8
PIN_NUMBERS_TOP
100
AcDbText
 10
38.622068
 20
61.877496
 30
0.0
 40
0.508
  1
5
  7
COURIER_NEW
 72
         1
 11
38.84
 21
62.1
 31
0.0
100
AcDbText
 73
         2
  0
TEXT
  5
388
100
AcDbEntity
  8
PIN_NUMBERS_TOP
100
AcDbText
 10
28.927068
 20
64.717496
 30
0.0
 40
0.508
  1
6
  7
COURIER_NEW
 72
         1
 11
29.145
 21
64.94
 31
0.0
100
AcDbText
 73
         2
  0
TEXT
  5
389
100
AcDbEntity
  8
PIN_NUMBERS_TOP
100
AcDbText
 10
31.697068
 20
64.717496
 30
0.0
 40
0.508
  1
7
  7
COURIER_NEW
 72
         1
 11
31.915
 21
64.94
 31
0.0
100
AcDbText
 73
         2
  0
TEXT
  5
38A
100
AcDbEntity
  8
PIN_NUMBERS_TOP
100
AcDbText
 10
34.467068
 20
64.717496
 30
0.0
 40
0.508
  1
8
  7
COURIER_NEW
 72
         1
 11
34.685
 21
64.94
 31
0.0
100
AcDbText
 73
         2
  0
TEXT
  5
38B
100
AcDbEntity
  8
PIN_NUMBERS_TOP
100
AcDbText
 10
37.237068
 20
64.717496
 30
0.0
 40
0.508
  1
9
  7
COURIER_NEW
 72
         1
 11
37.455
 21
64.94
 31
0.0
100
AcDbText
 73
         2
  0
TEXT
  5
38C
100
AcDbEntity
  8
PIN_NUMBERS_TOP
100
AcDbText
 10
20.374136
 20
63.417496
 30
0.0
 40
0.508
  1
10
  7
COURIER_NEW
 72
         1
 11
20.81
 21
63.64
 31
0.0
100
AcDbText
 73
         2
  0
TEXT
  5
38D
100
AcDbEntity
  8
PIN_NUMBERS_TOP
100
AcDbText
 10
45.354136
 20
63.417496
 30
0.0
 40
0.508
  1
11
  7
COURIER_NEW
 72
         1
 11
45.79
 21
63.64
 31
0.0
100
AcDbText
 73
         2
  0
TEXT
  5
38E
100
AcDbEntity
  8
PIN_NUMBERS_TOP
100
AcDbText
 10
25.692068
 20
39.562496
 30
0.0
 40
0.508
  1
1
  7
COURIER_NEW
 72
         1
 11
25.91
 21
39.785
 31
0.0
100
AcDbText
 73
         2
  0
TEXT
  5
38F
100
AcDbEntity
  8
PIN_NUMBERS_TOP
100
AcDbText
 10
25.692068
 20
41.112496
 30
0.0
 40
0.508
  1
2
  7
COURIER_NEW
 72
         1
 11
25.91
 21
41.335
 31
0.0
100
AcDbText
 73
         2
  0
TEXT
  5
390
100
AcDbEntity
  8
PIN_NUMBERS_TOP
100
AcDbText
 10
23.892068
 20
39.562496
 30
0.0
 40
0.508
  1
1
  7
COURIER_NEW
 72
         1
 11
24.11
 21
39.785
 31
0.0
100
AcDbText
 73
         2
  0
TEXT
  5
391
100
AcDbEntity
  8
PIN_NUMBERS_TOP
100
AcDbText
 10
23.892068
 20
41.112496
 30
0.0
 40
0.508
  1
2
  7
COURIER_NEW
 72
         1
 11
24.11
 21
41.335
 31
0.0
100
AcDbText
 73
         2
  0
TEXT
  5
392
100
AcDbEntity
  8
PIN_NUMBERS_TOP
100
AcDbText
 10
22.327068
 20
42.647496
 30
0.0
 40
0.508
  1
1
  7
COURIER_NEW
 72
         1
 11
22.545
 21
42.87
 31
0.0
100
AcDbText
 73
         2
  0
TEXT
  5
393
100
AcDbEntity
  8
PIN_NUMBERS_TOP
100
AcDbText
 10
23.877068
 20
42.647496
 30
0.0
 40
0.508
  1
2
  7
COURIER_NEW
 72
         1
 11
24.095
 21
42.87
 31
0.0
100
AcDbText
 73
         2
  0
TEXT
  5
394
100
AcDbEntity
  8
PIN_NUMBERS_TOP
100
AcDbText
 10
27.217068
 20
42.647496
 30
0.0
 40
0.508
  1
1
  7
COURIER_NEW
 72
         1
 11
27.435
 21
42.87
 31
0.0
100
AcDbText
 73
         2
  0
TEXT
  5
395
100
AcDbEntity
  8
PIN_NUMBERS_TOP
100
AcDbText
 10
25.667068
 20
42.647496
 30
0.0
 40
0.508
  1
2
  7
COURIER_NEW
 72
         1
 11
25.885
 21
42.87
 31
0.0
100
AcDbText
 73
         2
  0
TEXT
  5
396
100
AcDbEntity
  8
PIN_NUMBERS_TOP
100
AcDbText
 10
20.832068
 20
25.777496
 30
0.0
 40
0.508
  1
1
  7
COURIER_NEW
 72
         1
 11
21.05
 21
26.0
 31
0.0
100
AcDbText
 73
         2
  0
TEXT
  5
397
100
AcDbEntity
  8
PIN_NUMBERS_TOP
100
AcDbText
 10
19.282068
 20
25.777496
 30
0.0
 40
0.508
  1
2
  7
COURIER_NEW
 72
         1
 11
19.5
 21
26.0
 31
0.0
100
AcDbText
 73
         2
  0
TEXT
  5
398
100
AcDbEntity
  8
PIN_NUMBERS_TOP
100
AcDbText
 10
17.732068
 20
25.777496
 30
0.0
 40
0.508
  1
3
  7
COURIER_NEW
 72
         1
 11
17.95
 21
26.0
 31
0.0
100
AcDbText
 73
         2
  0
TEXT
  5
399
100
AcDbEntity
  8
PIN_NUMBERS_TOP
100
AcDbText
 10
19.822068
 20
31.717496
 30
0.0
 40
0.508
  1
2
  7
COURIER_NEW
 72
         1
 11
20.04
 21
31.94
 31
0.0
100
AcDbText
 73
         2
  0
TEXT
  5
39A
100
AcDbEntity
  8
PIN_NUMBERS_TOP
100
AcDbText
 10
19.822068
 20
30.917496
 30
0.0
 40
0.508
  1
1
  7
COURIER_NEW
 72
         1
 11
20.04
 21
31.14
 31
0.0
100
AcDbText
 73
         2
  0
TEXT
  5
39B
100
AcDbEntity
  8
PIN_NUMBERS_TOP
100
AcDbText
 10
12.382068
 20
26.102496
 30
0.0
 40
0.508
  1
1
  7
COURIER_NEW
 72
         1
 11
12.6
 21
26.325
 31
0.0
100
AcDbText
 73
         2
  0
TEXT
  5
39C
100
AcDbEntity
  8
PIN_NUMBERS_TOP
100
AcDbText
 10
12.382068
 20
23.452496
 30
0.0
 40
0.508
  1
2
  7
COURIER_NEW
 72
         1
 11
12.6
 21
23.675
 31
0.0
100
AcDbText
 73
         2
  0
TEXT
  5
39D
100
AcDbEntity
  8
PIN_NUMBERS_TOP
100
AcDbText
 10
28.082068
 20
20.077496
 30
0.0
 40
0.508
  1
2
  7
COURIER_NEW
 72
         1
 11
28.3
 21
20.3
 31
0.0
100
AcDbText
 73
         2
  0
TEXT
  5
39E
100
AcDbEntity
  8
PIN_NUMBERS_TOP
100
AcDbText
 10
28.882068
 20
20.077496
 30
0.0
 40
0.508
  1
1
  7
COURIER_NEW
 72
         1
 11
29.1
 21
20.3
 31
0.0
100
AcDbText
 73
         2
  0
TEXT
  5
39F
100
AcDbEntity
  8
PIN_NUMBERS_TOP
100
AcDbText
 10
25.982068
 20
15.777496
 30
0.0
 40
0.508
  1
2
  7
COURIER_NEW
 72
         1
 11
26.2
 21
16.0
 31
0.0
100
AcDbText
 73
         2
  0
TEXT
  5
3A0
100
AcDbEntity
  8
PIN_NUMBERS_TOP
100
AcDbText
 10
25.182068
 20
15.777496
 30
0.0
 40
0.508
  1
1
  7
COURIER_NEW
 72
         1
 11
25.4
 21
16.0
 31
0.0
100
AcDbText
 73
         2
  0
TEXT
  5
3A1
100
AcDbEntity
  8
PIN_NUMBERS_TOP
100
AcDbText
 10
41.561568
 20
51.582496
 30
0.0
 40
0.508
  1
1
  7
COURIER_NEW
 72
         1
 11
41.7795
 21
51.805
 31
0.0
100
AcDbText
 73
         2
  0
TEXT
  5
3A2
100
AcDbEntity
  8
PIN_NUMBERS_TOP
100
AcDbText
 10
41.561568
 20
53.132496
 30
0.0
 40
0.508
  1
2
  7
COURIER_NEW
 72
         1
 11
41.7795
 21
53.355
 31
0.0
100
AcDbText
 73
         2
  0
TEXT
  5
3A3
100
AcDbEntity
  8
PIN_NUMBERS_TOP
100
AcDbText
 10
43.052068
 20
54.647496
 30
0.0
 40
0.508
  1
2
  7
COURIER_NEW
 72
         1
 11
43.27
 21
54.87
 31
0.0
100
AcDbText
 73
         2
  0
TEXT
  5
3A4
100
AcDbEntity
  8
PIN_NUMBERS_TOP
100
AcDbText
 10
43.052068
 20
55.447496
 30
0.0
 40
0.508
  1
1
  7
COURIER_NEW
 72
         1
 11
43.27
 21
55.67
 31
0.0
100
AcDbText
 73
         2
  0
TEXT
  5
3A5
100
AcDbEntity
  8
PIN_NUMBERS_TOP
100
AcDbText
 10
43.052068
 20
52.357496
 30
0.0
 40
0.508
  1
2
  7
COURIER_NEW
 72
         1
 11
43.27
 21
52.58
 31
0.0
100
AcDbText
 73
         2
  0
TEXT
  5
3A6
100
AcDbEntity
  8
PIN_NUMBERS_TOP
100
AcDbText
 10
43.052068
 20
51.557496
 30
0.0
 40
0.508
  1
1
  7
COURIER_NEW
 72
         1
 11
43.27
 21
51.78
 31
0.0
100
AcDbText
 73
         2
  0
TEXT
  5
3A7
100
AcDbEntity
  8
PIN_NUMBERS_TOP
100
AcDbText
 10
42.285068
 20
54.557496
 30
0.0
 40
0.508
  1
1
  7
COURIER_NEW
 72
         1
 11
42.503
 21
54.78
 31
0.0
100
AcDbText
 73
         2
  0
TEXT
  5
3A8
100
AcDbEntity
  8
PIN_NUMBERS_TOP
100
AcDbText
 10
42.285068
 20
55.557496
 30
0.0
 40
0.508
  1
2
  7
COURIER_NEW
 72
         1
 11
42.503
 21
55.78
 31
0.0
100
AcDbText
 73
         2
  0
TEXT
  5
3A9
100
AcDbEntity
  8
PIN_NUMBERS_TOP
100
AcDbText
 10
40.838068
 20
55.057496
 30
0.0
 40
0.508
  1
3
  7
COURIER_NEW
 72
         1
 11
41.056
 21
55.28
 31
0.0
100
AcDbText
 73
         2
  0
TEXT
  5
3AA
100
AcDbEntity
  8
PIN_NUMBERS_TOP
100
AcDbText
 10
42.852068
 20
43.037496
 30
0.0
 40
0.508
  1
2
  7
COURIER_NEW
 72
         1
 11
43.07
 21
43.26
 31
0.0
100
AcDbText
 73
         2
  0
TEXT
  5
3AB
100
AcDbEntity
  8
PIN_NUMBERS_TOP
100
AcDbText
 10
42.852068
 20
43.837496
 30
0.0
 40
0.508
  1
1
  7
COURIER_NEW
 72
         1
 11
43.07
 21
44.06
 31
0.0
100
AcDbText
 73
         2
  0
TEXT
  5
3AC
100
AcDbEntity
  8
PIN_NUMBERS_TOP
100
AcDbText
 10
42.852068
 20
40.357496
 30
0.0
 40
0.508
  1
2
  7
COURIER_NEW
 72
         1
 11
43.07
 21
40.58
 31
0.0
100
AcDbText
 73
         2
  0
TEXT
  5
3AD
100
AcDbEntity
  8
PIN_NUMBERS_TOP
100
AcDbText
 10
42.852068
 20
39.557496
 30
0.0
 40
0.508
  1
1
  7
COURIER_NEW
 72
         1
 11
43.07
 21
39.78
 31
0.0
100
AcDbText
 73
         2
  0
TEXT
  5
3AE
100
AcDbEntity
  8
PIN_NUMBERS_TOP
100
AcDbText
 10
41.361568
 20
39.922496
 30
0.0
 40
0.508
  1
1
  7
COURIER_NEW
 72
         1
 11
41.5795
 21
40.145
 31
0.0
100
AcDbText
 73
         2
  0
TEXT
  5
3AF
100
AcDbEntity
  8
PIN_NUMBERS_TOP
100
AcDbText
 10
41.361568
 20
41.472496
 30
0.0
 40
0.508
  1
2
  7
COURIER_NEW
 72
         1
 11
41.5795
 21
41.695
 31
0.0
100
AcDbText
 73
         2
  0
TEXT
  5
3B0
100
AcDbEntity
  8
PIN_NUMBERS_TOP
100
AcDbText
 10
42.085068
 20
42.937496
 30
0.0
 40
0.508
  1
1
  7
COURIER_NEW
 72
         1
 11
42.303
 21
43.16
 31
0.0
100
AcDbText
 73
         2
  0
TEXT
  5
3B1
100
AcDbEntity
  8
PIN_NUMBERS_TOP
100
AcDbText
 10
42.085068
 20
43.937496
 30
0.0
 40
0.508
  1
2
  7
COURIER_NEW
 72
         1
 11
42.303
 21
44.16
 31
0.0
100
AcDbText
 73
         2
  0
TEXT
  5
3B2
100
AcDbEntity
  8
PIN_NUMBERS_TOP
100
AcDbText
 10
40.638068
 20
43.437496
 30
0.0
 40
0.508
  1
3
  7
COURIER_NEW
 72
         1
 11
40.856
 21
43.66
 31
0.0
100
AcDbText
 73
         2
  0
TEXT
  5
3B3
100
AcDbEntity
  8
PIN_NUMBERS_TOP
100
AcDbText
 10
41.461568
 20
45.702496
 30
0.0
 40
0.508
  1
1
  7
COURIER_NEW
 72
         1
 11
41.6795
 21
45.925
 31
0.0
100
AcDbText
 73
         2
  0
TEXT
  5
3B4
100
AcDbEntity
  8
PIN_NUMBERS_TOP
100
AcDbText
 10
41.461568
 20
47.252496
 30
0.0
 40
0.508
  1
2
  7
COURIER_NEW
 72
         1
 11
41.6795
 21
47.475
 31
0.0
100
AcDbText
 73
         2
  0
TEXT
  5
3B5
100
AcDbEntity
  8
PIN_NUMBERS_TOP
100
AcDbText
 10
42.952068
 20
48.777496
 30
0.0
 40
0.508
  1
2
  7
COURIER_NEW
 72
         1
 11
43.17
 21
49.0
 31
0.0
100
AcDbText
 73
         2
  0
TEXT
  5
3B6
100
AcDbEntity
  8
PIN_NUMBERS_TOP
100
AcDbText
 10
42.952068
 20
49.577496
 30
0.0
 40
0.508
  1
1
  7
COURIER_NEW
 72
         1
 11
43.17
 21
49.8
 31
0.0
100
AcDbText
 73
         2
  0
TEXT
  5
3B7
100
AcDbEntity
  8
PIN_NUMBERS_TOP
100
AcDbText
 10
42.952068
 20
46.727496
 30
0.0
 40
0.508
  1
2
  7
COURIER_NEW
 72
         1
 11
43.17
 21
46.95
 31
0.0
100
AcDbText
 73
         2
  0
TEXT
  5
3B8
100
AcDbEntity
  8
PIN_NUMBERS_TOP
100
AcDbText
 10
42.952068
 20
45.927496
 30
0.0
 40
0.508
  1
1
  7
COURIER_NEW
 72
         1
 11
43.17
 21
46.15
 31
0.0
100
AcDbText
 73
         2
  0
TEXT
  5
3B9
100
AcDbEntity
  8
PIN_NUMBERS_TOP
100
AcDbText
 10
42.185068
 20
48.637496
 30
0.0
 40
0.508
  1
1
  7
COURIER_NEW
 72
         1
 11
42.403
 21
48.86
 31
0.0
100
AcDbText
 73
         2
  0
TEXT
  5
3BA
100
AcDbEntity
  8
PIN_NUMBERS_TOP
100
AcDbText
 10
42.185068
 20
49.637496
 30
0.0
 40
0.508
  1
2
  7
COURIER_NEW
 72
         1
 11
42.403
 21
49.86
 31
0.0
100
AcDbText
 73
         2
  0
TEXT
  5
3BB
100
AcDbEntity
  8
PIN_NUMBERS_TOP
100
AcDbText
 10
40.738068
 20
49.137496
 30
0.0
 40
0.508
  1
3
  7
COURIER_NEW
 72
         1
 11
40.956
 21
49.36
 31
0.0
100
AcDbText
 73
         2
  0
TEXT
  5
3BC
100
AcDbEntity
  8
PIN_NUMBERS_TOP
100
AcDbText
 10
25.832068
 20
25.777496
 30
0.0
 40
0.508
  1
1
  7
COURIER_NEW
 72
         1
 11
26.05
 21
26.0
 31
0.0
100
AcDbText
 73
         2
  0
TEXT
  5
3BD
100
AcDbEntity
  8
PIN_NUMBERS_TOP
100
AcDbText
 10
24.282068
 20
25.777496
 30
0.0
 40
0.508
  1
2
  7
COURIER_NEW
 72
         1
 11
24.5
 21
26.0
 31
0.0
100
AcDbText
 73
         2
  0
TEXT
  5
3BE
100
AcDbEntity
  8
PIN_NUMBERS_TOP
100
AcDbText
 10
22.732068
 20
25.777496
 30
0.0
 40
0.508
  1
3
  7
COURIER_NEW
 72
         1
 11
22.95
 21
26.0
 31
0.0
100
AcDbText
 73
         2
  0
TEXT
  5
3BF
100
AcDbEntity
  8
PIN_NUMBERS_TOP
100
AcDbText
 10
30.832068
 20
25.777496
 30
0.0
 40
0.508
  1
1
  7
COURIER_NEW
 72
         1
 11
31.05
 21
26.0
 31
0.0
100
AcDbText
 73
         2
  0
TEXT
  5
3C0
100
AcDbEntity
  8
PIN_NUMBERS_TOP
100
AcDbText
 10
29.282068
 20
25.777496
 30
0.0
 40
0.508
  1
2
  7
COURIER_NEW
 72
         1
 11
29.5
 21
26.0
 31
0.0
100
AcDbText
 73
         2
  0
TEXT
  5
3C1
100
AcDbEntity
  8
PIN_NUMBERS_TOP
100
AcDbText
 10
27.732068
 20
25.777496
 30
0.0
 40
0.508
  1
3
  7
COURIER_NEW
 72
         1
 11
27.95
 21
26.0
 31
0.0
100
AcDbText
 73
         2
  0
TEXT
  5
3C2
100
AcDbEntity
  8
PIN_NUMBERS_TOP
100
AcDbText
 10
25.187068
 20
22.461996
 30
0.0
 40
0.508
  1
1
  7
COURIER_NEW
 72
         1
 11
25.405
 21
22.6845
 31
0.0
100
AcDbText
 73
         2
  0
TEXT
  5
3C3
100
AcDbEntity
  8
PIN_NUMBERS_TOP
100
AcDbText
 10
23.917068
 20
22.461996
 30
0.0
 40
0.508
  1
2
  7
COURIER_NEW
 72
         1
 11
24.135
 21
22.6845
 31
0.0
100
AcDbText
 73
         2
  0
TEXT
  5
3C4
100
AcDbEntity
  8
PIN_NUMBERS_TOP
100
AcDbText
 10
22.647068
 20
22.461996
 30
0.0
 40
0.508
  1
3
  7
COURIER_NEW
 72
         1
 11
22.865
 21
22.6845
 31
0.0
100
AcDbText
 73
         2
  0
TEXT
  5
3C5
100
AcDbEntity
  8
PIN_NUMBERS_TOP
100
AcDbText
 10
21.377068
 20
22.461996
 30
0.0
 40
0.508
  1
4
  7
COURIER_NEW
 72
         1
 11
21.595
 21
22.6845
 31
0.0
100
AcDbText
 73
         2
  0
TEXT
  5
3C6
100
AcDbEntity
  8
PIN_NUMBERS_TOP
100
AcDbText
 10
21.377068
 20
17.061996
 30
0.0
 40
0.508
  1
5
  7
COURIER_NEW
 72
         1
 11
21.595
 21
17.2845
 31
0.0
100
AcDbText
 73
         2
  0
TEXT
  5
3C7
100
AcDbEntity
  8
PIN_NUMBERS_TOP
100
AcDbText
 10
22.647068
 20
17.061996
 30
0.0
 40
0.508
  1
6
  7
COURIER_NEW
 72
         1
 11
22.865
 21
17.2845
 31
0.0
100
AcDbText
 73
         2
  0
TEXT
  5
3C8
100
AcDbEntity
  8
PIN_NUMBERS_TOP
100
AcDbText
 10
23.917068
 20
17.061996
 30
0.0
 40
0.508
  1
7
  7
COURIER_NEW
 72
         1
 11
24.135
 21
17.2845
 31
0.0
100
AcDbText
 73
         2
  0
TEXT
  5
3C9
100
AcDbEntity
  8
PIN_NUMBERS_TOP
100
AcDbText
 10
25.187068
 20
17.061996
 30
0.0
 40
0.508
  1
8
  7
COURIER_NEW
 72
         1
 11
25.405
 21
17.2845
 31
0.0
100
AcDbText
 73
         2
  0
TEXT
  5
3CA
100
AcDbEntity
  8
PIN_NUMBERS_TOP
100
AcDbText
 10
28.282068
 20
21.502496
 30
0.0
 40
0.508
  1
2
  7
COURIER_NEW
 72
         1
 11
28.5
 21
21.725
 31
0.0
100
AcDbText
 73
         2
  0
TEXT
  5
3CB
100
AcDbEntity
  8
PIN_NUMBERS_TOP
100
AcDbText
 10
28.282068
 20
23.052496
 30
0.0
 40
0.508
  1
1
  7
COURIER_NEW
 72
         1
 11
28.5
 21
23.275
 31
0.0
100
AcDbText
 73
         2
  0
TEXT
  5
3CC
100
AcDbEntity
  8
PIN_NUMBERS_TOP
100
AcDbText
 10
19.212068
 20
22.767496
 30
0.0
 40
0.508
  1
2
  7
COURIER_NEW
 72
         1
 11
19.43
 21
22.99
 31
0.0
100
AcDbText
 73
         2
  0
TEXT
  5
3CD
100
AcDbEntity
  8
PIN_NUMBERS_TOP
100
AcDbText
 10
18.412068
 20
22.767496
 30
0.0
 40
0.508
  1
1
  7
COURIER_NEW
 72
         1
 11
18.63
 21
22.99
 31
0.0
100
AcDbText
 73
         2
  0
TEXT
  5
3CE
100
AcDbEntity
  8
PIN_NUMBERS_TOP
100
AcDbText
 10
40.972068
 20
31.837496
 30
0.0
 40
0.508
  1
2
  7
COURIER_NEW
 72
         1
 11
41.19
 21
32.06
 31
0.0
100
AcDbText
 73
         2
  0
TEXT
  5
3CF
100
AcDbEntity
  8
PIN_NUMBERS_TOP
100
AcDbText
 10
40.172068
 20
31.837496
 30
0.0
 40
0.508
  1
1
  7
COURIER_NEW
 72
         1
 11
40.39
 21
32.06
 31
0.0
100
AcDbText
 73
         2
  0
TEXT
  5
3D0
100
AcDbEntity
  8
PIN_NUMBERS_TOP
100
AcDbText
 10
33.332068
 20
42.567496
 30
0.0
 40
0.508
  1
2
  7
COURIER_NEW
 72
         1
 11
33.55
 21
42.79
 31
0.0
100
AcDbText
 73
         2
  0
TEXT
  5
3D1
100
AcDbEntity
  8
PIN_NUMBERS_TOP
100
AcDbText
 10
32.532068
 20
42.567496
 30
0.0
 40
0.508
  1
1
  7
COURIER_NEW
 72
         1
 11
32.75
 21
42.79
 31
0.0
100
AcDbText
 73
         2
  0
TEXT
  5
3D2
100
AcDbEntity
  8
PIN_NUMBERS_TOP
100
AcDbText
 10
7.422068
 20
14.967496
 30
0.0
 40
0.508
  1
2
  7
COURIER_NEW
 72
         1
 11
7.64
 21
15.19
 31
0.0
100
AcDbText
 73
         2
  0
TEXT
  5
3D3
100
AcDbEntity
  8
PIN_NUMBERS_TOP
100
AcDbText
 10
6.622068
 20
14.967496
 30
0.0
 40
0.508
  1
1
  7
COURIER_NEW
 72
         1
 11
6.84
 21
15.19
 31
0.0
100
AcDbText
 73
         2
  0
TEXT
  5
3D4
100
AcDbEntity
  8
PIN_NUMBERS_TOP
100
AcDbText
 10
57.622068
 20
43.037496
 30
0.0
 40
0.508
  1
1
  7
COURIER_NEW
 72
         1
 11
57.84
 21
43.26
 31
0.0
100
AcDbText
 73
         2
  0
TEXT
  5
3D5
100
AcDbEntity
  8
PIN_NUMBERS_TOP
100
AcDbText
 10
51.622068
 20
43.037496
 30
0.0
 40
0.508
  1
2
  7
COURIER_NEW
 72
         1
 11
51.84
 21
43.26
 31
0.0
100
AcDbText
 73
         2
  0
TEXT
  5
3D6
100
AcDbEntity
  8
PIN_NUMBERS_TOP
100
AcDbText
 10
50.052068
 20
43.407496
 30
0.0
 40
0.508
  1
2
  7
COURIER_NEW
 72
         1
 11
50.27
 21
43.63
 31
0.0
100
AcDbText
 73
         2
  0
TEXT
  5
3D7
100
AcDbEntity
  8
PIN_NUMBERS_TOP
100
AcDbText
 10
50.052068
 20
42.607496
 30
0.0
 40
0.508
  1
1
  7
COURIER_NEW
 72
         1
 11
50.27
 21
42.83
 31
0.0
100
AcDbText
 73
         2
  0
TEXT
  5
3D8
100
AcDbEntity
  8
PIN_NUMBERS_TOP
100
AcDbText
 10
68.862068
 20
68.837496
 30
0.0
 40
0.508
  1
1
  7
COURIER_NEW
 72
         1
 11
69.08
 21
69.06
 31
0.0
100
AcDbText
 73
         2
  0
TEXT
  5
3D9
100
AcDbEntity
  8
PIN_NUMBERS_TOP
100
AcDbText
 10
60.872068
 20
34.737496
 30
0.0
 40
0.508
  1
1
  7
COURIER_NEW
 72
         1
 11
61.09
 21
34.96
 31
0.0
100
AcDbText
 73
         2
  0
TEXT
  5
3DA
100
AcDbEntity
  8
PIN_NUMBERS_TOP
100
AcDbText
 10
4.052068
 20
21.077496
 30
0.0
 40
0.508
  1
1
  7
COURIER_NEW
 72
         1
 11
4.27
 21
21.3
 31
0.0
100
AcDbText
 73
         2
  0
TEXT
  5
3DB
100
AcDbEntity
  8
PIN_NUMBERS_TOP
100
AcDbText
 10
1.512068
 20
21.077496
 30
0.0
 40
0.508
  1
2
  7
COURIER_NEW
 72
         1
 11
1.73
 21
21.3
 31
0.0
100
AcDbText
 73
         2
  0
TEXT
  5
3DC
100
AcDbEntity
  8
PIN_NUMBERS_TOP
100
AcDbText
 10
4.052068
 20
23.617496
 30
0.0
 40
0.508
  1
3
  7
COURIER_NEW
 72
         1
 11
4.27
 21
23.84
 31
0.0
100
AcDbText
 73
         2
  0
TEXT
  5
3DD
100
AcDbEntity
  8
PIN_NUMBERS_TOP
100
AcDbText
 10
1.512068
 20
23.617496
 30
0.0
 40
0.508
  1
4
  7
COURIER_NEW
 72
         1
 11
1.73
 21
23.84
 31
0.0
100
AcDbText
 73
         2
  0
TEXT
  5
3DE
100
AcDbEntity
  8
PIN_NUMBERS_TOP
100
AcDbText
 10
4.052068
 20
26.157496
 30
0.0
 40
0.508
  1
5
  7
COURIER_NEW
 72
         1
 11
4.27
 21
26.38
 31
0.0
100
AcDbText
 73
         2
  0
TEXT
  5
3DF
100
AcDbEntity
  8
PIN_NUMBERS_TOP
100
AcDbText
 10
1.512068
 20
26.157496
 30
0.0
 40
0.508
  1
6
  7
COURIER_NEW
 72
         1
 11
1.73
 21
26.38
 31
0.0
100
AcDbText
 73
         2
  0
TEXT
  5
3E0
100
AcDbEntity
  8
PIN_NUMBERS_TOP
100
AcDbText
 10
4.052068
 20
28.697496
 30
0.0
 40
0.508
  1
7
  7
COURIER_NEW
 72
         1
 11
4.27
 21
28.92
 31
0.0
100
AcDbText
 73
         2
  0
TEXT
  5
3E1
100
AcDbEntity
  8
PIN_NUMBERS_TOP
100
AcDbText
 10
1.512068
 20
28.697496
 30
0.0
 40
0.508
  1
8
  7
COURIER_NEW
 72
         1
 11
1.73
 21
28.92
 31
0.0
100
AcDbText
 73
         2
  0
TEXT
  5
3E2
100
AcDbEntity
  8
PIN_NUMBERS_TOP
100
AcDbText
 10
4.052068
 20
31.237496
 30
0.0
 40
0.508
  1
9
  7
COURIER_NEW
 72
         1
 11
4.27
 21
31.46
 31
0.0
100
AcDbText
 73
         2
  0
TEXT
  5
3E3
100
AcDbEntity
  8
PIN_NUMBERS_TOP
100
AcDbText
 10
1.294136
 20
31.237496
 30
0.0
 40
0.508
  1
10
  7
COURIER_NEW
 72
         1
 11
1.73
 21
31.46
 31
0.0
100
AcDbText
 73
         2
  0
TEXT
  5
3E4
100
AcDbEntity
  8
PIN_NUMBERS_TOP
100
AcDbText
 10
3.834136
 20
33.777496
 30
0.0
 40
0.508
  1
11
  7
COURIER_NEW
 72
         1
 11
4.27
 21
34.0
 31
0.0
100
AcDbText
 73
         2
  0
TEXT
  5
3E5
100
AcDbEntity
  8
PIN_NUMBERS_TOP
100
AcDbText
 10
1.294136
 20
33.777496
 30
0.0
 40
0.508
  1
12
  7
COURIER_NEW
 72
         1
 11
1.73
 21
34.0
 31
0.0
100
AcDbText
 73
         2
  0
TEXT
  5
3E6
100
AcDbEntity
  8
PIN_NUMBERS_TOP
100
AcDbText
 10
3.834136
 20
36.317496
 30
0.0
 40
0.508
  1
13
  7
COURIER_NEW
 72
         1
 11
4.27
 21
36.54
 31
0.0
100
AcDbText
 73
         2
  0
TEXT
  5
3E7
100
AcDbEntity
  8
PIN_NUMBERS_TOP
100
AcDbText
 10
1.294136
 20
36.317496
 30
0.0
 40
0.508
  1
14
  7
COURIER_NEW
 72
         1
 11
1.73
 21
36.54
 31
0.0
100
AcDbText
 73
         2
  0
TEXT
  5
3E8
100
AcDbEntity
  8
PIN_NUMBERS_TOP
100
AcDbText
 10
3.834136
 20
38.857496
 30
0.0
 40
0.508
  1
15
  7
COURIER_NEW
 72
         1
 11
4.27
 21
39.08
 31
0.0
100
AcDbText
 73
         2
  0
TEXT
  5
3E9
100
AcDbEntity
  8
PIN_NUMBERS_TOP
100
AcDbText
 10
1.294136
 20
38.857496
 30
0.0
 40
0.508
  1
16
  7
COURIER_NEW
 72
         1
 11
1.73
 21
39.08
 31
0.0
100
AcDbText
 73
         2
  0
TEXT
  5
3EA
100
AcDbEntity
  8
PIN_NUMBERS_TOP
100
AcDbText
 10
3.834136
 20
41.397496
 30
0.0
 40
0.508
  1
17
  7
COURIER_NEW
 72
         1
 11
4.27
 21
41.62
 31
0.0
100
AcDbText
 73
         2
  0
TEXT
  5
3EB
100
AcDbEntity
  8
PIN_NUMBERS_TOP
100
AcDbText
 10
1.294136
 20
41.397496
 30
0.0
 40
0.508
  1
18
  7
COURIER_NEW
 72
         1
 11
1.73
 21
41.62
 31
0.0
100
AcDbText
 73
         2
  0
TEXT
  5
3EC
100
AcDbEntity
  8
PIN_NUMBERS_TOP
100
AcDbText
 10
3.834136
 20
43.937496
 30
0.0
 40
0.508
  1
19
  7
COURIER_NEW
 72
         1
 11
4.27
 21
44.16
 31
0.0
100
AcDbText
 73
         2
  0
TEXT
  5
3ED
100
AcDbEntity
  8
PIN_NUMBERS_TOP
100
AcDbText
 10
1.294136
 20
43.937496
 30
0.0
 40
0.508
  1
20
  7
COURIER_NEW
 72
         1
 11
1.73
 21
44.16
 31
0.0
100
AcDbText
 73
         2
  0
TEXT
  5
3EE
100
AcDbEntity
  8
PIN_NUMBERS_TOP
100
AcDbText
 10
6.892068
 20
33.252496
 30
0.0
 40
0.508
  1
1
  7
COURIER_NEW
 72
         1
 11
7.11
 21
33.475
 31
0.0
100
AcDbText
 73
         2
  0
TEXT
  5
3EF
100
AcDbEntity
  8
PIN_NUMBERS_TOP
100
AcDbText
 10
6.892068
 20
31.702496
 30
0.0
 40
0.508
  1
2
  7
COURIER_NEW
 72
         1
 11
7.11
 21
31.925
 31
0.0
100
AcDbText
 73
         2
  0
TEXT
  5
3F0
100
AcDbEntity
  8
PIN_NUMBERS_TOP
100
AcDbText
 10
30.532068
 20
28.047496
 30
0.0
 40
0.508
  1
2
  7
COURIER_NEW
 72
         1
 11
30.75
 21
28.27
 31
0.0
100
AcDbText
 73
         2
  0
TEXT
  5
3F1
100
AcDbEntity
  8
PIN_NUMBERS_TOP
100
AcDbText
 10
29.732068
 20
28.047496
 30
0.0
 40
0.508
  1
1
  7
COURIER_NEW
 72
         1
 11
29.95
 21
28.27
 31
0.0
100
AcDbText
 73
         2
  0
TEXT
  5
3F2
100
AcDbEntity
  8
PIN_NUMBERS_TOP
100
AcDbText
 10
26.002068
 20
36.537496
 30
0.0
 40
0.508
  1
2
  7
COURIER_NEW
 72
         1
 11
26.22
 21
36.76
 31
0.0
100
AcDbText
 73
         2
  0
TEXT
  5
3F3
100
AcDbEntity
  8
PIN_NUMBERS_TOP
100
AcDbText
 10
25.202068
 20
36.537496
 30
0.0
 40
0.508
  1
1
  7
COURIER_NEW
 72
         1
 11
25.42
 21
36.76
 31
0.0
100
AcDbText
 73
         2
  0
TEXT
  5
3F4
100
AcDbEntity
  8
PIN_NUMBERS_TOP
100
AcDbText
 10
23.372068
 20
36.537496
 30
0.0
 40
0.508
  1
2
  7
COURIER_NEW
 72
         1
 11
23.59
 21
36.76
 31
0.0
100
AcDbText
 73
         2
  0
TEXT
  5
3F5
100
AcDbEntity
  8
PIN_NUMBERS_TOP
100
AcDbText
 10
24.172068
 20
36.537496
 30
0.0
 40
0.508
  1
1
  7
COURIER_NEW
 72
         1
 11
24.39
 21
36.76
 31
0.0
100
AcDbText
 73
         2
  0
TEXT
  5
3F6
100
AcDbEntity
  8
PIN_NUMBERS_TOP
100
AcDbText
 10
28.982068
 20
36.537496
 30
0.0
 40
0.508
  1
2
  7
COURIER_NEW
 72
         1
 11
29.2
 21
36.76
 31
0.0
100
AcDbText
 73
         2
  0
TEXT
  5
3F7
100
AcDbEntity
  8
PIN_NUMBERS_TOP
100
AcDbText
 10
29.782068
 20
36.537496
 30
0.0
 40
0.508
  1
1
  7
COURIER_NEW
 72
         1
 11
30.0
 21
36.76
 31
0.0
100
AcDbText
 73
         2
  0
TEXT
  5
3F8
100
AcDbEntity
  8
PIN_NUMBERS_TOP
100
AcDbText
 10
21.632068
 20
36.537496
 30
0.0
 40
0.508
  1
2
  7
COURIER_NEW
 72
         1
 11
21.85
 21
36.76
 31
0.0
100
AcDbText
 73
         2
  0
TEXT
  5
3F9
100
AcDbEntity
  8
PIN_NUMBERS_TOP
100
AcDbText
 10
22.432068
 20
36.537496
 30
0.0
 40
0.508
  1
1
  7
COURIER_NEW
 72
         1
 11
22.65
 21
36.76
 31
0.0
100
AcDbText
 73
         2
  0
TEXT
  5
3FA
100
AcDbEntity
  8
PIN_NUMBERS_TOP
100
AcDbText
 10
28.642068
 20
28.047496
 30
0.0
 40
0.508
  1
2
  7
COURIER_NEW
 72
         1
 11
28.86
 21
28.27
 31
0.0
100
AcDbText
 73
         2
  0
TEXT
  5
3FB
100
AcDbEntity
  8
PIN_NUMBERS_TOP
100
AcDbText
 10
27.842068
 20
28.047496
 30
0.0
 40
0.508
  1
1
  7
COURIER_NEW
 72
         1
 11
28.06
 21
28.27
 31
0.0
100
AcDbText
 73
         2
  0
TEXT
  5
3FC
100
AcDbEntity
  8
PIN_NUMBERS_TOP
100
AcDbText
 10
25.532068
 20
28.047496
 30
0.0
 40
0.508
  1
2
  7
COURIER_NEW
 72
         1
 11
25.75
 21
28.27
 31
0.0
100
AcDbText
 73
         2
  0
TEXT
  5
3FD
100
AcDbEntity
  8
PIN_NUMBERS_TOP
100
AcDbText
 10
26.332068
 20
28.047496
 30
0.0
 40
0.508
  1
1
  7
COURIER_NEW
 72
         1
 11
26.55
 21
28.27
 31
0.0
100
AcDbText
 73
         2
  0
TEXT
  5
3FE
100
AcDbEntity
  8
PIN_NUMBERS_TOP
100
AcDbText
 10
22.262068
 20
28.047496
 30
0.0
 40
0.508
  1
2
  7
COURIER_NEW
 72
         1
 11
22.48
 21
28.27
 31
0.0
100
AcDbText
 73
         2
  0
TEXT
  5
3FF
100
AcDbEntity
  8
PIN_NUMBERS_TOP
100
AcDbText
 10
23.062068
 20
28.047496
 30
0.0
 40
0.508
  1
1
  7
COURIER_NEW
 72
         1
 11
23.28
 21
28.27
 31
0.0
100
AcDbText
 73
         2
  0
TEXT
  5
400
100
AcDbEntity
  8
PIN_NUMBERS_TOP
100
AcDbText
 10
21.457068
 20
29.647496
 30
0.0
 40
0.508
  1
1
  7
COURIER_NEW
 72
         1
 11
21.675
 21
29.87
 31
0.0
100
AcDbText
 73
         2
  0
TEXT
  5
401
100
AcDbEntity
  8
PIN_NUMBERS_TOP
100
AcDbText
 10
22.727068
 20
29.647496
 30
0.0
 40
0.508
  1
2
  7
COURIER_NEW
 72
         1
 11
22.945
 21
29.87
 31
0.0
100
AcDbText
 73
         2
  0
TEXT
  5
402
100
AcDbEntity
  8
PIN_NUMBERS_TOP
100
AcDbText
 10
23.997068
 20
29.647496
 30
0.0
 40
0.508
  1
3
  7
COURIER_NEW
 72
         1
 11
24.215
 21
29.87
 31
0.0
100
AcDbText
 73
         2
  0
TEXT
  5
403
100
AcDbEntity
  8
PIN_NUMBERS_TOP
100
AcDbText
 10
25.267068
 20
29.647496
 30
0.0
 40
0.508
  1
4
  7
COURIER_NEW
 72
         1
 11
25.485
 21
29.87
 31
0.0
100
AcDbText
 73
         2
  0
TEXT
  5
404
100
AcDbEntity
  8
PIN_NUMBERS_TOP
100
AcDbText
 10
26.537068
 20
29.647496
 30
0.0
 40
0.508
  1
5
  7
COURIER_NEW
 72
         1
 11
26.755
 21
29.87
 31
0.0
100
AcDbText
 73
         2
  0
TEXT
  5
405
100
AcDbEntity
  8
PIN_NUMBERS_TOP
100
AcDbText
 10
27.807068
 20
29.647496
 30
0.0
 40
0.508
  1
6
  7
COURIER_NEW
 72
         1
 11
28.025
 21
29.87
 31
0.0
100
AcDbText
 73
         2
  0
TEXT
  5
406
100
AcDbEntity
  8
PIN_NUMBERS_TOP
100
AcDbText
 10
29.077068
 20
29.647496
 30
0.0
 40
0.508
  1
7
  7
COURIER_NEW
 72
         1
 11
29.295
 21
29.87
 31
0.0
100
AcDbText
 73
         2
  0
TEXT
  5
407
100
AcDbEntity
  8
PIN_NUMBERS_TOP
100
AcDbText
 10
30.347068
 20
29.647496
 30
0.0
 40
0.508
  1
8
  7
COURIER_NEW
 72
         1
 11
30.565
 21
29.87
 31
0.0
100
AcDbText
 73
         2
  0
TEXT
  5
408
100
AcDbEntity
  8
PIN_NUMBERS_TOP
100
AcDbText
 10
30.347068
 20
35.047496
 30
0.0
 40
0.508
  1
9
  7
COURIER_NEW
 72
         1
 11
30.565
 21
35.27
 31
0.0
100
AcDbText
 73
         2
  0
TEXT
  5
409
100
AcDbEntity
  8
PIN_NUMBERS_TOP
100
AcDbText
 10
28.859136
 20
35.047496
 30
0.0
 40
0.508
  1
10
  7
COURIER_NEW
 72
         1
 11
29.295
 21
35.27
 31
0.0
100
AcDbText
 73
         2
  0
TEXT
  5
40A
100
AcDbEntity
  8
PIN_NUMBERS_TOP
100
AcDbText
 10
27.589136
 20
35.047496
 30
0.0
 40
0.508
  1
11
  7
COURIER_NEW
 72
         1
 11
28.025
 21
35.27
 31
0.0
100
AcDbText
 73
         2
  0
TEXT
  5
40B
100
AcDbEntity
  8
PIN_NUMBERS_TOP
100
AcDbText
 10
26.319136
 20
35.047496
 30
0.0
 40
0.508
  1
12
  7
COURIER_NEW
 72
         1
 11
26.755
 21
35.27
 31
0.0
100
AcDbText
 73
         2
  0
TEXT
  5
40C
100
AcDbEntity
  8
PIN_NUMBERS_TOP
100
AcDbText
 10
25.049136
 20
35.047496
 30
0.0
 40
0.508
  1
13
  7
COURIER_NEW
 72
         1
 11
25.485
 21
35.27
 31
0.0
100
AcDbText
 73
         2
  0
TEXT
  5
40D
100
AcDbEntity
  8
PIN_NUMBERS_TOP
100
AcDbText
 10
23.779136
 20
35.047496
 30
0.0
 40
0.508
  1
14
  7
COURIER_NEW
 72
         1
 11
24.215
 21
35.27
 31
0.0
100
AcDbText
 73
         2
  0
TEXT
  5
40E
100
AcDbEntity
  8
PIN_NUMBERS_TOP
100
AcDbText
 10
22.509136
 20
35.047496
 30
0.0
 40
0.508
  1
15
  7
COURIER_NEW
 72
         1
 11
22.945
 21
35.27
 31
0.0
100
AcDbText
 73
         2
  0
TEXT
  5
40F
100
AcDbEntity
  8
PIN_NUMBERS_TOP
100
AcDbText
 10
21.239136
 20
35.047496
 30
0.0
 40
0.508
  1
16
  7
COURIER_NEW
 72
         1
 11
21.675
 21
35.27
 31
0.0
100
AcDbText
 73
         2
  0
TEXT
  5
410
100
AcDbEntity
  8
PIN_NUMBERS_TOP
100
AcDbText
 10
6.762068
 20
11.097496
 30
0.0
 40
0.508
  1
1
  7
COURIER_NEW
 72
         1
 11
6.98
 21
11.32
 31
0.0
100
AcDbText
 73
         2
  0
TEXT
  5
411
100
AcDbEntity
  8
PIN_NUMBERS_TOP
100
AcDbText
 10
8.762068
 20
11.097496
 30
0.0
 40
0.508
  1
3
  7
COURIER_NEW
 72
         1
 11
8.98
 21
11.32
 31
0.0
100
AcDbText
 73
         2
  0
TEXT
  5
412
100
AcDbEntity
  8
PIN_NUMBERS_TOP
100
AcDbText
 10
10.762068
 20
11.097496
 30
0.0
 40
0.508
  1
5
  7
COURIER_NEW
 72
         1
 11
10.98
 21
11.32
 31
0.0
100
AcDbText
 73
         2
  0
TEXT
  5
413
100
AcDbEntity
  8
PIN_NUMBERS_TOP
100
AcDbText
 10
12.762068
 20
11.097496
 30
0.0
 40
0.508
  1
7
  7
COURIER_NEW
 72
         1
 11
12.98
 21
11.32
 31
0.0
100
AcDbText
 73
         2
  0
TEXT
  5
414
100
AcDbEntity
  8
PIN_NUMBERS_TOP
100
AcDbText
 10
14.762068
 20
11.097496
 30
0.0
 40
0.508
  1
9
  7
COURIER_NEW
 72
         1
 11
14.98
 21
11.32
 31
0.0
100
AcDbText
 73
         2
  0
TEXT
  5
415
100
AcDbEntity
  8
PIN_NUMBERS_TOP
100
AcDbText
 10
16.544136
 20
11.097496
 30
0.0
 40
0.508
  1
11
  7
COURIER_NEW
 72
         1
 11
16.98
 21
11.32
 31
0.0
100
AcDbText
 73
         2
  0
TEXT
  5
416
100
AcDbEntity
  8
PIN_NUMBERS_TOP
100
AcDbText
 10
18.544136
 20
11.097496
 30
0.0
 40
0.508
  1
13
  7
COURIER_NEW
 72
         1
 11
18.98
 21
11.32
 31
0.0
100
AcDbText
 73
         2
  0
TEXT
  5
417
100
AcDbEntity
  8
PIN_NUMBERS_TOP
100
AcDbText
 10
20.544136
 20
11.097496
 30
0.0
 40
0.508
  1
15
  7
COURIER_NEW
 72
         1
 11
20.98
 21
11.32
 31
0.0
100
AcDbText
 73
         2
  0
TEXT
  5
418
100
AcDbEntity
  8
PIN_NUMBERS_TOP
100
AcDbText
 10
22.544136
 20
11.097496
 30
0.0
 40
0.508
  1
17
  7
COURIER_NEW
 72
         1
 11
22.98
 21
11.32
 31
0.0
100
AcDbText
 73
         2
  0
TEXT
  5
419
100
AcDbEntity
  8
PIN_NUMBERS_TOP
100
AcDbText
 10
24.544136
 20
11.097496
 30
0.0
 40
0.508
  1
19
  7
COURIER_NEW
 72
         1
 11
24.98
 21
11.32
 31
0.0
100
AcDbText
 73
         2
  0
TEXT
  5
41A
100
AcDbEntity
  8
PIN_NUMBERS_TOP
100
AcDbText
 10
26.544136
 20
11.097496
 30
0.0
 40
0.508
  1
21
  7
COURIER_NEW
 72
         1
 11
26.98
 21
11.32
 31
0.0
100
AcDbText
 73
         2
  0
TEXT
  5
41B
100
AcDbEntity
  8
PIN_NUMBERS_TOP
100
AcDbText
 10
28.544136
 20
11.097496
 30
0.0
 40
0.508
  1
23
  7
COURIER_NEW
 72
         1
 11
28.98
 21
11.32
 31
0.0
100
AcDbText
 73
         2
  0
TEXT
  5
41C
100
AcDbEntity
  8
PIN_NUMBERS_TOP
100
AcDbText
 10
30.544136
 20
11.097496
 30
0.0
 40
0.508
  1
25
  7
COURIER_NEW
 72
         1
 11
30.98
 21
11.32
 31
0.0
100
AcDbText
 73
         2
  0
TEXT
  5
41D
100
AcDbEntity
  8
PIN_NUMBERS_TOP
100
AcDbText
 10
32.544136
 20
11.097496
 30
0.0
 40
0.508
  1
27
  7
COURIER_NEW
 72
         1
 11
32.98
 21
11.32
 31
0.0
100
AcDbText
 73
         2
  0
TEXT
  5
41E
100
AcDbEntity
  8
PIN_NUMBERS_TOP
100
AcDbText
 10
34.544136
 20
11.097496
 30
0.0
 40
0.508
  1
29
  7
COURIER_NEW
 72
         1
 11
34.98
 21
11.32
 31
0.0
100
AcDbText
 73
         2
  0
TEXT
  5
41F
100
AcDbEntity
  8
PIN_NUMBERS_TOP
100
AcDbText
 10
36.544136
 20
11.097496
 30
0.0
 40
0.508
  1
31
  7
COURIER_NEW
 72
         1
 11
36.98
 21
11.32
 31
0.0
100
AcDbText
 73
         2
  0
TEXT
  5
420
100
AcDbEntity
  8
PIN_NUMBERS_TOP
100
AcDbText
 10
38.544136
 20
11.097496
 30
0.0
 40
0.508
  1
33
  7
COURIER_NEW
 72
         1
 11
38.98
 21
11.32
 31
0.0
100
AcDbText
 73
         2
  0
TEXT
  5
421
100
AcDbEntity
  8
PIN_NUMBERS_TOP
100
AcDbText
 10
40.544136
 20
11.097496
 30
0.0
 40
0.508
  1
35
  7
COURIER_NEW
 72
         1
 11
40.98
 21
11.32
 31
0.0
100
AcDbText
 73
         2
  0
TEXT
  5
422
100
AcDbEntity
  8
PIN_NUMBERS_TOP
100
AcDbText
 10
42.544136
 20
11.097496
 30
0.0
 40
0.508
  1
37
  7
COURIER_NEW
 72
         1
 11
42.98
 21
11.32
 31
0.0
100
AcDbText
 73
         2
  0
TEXT
  5
423
100
AcDbEntity
  8
PIN_NUMBERS_TOP
100
AcDbText
 10
44.544136
 20
11.097496
 30
0.0
 40
0.508
  1
39
  7
COURIER_NEW
 72
         1
 11
44.98
 21
11.32
 31
0.0
100
AcDbText
 73
         2
  0
TEXT
  5
424
100
AcDbEntity
  8
PIN_NUMBERS_TOP
100
AcDbText
 10
46.544136
 20
11.097496
 30
0.0
 40
0.508
  1
41
  7
COURIER_NEW
 72
         1
 11
46.98
 21
11.32
 31
0.0
100
AcDbText
 73
         2
  0
TEXT
  5
425
100
AcDbEntity
  8
PIN_NUMBERS_TOP
100
AcDbText
 10
48.544136
 20
11.097496
 30
0.0
 40
0.508
  1
43
  7
COURIER_NEW
 72
         1
 11
48.98
 21
11.32
 31
0.0
100
AcDbText
 73
         2
  0
TEXT
  5
426
100
AcDbEntity
  8
PIN_NUMBERS_TOP
100
AcDbText
 10
50.544136
 20
11.097496
 30
0.0
 40
0.508
  1
45
  7
COURIER_NEW
 72
         1
 11
50.98
 21
11.32
 31
0.0
100
AcDbText
 73
         2
  0
TEXT
  5
427
100
AcDbEntity
  8
PIN_NUMBERS_TOP
100
AcDbText
 10
52.544136
 20
11.097496
 30
0.0
 40
0.508
  1
47
  7
COURIER_NEW
 72
         1
 11
52.98
 21
11.32
 31
0.0
100
AcDbText
 73
         2
  0
TEXT
  5
428
100
AcDbEntity
  8
PIN_NUMBERS_TOP
100
AcDbText
 10
54.544136
 20
11.097496
 30
0.0
 40
0.508
  1
49
  7
COURIER_NEW
 72
         1
 11
54.98
 21
11.32
 31
0.0
100
AcDbText
 73
         2
  0
TEXT
  5
429
100
AcDbEntity
  8
PIN_NUMBERS_TOP
100
AcDbText
 10
56.544136
 20
11.097496
 30
0.0
 40
0.508
  1
51
  7
COURIER_NEW
 72
         1
 11
56.98
 21
11.32
 31
0.0
100
AcDbText
 73
         2
  0
TEXT
  5
42A
100
AcDbEntity
  8
PIN_NUMBERS_TOP
100
AcDbText
 10
58.544136
 20
11.097496
 30
0.0
 40
0.508
  1
53
  7
COURIER_NEW
 72
         1
 11
58.98
 21
11.32
 31
0.0
100
AcDbText
 73
         2
  0
TEXT
  5
42B
100
AcDbEntity
  8
PIN_NUMBERS_TOP
100
AcDbText
 10
60.544136
 20
11.097496
 30
0.0
 40
0.508
  1
55
  7
COURIER_NEW
 72
         1
 11
60.98
 21
11.32
 31
0.0
100
AcDbText
 73
         2
  0
TEXT
  5
42C
100
AcDbEntity
  8
PIN_NUMBERS_TOP
100
AcDbText
 10
62.544136
 20
11.097496
 30
0.0
 40
0.508
  1
57
  7
COURIER_NEW
 72
         1
 11
62.98
 21
11.32
 31
0.0
100
AcDbText
 73
         2
  0
TEXT
  5
42D
100
AcDbEntity
  8
PIN_NUMBERS_TOP
100
AcDbText
 10
64.544136
 20
11.097496
 30
0.0
 40
0.508
  1
59
  7
COURIER_NEW
 72
         1
 11
64.98
 21
11.32
 31
0.0
100
AcDbText
 73
         2
  0
TEXT
  5
42E
100
AcDbEntity
  8
PIN_NUMBERS_TOP
100
AcDbText
 10
6.762068
 20
9.097496
 30
0.0
 40
0.508
  1
2
  7
COURIER_NEW
 72
         1
 11
6.98
 21
9.32
 31
0.0
100
AcDbText
 73
         2
  0
TEXT
  5
42F
100
AcDbEntity
  8
PIN_NUMBERS_TOP
100
AcDbText
 10
8.762068
 20
9.097496
 30
0.0
 40
0.508
  1
4
  7
COURIER_NEW
 72
         1
 11
8.98
 21
9.32
 31
0.0
100
AcDbText
 73
         2
  0
TEXT
  5
430
100
AcDbEntity
  8
PIN_NUMBERS_TOP
100
AcDbText
 10
10.762068
 20
9.097496
 30
0.0
 40
0.508
  1
6
  7
COURIER_NEW
 72
         1
 11
10.98
 21
9.32
 31
0.0
100
AcDbText
 73
         2
  0
TEXT
  5
431
100
AcDbEntity
  8
PIN_NUMBERS_TOP
100
AcDbText
 10
12.762068
 20
9.097496
 30
0.0
 40
0.508
  1
8
  7
COURIER_NEW
 72
         1
 11
12.98
 21
9.32
 31
0.0
100
AcDbText
 73
         2
  0
TEXT
  5
432
100
AcDbEntity
  8
PIN_NUMBERS_TOP
100
AcDbText
 10
14.544136
 20
9.097496
 30
0.0
 40
0.508
  1
10
  7
COURIER_NEW
 72
         1
 11
14.98
 21
9.32
 31
0.0
100
AcDbText
 73
         2
  0
TEXT
  5
433
100
AcDbEntity
  8
PIN_NUMBERS_TOP
100
AcDbText
 10
16.544136
 20
9.097496
 30
0.0
 40
0.508
  1
12
  7
COURIER_NEW
 72
         1
 11
16.98
 21
9.32
 31
0.0
100
AcDbText
 73
         2
  0
TEXT
  5
434
100
AcDbEntity
  8
PIN_NUMBERS_TOP
100
AcDbText
 10
18.544136
 20
9.097496
 30
0.0
 40
0.508
  1
14
  7
COURIER_NEW
 72
         1
 11
18.98
 21
9.32
 31
0.0
100
AcDbText
 73
         2
  0
TEXT
  5
435
100
AcDbEntity
  8
PIN_NUMBERS_TOP
100
AcDbText
 10
20.544136
 20
9.097496
 30
0.0
 40
0.508
  1
16
  7
COURIER_NEW
 72
         1
 11
20.98
 21
9.32
 31
0.0
100
AcDbText
 73
         2
  0
TEXT
  5
436
100
AcDbEntity
  8
PIN_NUMBERS_TOP
100
AcDbText
 10
22.544136
 20
9.097496
 30
0.0
 40
0.508
  1
18
  7
COURIER_NEW
 72
         1
 11
22.98
 21
9.32
 31
0.0
100
AcDbText
 73
         2
  0
TEXT
  5
437
100
AcDbEntity
  8
PIN_NUMBERS_TOP
100
AcDbText
 10
24.544136
 20
9.097496
 30
0.0
 40
0.508
  1
20
  7
COURIER_NEW
 72
         1
 11
24.98
 21
9.32
 31
0.0
100
AcDbText
 73
         2
  0
TEXT
  5
438
100
AcDbEntity
  8
PIN_NUMBERS_TOP
100
AcDbText
 10
26.544136
 20
9.097496
 30
0.0
 40
0.508
  1
22
  7
COURIER_NEW
 72
         1
 11
26.98
 21
9.32
 31
0.0
100
AcDbText
 73
         2
  0
TEXT
  5
439
100
AcDbEntity
  8
PIN_NUMBERS_TOP
100
AcDbText
 10
28.544136
 20
9.097496
 30
0.0
 40
0.508
  1
24
  7
COURIER_NEW
 72
         1
 11
28.98
 21
9.32
 31
0.0
100
AcDbText
 73
         2
  0
TEXT
  5
43A
100
AcDbEntity
  8
PIN_NUMBERS_TOP
100
AcDbText
 10
30.544136
 20
9.097496
 30
0.0
 40
0.508
  1
26
  7
COURIER_NEW
 72
         1
 11
30.98
 21
9.32
 31
0.0
100
AcDbText
 73
         2
  0
TEXT
  5
43B
100
AcDbEntity
  8
PIN_NUMBERS_TOP
100
AcDbText
 10
32.544136
 20
9.097496
 30
0.0
 40
0.508
  1
28
  7
COURIER_NEW
 72
         1
 11
32.98
 21
9.32
 31
0.0
100
AcDbText
 73
         2
  0
TEXT
  5
43C
100
AcDbEntity
  8
PIN_NUMBERS_TOP
100
AcDbText
 10
34.544136
 20
9.097496
 30
0.0
 40
0.508
  1
30
  7
COURIER_NEW
 72
         1
 11
34.98
 21
9.32
 31
0.0
100
AcDbText
 73
         2
  0
TEXT
  5
43D
100
AcDbEntity
  8
PIN_NUMBERS_TOP
100
AcDbText
 10
36.544136
 20
9.097496
 30
0.0
 40
0.508
  1
32
  7
COURIER_NEW
 72
         1
 11
36.98
 21
9.32
 31
0.0
100
AcDbText
 73
         2
  0
TEXT
  5
43E
100
AcDbEntity
  8
PIN_NUMBERS_TOP
100
AcDbText
 10
38.544136
 20
9.097496
 30
0.0
 40
0.508
  1
34
  7
COURIER_NEW
 72
         1
 11
38.98
 21
9.32
 31
0.0
100
AcDbText
 73
         2
  0
TEXT
  5
43F
100
AcDbEntity
  8
PIN_NUMBERS_TOP
100
AcDbText
 10
40.544136
 20
9.097496
 30
0.0
 40
0.508
  1
36
  7
COURIER_NEW
 72
         1
 11
40.98
 21
9.32
 31
0.0
100
AcDbText
 73
         2
  0
TEXT
  5
440
100
AcDbEntity
  8
PIN_NUMBERS_TOP
100
AcDbText
 10
42.544136
 20
9.097496
 30
0.0
 40
0.508
  1
38
  7
COURIER_NEW
 72
         1
 11
42.98
 21
9.32
 31
0.0
100
AcDbText
 73
         2
  0
TEXT
  5
441
100
AcDbEntity
  8
PIN_NUMBERS_TOP
100
AcDbText
 10
44.544136
 20
9.097496
 30
0.0
 40
0.508
  1
40
  7
COURIER_NEW
 72
         1
 11
44.98
 21
9.32
 31
0.0
100
AcDbText
 73
         2
  0
TEXT
  5
442
100
AcDbEntity
  8
PIN_NUMBERS_TOP
100
AcDbText
 10
46.544136
 20
9.097496
 30
0.0
 40
0.508
  1
42
  7
COURIER_NEW
 72
         1
 11
46.98
 21
9.32
 31
0.0
100
AcDbText
 73
         2
  0
TEXT
  5
443
100
AcDbEntity
  8
PIN_NUMBERS_TOP
100
AcDbText
 10
48.544136
 20
9.097496
 30
0.0
 40
0.508
  1
44
  7
COURIER_NEW
 72
         1
 11
48.98
 21
9.32
 31
0.0
100
AcDbText
 73
         2
  0
TEXT
  5
444
100
AcDbEntity
  8
PIN_NUMBERS_TOP
100
AcDbText
 10
50.544136
 20
9.097496
 30
0.0
 40
0.508
  1
46
  7
COURIER_NEW
 72
         1
 11
50.98
 21
9.32
 31
0.0
100
AcDbText
 73
         2
  0
TEXT
  5
445
100
AcDbEntity
  8
PIN_NUMBERS_TOP
100
AcDbText
 10
52.544136
 20
9.097496
 30
0.0
 40
0.508
  1
48
  7
COURIER_NEW
 72
         1
 11
52.98
 21
9.32
 31
0.0
100
AcDbText
 73
         2
  0
TEXT
  5
446
100
AcDbEntity
  8
PIN_NUMBERS_TOP
100
AcDbText
 10
54.544136
 20
9.097496
 30
0.0
 40
0.508
  1
50
  7
COURIER_NEW
 72
         1
 11
54.98
 21
9.32
 31
0.0
100
AcDbText
 73
         2
  0
TEXT
  5
447
100
AcDbEntity
  8
PIN_NUMBERS_TOP
100
AcDbText
 10
56.544136
 20
9.097496
 30
0.0
 40
0.508
  1
52
  7
COURIER_NEW
 72
         1
 11
56.98
 21
9.32
 31
0.0
100
AcDbText
 73
         2
  0
TEXT
  5
448
100
AcDbEntity
  8
PIN_NUMBERS_TOP
100
AcDbText
 10
58.544136
 20
9.097496
 30
0.0
 40
0.508
  1
54
  7
COURIER_NEW
 72
         1
 11
58.98
 21
9.32
 31
0.0
100
AcDbText
 73
         2
  0
TEXT
  5
449
100
AcDbEntity
  8
PIN_NUMBERS_TOP
100
AcDbText
 10
60.544136
 20
9.097496
 30
0.0
 40
0.508
  1
56
  7
COURIER_NEW
 72
         1
 11
60.98
 21
9.32
 31
0.0
100
AcDbText
 73
         2
  0
TEXT
  5
44A
100
AcDbEntity
  8
PIN_NUMBERS_TOP
100
AcDbText
 10
62.544136
 20
9.097496
 30
0.0
 40
0.508
  1
58
  7
COURIER_NEW
 72
         1
 11
62.98
 21
9.32
 31
0.0
100
AcDbText
 73
         2
  0
TEXT
  5
44B
100
AcDbEntity
  8
PIN_NUMBERS_TOP
100
AcDbText
 10
64.544136
 20
9.097496
 30
0.0
 40
0.508
  1
60
  7
COURIER_NEW
 72
         1
 11
64.98
 21
9.32
 31
0.0
100
AcDbText
 73
         2
  0
TEXT
  5
44C
100
AcDbEntity
  8
PIN_NUMBERS_TOP
100
AcDbText
 10
68.862068
 20
2.837496
 30
0.0
 40
0.508
  1
1
  7
COURIER_NEW
 72
         1
 11
69.08
 21
3.06
 31
0.0
100
AcDbText
 73
         2
  0
TEXT
  5
44D
100
AcDbEntity
  8
PIN_NUMBERS_TOP
100
AcDbText
 10
6.762068
 20
3.937496
 30
0.0
 40
0.508
  1
1
  7
COURIER_NEW
 72
         1
 11
6.98
 21
4.16
 31
0.0
100
AcDbText
 73
         2
  0
TEXT
  5
44E
100
AcDbEntity
  8
PIN_NUMBERS_TOP
100
AcDbText
 10
6.762068
 20
1.937496
 30
0.0
 40
0.508
  1
2
  7
COURIER_NEW
 72
         1
 11
6.98
 21
2.16
 31
0.0
100
AcDbText
 73
         2
  0
TEXT
  5
44F
100
AcDbEntity
  8
PIN_NUMBERS_TOP
100
AcDbText
 10
8.762068
 20
3.937496
 30
0.0
 40
0.508
  1
3
  7
COURIER_NEW
 72
         1
 11
8.98
 21
4.16
 31
0.0
100
AcDbText
 73
         2
  0
TEXT
  5
450
100
AcDbEntity
  8
PIN_NUMBERS_TOP
100
AcDbText
 10
8.762068
 20
1.937496
 30
0.0
 40
0.508
  1
4
  7
COURIER_NEW
 72
         1
 11
8.98
 21
2.16
 31
0.0
100
AcDbText
 73
         2
  0
TEXT
  5
451
100
AcDbEntity
  8
PIN_NUMBERS_TOP
100
AcDbText
 10
10.762068
 20
3.937496
 30
0.0
 40
0.508
  1
5
  7
COURIER_NEW
 72
         1
 11
10.98
 21
4.16
 31
0.0
100
AcDbText
 73
         2
  0
TEXT
  5
452
100
AcDbEntity
  8
PIN_NUMBERS_TOP
100
AcDbText
 10
10.762068
 20
1.937496
 30
0.0
 40
0.508
  1
6
  7
COURIER_NEW
 72
         1
 11
10.98
 21
2.16
 31
0.0
100
AcDbText
 73
         2
  0
TEXT
  5
453
100
AcDbEntity
  8
PIN_NUMBERS_TOP
100
AcDbText
 10
12.762068
 20
3.937496
 30
0.0
 40
0.508
  1
7
  7
COURIER_NEW
 72
         1
 11
12.98
 21
4.16
 31
0.0
100
AcDbText
 73
         2
  0
TEXT
  5
454
100
AcDbEntity
  8
PIN_NUMBERS_TOP
100
AcDbText
 10
12.762068
 20
1.937496
 30
0.0
 40
0.508
  1
8
  7
COURIER_NEW
 72
         1
 11
12.98
 21
2.16
 31
0.0
100
AcDbText
 73
         2
  0
TEXT
  5
455
100
AcDbEntity
  8
PIN_NUMBERS_TOP
100
AcDbText
 10
14.762068
 20
3.937496
 30
0.0
 40
0.508
  1
9
  7
COURIER_NEW
 72
         1
 11
14.98
 21
4.16
 31
0.0
100
AcDbText
 73
         2
  0
TEXT
  5
456
100
AcDbEntity
  8
PIN_NUMBERS_TOP
100
AcDbText
 10
14.544136
 20
1.937496
 30
0.0
 40
0.508
  1
10
  7
COURIER_NEW
 72
         1
 11
14.98
 21
2.16
 31
0.0
100
AcDbText
 73
         2
  0
TEXT
  5
457
100
AcDbEntity
  8
PIN_NUMBERS_TOP
100
AcDbText
 10
16.544136
 20
3.937496
 30
0.0
 40
0.508
  1
11
  7
COURIER_NEW
 72
         1
 11
16.98
 21
4.16
 31
0.0
100
AcDbText
 73
         2
  0
TEXT
  5
458
100
AcDbEntity
  8
PIN_NUMBERS_TOP
100
AcDbText
 10
16.544136
 20
1.937496
 30
0.0
 40
0.508
  1
12
  7
COURIER_NEW
 72
         1
 11
16.98
 21
2.16
 31
0.0
100
AcDbText
 73
         2
  0
TEXT
  5
459
100
AcDbEntity
  8
PIN_NUMBERS_TOP
100
AcDbText
 10
18.544136
 20
3.937496
 30
0.0
 40
0.508
  1
13
  7
COURIER_NEW
 72
         1
 11
18.98
 21
4.16
 31
0.0
100
AcDbText
 73
         2
  0
TEXT
  5
45A
100
AcDbEntity
  8
PIN_NUMBERS_TOP
100
AcDbText
 10
18.544136
 20
1.937496
 30
0.0
 40
0.508
  1
14
  7
COURIER_NEW
 72
         1
 11
18.98
 21
2.16
 31
0.0
100
AcDbText
 73
         2
  0
TEXT
  5
45B
100
AcDbEntity
  8
PIN_NUMBERS_TOP
100
AcDbText
 10
20.544136
 20
3.937496
 30
0.0
 40
0.508
  1
15
  7
COURIER_NEW
 72
         1
 11
20.98
 21
4.16
 31
0.0
100
AcDbText
 73
         2
  0
TEXT
  5
45C
100
AcDbEntity
  8
PIN_NUMBERS_TOP
100
AcDbText
 10
20.544136
 20
1.937496
 30
0.0
 40
0.508
  1
16
  7
COURIER_NEW
 72
         1
 11
20.98
 21
2.16
 31
0.0
100
AcDbText
 73
         2
  0
TEXT
  5
45D
100
AcDbEntity
  8
PIN_NUMBERS_TOP
100
AcDbText
 10
22.544136
 20
3.937496
 30
0.0
 40
0.508
  1
17
  7
COURIER_NEW
 72
         1
 11
22.98
 21
4.16
 31
0.0
100
AcDbText
 73
         2
  0
TEXT
  5
45E
100
AcDbEntity
  8
PIN_NUMBERS_TOP
100
AcDbText
 10
22.544136
 20
1.937496
 30
0.0
 40
0.508
  1
18
  7
COURIER_NEW
 72
         1
 11
22.98
 21
2.16
 31
0.0
100
AcDbText
 73
         2
  0
TEXT
  5
45F
100
AcDbEntity
  8
PIN_NUMBERS_TOP
100
AcDbText
 10
24.544136
 20
3.937496
 30
0.0
 40
0.508
  1
19
  7
COURIER_NEW
 72
         1
 11
24.98
 21
4.16
 31
0.0
100
AcDbText
 73
         2
  0
TEXT
  5
460
100
AcDbEntity
  8
PIN_NUMBERS_TOP
100
AcDbText
 10
24.544136
 20
1.937496
 30
0.0
 40
0.508
  1
20
  7
COURIER_NEW
 72
         1
 11
24.98
 21
2.16
 31
0.0
100
AcDbText
 73
         2
  0
TEXT
  5
461
100
AcDbEntity
  8
PIN_NUMBERS_TOP
100
AcDbText
 10
26.544136
 20
3.937496
 30
0.0
 40
0.508
  1
21
  7
COURIER_NEW
 72
         1
 11
26.98
 21
4.16
 31
0.0
100
AcDbText
 73
         2
  0
TEXT
  5
462
100
AcDbEntity
  8
PIN_NUMBERS_TOP
100
AcDbText
 10
26.544136
 20
1.937496
 30
0.0
 40
0.508
  1
22
  7
COURIER_NEW
 72
         1
 11
26.98
 21
2.16
 31
0.0
100
AcDbText
 73
         2
  0
TEXT
  5
463
100
AcDbEntity
  8
PIN_NUMBERS_TOP
100
AcDbText
 10
28.544136
 20
3.937496
 30
0.0
 40
0.508
  1
23
  7
COURIER_NEW
 72
         1
 11
28.98
 21
4.16
 31
0.0
100
AcDbText
 73
         2
  0
TEXT
  5
464
100
AcDbEntity
  8
PIN_NUMBERS_TOP
100
AcDbText
 10
28.544136
 20
1.937496
 30
0.0
 40
0.508
  1
24
  7
COURIER_NEW
 72
         1
 11
28.98
 21
2.16
 31
0.0
100
AcDbText
 73
         2
  0
TEXT
  5
465
100
AcDbEntity
  8
PIN_NUMBERS_TOP
100
AcDbText
 10
30.544136
 20
3.937496
 30
0.0
 40
0.508
  1
25
  7
COURIER_NEW
 72
         1
 11
30.98
 21
4.16
 31
0.0
100
AcDbText
 73
         2
  0
TEXT
  5
466
100
AcDbEntity
  8
PIN_NUMBERS_TOP
100
AcDbText
 10
30.544136
 20
1.937496
 30
0.0
 40
0.508
  1
26
  7
COURIER_NEW
 72
         1
 11
30.98
 21
2.16
 31
0.0
100
AcDbText
 73
         2
  0
TEXT
  5
467
100
AcDbEntity
  8
PIN_NUMBERS_TOP
100
AcDbText
 10
32.544136
 20
3.937496
 30
0.0
 40
0.508
  1
27
  7
COURIER_NEW
 72
         1
 11
32.98
 21
4.16
 31
0.0
100
AcDbText
 73
         2
  0
TEXT
  5
468
100
AcDbEntity
  8
PIN_NUMBERS_TOP
100
AcDbText
 10
32.544136
 20
1.937496
 30
0.0
 40
0.508
  1
28
  7
COURIER_NEW
 72
         1
 11
32.98
 21
2.16
 31
0.0
100
AcDbText
 73
         2
  0
TEXT
  5
469
100
AcDbEntity
  8
PIN_NUMBERS_TOP
100
AcDbText
 10
34.544136
 20
3.937496
 30
0.0
 40
0.508
  1
29
  7
COURIER_NEW
 72
         1
 11
34.98
 21
4.16
 31
0.0
100
AcDbText
 73
         2
  0
TEXT
  5
46A
100
AcDbEntity
  8
PIN_NUMBERS_TOP
100
AcDbText
 10
34.544136
 20
1.937496
 30
0.0
 40
0.508
  1
30
  7
COURIER_NEW
 72
         1
 11
34.98
 21
2.16
 31
0.0
100
AcDbText
 73
         2
  0
TEXT
  5
46B
100
AcDbEntity
  8
PIN_NUMBERS_TOP
100
AcDbText
 10
36.544136
 20
3.937496
 30
0.0
 40
0.508
  1
31
  7
COURIER_NEW
 72
         1
 11
36.98
 21
4.16
 31
0.0
100
AcDbText
 73
         2
  0
TEXT
  5
46C
100
AcDbEntity
  8
PIN_NUMBERS_TOP
100
AcDbText
 10
36.544136
 20
1.937496
 30
0.0
 40
0.508
  1
32
  7
COURIER_NEW
 72
         1
 11
36.98
 21
2.16
 31
0.0
100
AcDbText
 73
         2
  0
TEXT
  5
46D
100
AcDbEntity
  8
PIN_NUMBERS_TOP
100
AcDbText
 10
38.544136
 20
3.937496
 30
0.0
 40
0.508
  1
33
  7
COURIER_NEW
 72
         1
 11
38.98
 21
4.16
 31
0.0
100
AcDbText
 73
         2
  0
TEXT
  5
46E
100
AcDbEntity
  8
PIN_NUMBERS_TOP
100
AcDbText
 10
38.544136
 20
1.937496
 30
0.0
 40
0.508
  1
34
  7
COURIER_NEW
 72
         1
 11
38.98
 21
2.16
 31
0.0
100
AcDbText
 73
         2
  0
TEXT
  5
46F
100
AcDbEntity
  8
PIN_NUMBERS_TOP
100
AcDbText
 10
40.544136
 20
3.937496
 30
0.0
 40
0.508
  1
35
  7
COURIER_NEW
 72
         1
 11
40.98
 21
4.16
 31
0.0
100
AcDbText
 73
         2
  0
TEXT
  5
470
100
AcDbEntity
  8
PIN_NUMBERS_TOP
100
AcDbText
 10
40.544136
 20
1.937496
 30
0.0
 40
0.508
  1
36
  7
COURIER_NEW
 72
         1
 11
40.98
 21
2.16
 31
0.0
100
AcDbText
 73
         2
  0
TEXT
  5
471
100
AcDbEntity
  8
PIN_NUMBERS_TOP
100
AcDbText
 10
42.544136
 20
3.937496
 30
0.0
 40
0.508
  1
37
  7
COURIER_NEW
 72
         1
 11
42.98
 21
4.16
 31
0.0
100
AcDbText
 73
         2
  0
TEXT
  5
472
100
AcDbEntity
  8
PIN_NUMBERS_TOP
100
AcDbText
 10
42.544136
 20
1.937496
 30
0.0
 40
0.508
  1
38
  7
COURIER_NEW
 72
         1
 11
42.98
 21
2.16
 31
0.0
100
AcDbText
 73
         2
  0
TEXT
  5
473
100
AcDbEntity
  8
PIN_NUMBERS_TOP
100
AcDbText
 10
44.544136
 20
3.937496
 30
0.0
 40
0.508
  1
39
  7
COURIER_NEW
 72
         1
 11
44.98
 21
4.16
 31
0.0
100
AcDbText
 73
         2
  0
TEXT
  5
474
100
AcDbEntity
  8
PIN_NUMBERS_TOP
100
AcDbText
 10
44.544136
 20
1.937496
 30
0.0
 40
0.508
  1
40
  7
COURIER_NEW
 72
         1
 11
44.98
 21
2.16
 31
0.0
100
AcDbText
 73
         2
  0
TEXT
  5
475
100
AcDbEntity
  8
PIN_NUMBERS_TOP
100
AcDbText
 10
46.544136
 20
3.937496
 30
0.0
 40
0.508
  1
41
  7
COURIER_NEW
 72
         1
 11
46.98
 21
4.16
 31
0.0
100
AcDbText
 73
         2
  0
TEXT
  5
476
100
AcDbEntity
  8
PIN_NUMBERS_TOP
100
AcDbText
 10
46.544136
 20
1.937496
 30
0.0
 40
0.508
  1
42
  7
COURIER_NEW
 72
         1
 11
46.98
 21
2.16
 31
0.0
100
AcDbText
 73
         2
  0
TEXT
  5
477
100
AcDbEntity
  8
PIN_NUMBERS_TOP
100
AcDbText
 10
48.544136
 20
3.937496
 30
0.0
 40
0.508
  1
43
  7
COURIER_NEW
 72
         1
 11
48.98
 21
4.16
 31
0.0
100
AcDbText
 73
         2
  0
TEXT
  5
478
100
AcDbEntity
  8
PIN_NUMBERS_TOP
100
AcDbText
 10
48.544136
 20
1.937496
 30
0.0
 40
0.508
  1
44
  7
COURIER_NEW
 72
         1
 11
48.98
 21
2.16
 31
0.0
100
AcDbText
 73
         2
  0
TEXT
  5
479
100
AcDbEntity
  8
PIN_NUMBERS_TOP
100
AcDbText
 10
50.544136
 20
3.937496
 30
0.0
 40
0.508
  1
45
  7
COURIER_NEW
 72
         1
 11
50.98
 21
4.16
 31
0.0
100
AcDbText
 73
         2
  0
TEXT
  5
47A
100
AcDbEntity
  8
PIN_NUMBERS_TOP
100
AcDbText
 10
50.544136
 20
1.937496
 30
0.0
 40
0.508
  1
46
  7
COURIER_NEW
 72
         1
 11
50.98
 21
2.16
 31
0.0
100
AcDbText
 73
         2
  0
TEXT
  5
47B
100
AcDbEntity
  8
PIN_NUMBERS_TOP
100
AcDbText
 10
52.544136
 20
3.937496
 30
0.0
 40
0.508
  1
47
  7
COURIER_NEW
 72
         1
 11
52.98
 21
4.16
 31
0.0
100
AcDbText
 73
         2
  0
TEXT
  5
47C
100
AcDbEntity
  8
PIN_NUMBERS_TOP
100
AcDbText
 10
52.544136
 20
1.937496
 30
0.0
 40
0.508
  1
48
  7
COURIER_NEW
 72
         1
 11
52.98
 21
2.16
 31
0.0
100
AcDbText
 73
         2
  0
TEXT
  5
47D
100
AcDbEntity
  8
PIN_NUMBERS_TOP
100
AcDbText
 10
54.544136
 20
3.937496
 30
0.0
 40
0.508
  1
49
  7
COURIER_NEW
 72
         1
 11
54.98
 21
4.16
 31
0.0
100
AcDbText
 73
         2
  0
TEXT
  5
47E
100
AcDbEntity
  8
PIN_NUMBERS_TOP
100
AcDbText
 10
54.544136
 20
1.937496
 30
0.0
 40
0.508
  1
50
  7
COURIER_NEW
 72
         1
 11
54.98
 21
2.16
 31
0.0
100
AcDbText
 73
         2
  0
TEXT
  5
47F
100
AcDbEntity
  8
PIN_NUMBERS_TOP
100
AcDbText
 10
56.544136
 20
3.937496
 30
0.0
 40
0.508
  1
51
  7
COURIER_NEW
 72
         1
 11
56.98
 21
4.16
 31
0.0
100
AcDbText
 73
         2
  0
TEXT
  5
480
100
AcDbEntity
  8
PIN_NUMBERS_TOP
100
AcDbText
 10
56.544136
 20
1.937496
 30
0.0
 40
0.508
  1
52
  7
COURIER_NEW
 72
         1
 11
56.98
 21
2.16
 31
0.0
100
AcDbText
 73
         2
  0
TEXT
  5
481
100
AcDbEntity
  8
PIN_NUMBERS_TOP
100
AcDbText
 10
58.544136
 20
3.937496
 30
0.0
 40
0.508
  1
53
  7
COURIER_NEW
 72
         1
 11
58.98
 21
4.16
 31
0.0
100
AcDbText
 73
         2
  0
TEXT
  5
482
100
AcDbEntity
  8
PIN_NUMBERS_TOP
100
AcDbText
 10
58.544136
 20
1.937496
 30
0.0
 40
0.508
  1
54
  7
COURIER_NEW
 72
         1
 11
58.98
 21
2.16
 31
0.0
100
AcDbText
 73
         2
  0
TEXT
  5
483
100
AcDbEntity
  8
PIN_NUMBERS_TOP
100
AcDbText
 10
60.544136
 20
3.937496
 30
0.0
 40
0.508
  1
55
  7
COURIER_NEW
 72
         1
 11
60.98
 21
4.16
 31
0.0
100
AcDbText
 73
         2
  0
TEXT
  5
484
100
AcDbEntity
  8
PIN_NUMBERS_TOP
100
AcDbText
 10
60.544136
 20
1.937496
 30
0.0
 40
0.508
  1
56
  7
COURIER_NEW
 72
         1
 11
60.98
 21
2.16
 31
0.0
100
AcDbText
 73
         2
  0
TEXT
  5
485
100
AcDbEntity
  8
PIN_NUMBERS_TOP
100
AcDbText
 10
62.544136
 20
3.937496
 30
0.0
 40
0.508
  1
57
  7
COURIER_NEW
 72
         1
 11
62.98
 21
4.16
 31
0.0
100
AcDbText
 73
         2
  0
TEXT
  5
486
100
AcDbEntity
  8
PIN_NUMBERS_TOP
100
AcDbText
 10
62.544136
 20
1.937496
 30
0.0
 40
0.508
  1
58
  7
COURIER_NEW
 72
         1
 11
62.98
 21
2.16
 31
0.0
100
AcDbText
 73
         2
  0
TEXT
  5
487
100
AcDbEntity
  8
PIN_NUMBERS_TOP
100
AcDbText
 10
64.544136
 20
3.937496
 30
0.0
 40
0.508
  1
59
  7
COURIER_NEW
 72
         1
 11
64.98
 21
4.16
 31
0.0
100
AcDbText
 73
         2
  0
TEXT
  5
488
100
AcDbEntity
  8
PIN_NUMBERS_TOP
100
AcDbText
 10
64.544136
 20
1.937496
 30
0.0
 40
0.508
  1
60
  7
COURIER_NEW
 72
         1
 11
64.98
 21
2.16
 31
0.0
100
AcDbText
 73
         2
  0
ENDSEC
  0
SECTION
  2
OBJECTS
  0
DICTIONARY
  5
19
100
AcDbDictionary
  3
ACAD_GROUP
350
1A
  3
ACAD_MLINESTYLE
350
1B
  0
DICTIONARY
  5
1A
102
{ACAD_REACTORS
330
19
102
}
100
AcDbDictionary
  0
DICTIONARY
  5
1B
102
{ACAD_REACTORS
330
19
102
}
100
AcDbDictionary
  3
STANDARD
350
1C
  0
MLINESTYLE
  5
1C
102
{ACAD_REACTORS
330
1B
102
}
100
AcDbMlineStyle
  2
STANDARD
 70
         0
  3

 62
         0
 51
90.0
 52
90.0
 71
         2
 49
0.5
 62
       256
  6
BYLAYER
 49
-0.5
 62
       256
  6
BYLAYER
  0
DICTIONARY
  5
22
102
{ACAD_REACTORS
330
19
102
}
100
AcDbDictionary
  0
ENDSEC
  0
EOF
