  0
SECTION
  2
HEADER
  9
$ACADVER
  1
AC1014
  9
$ACADMAINTVER
 70
         0
  9
$DWGCODEPAGE
  3
ANSI_1252
  9
$INSBASE
 10
0.0
 20
0.0
 30
0.0
  9
$EXTMIN
 10
-1305.0
 20
-125.0
 30
0.0
  9
$EXTMAX
 10
72000.0
 20
83635.0
 30
0.0
  9
$LIMMIN
 10
0.0
 20
0.0
  9
$LIMMAX
 10
0.0
 20
0.0
  9
$ORTHOMODE
 70
         0
  9
$REGENMODE
 70
         1
  9
$FILLMODE
 70
         1
  9
$QTEXTMODE
 70
         0
  9
$MIRRTEXT
 70
         1
  9
$DRAGMODE
 70
         2
  9
$LTSCALE
 40
1.0
  9
$OSMODE
 70
         0
  9
$ATTMODE
 70
         1
  9
$TEXTSIZE
 40
0.2
  9
$TRACEWID
 40
0.05
  9
$TEXTSTYLE
  7
STANDARD
  9
$CLAYER
  8
0
  9
$CELTYPE
  6
CONTINUOUS
  9
$CECOLOR
 62
       256
  9
$CELTSCALE
 40
1.0
  9
$DELOBJ
 70
         1
  9
$DISPSILH
 70
         0
  9
$DIMSCALE
 40
1.0
  9
$DIMASZ
 40
0.18
  9
$DIMEXO
 40
0.0625
  9
$DIMDLI
 40
0.38
  9
$DIMRND
 40
0.0
  9
$DIMDLE
 40
0.0
  9
$DIMEXE
 40
0.18
  9
$DIMTP
 40
0.0
  9
$DIMTM
 40
0.0
  9
$DIMTXT
 40
0.18
  9
$DIMCEN
 40
0.09
  9
$DIMTSZ
 40
0.0
  9
$DIMTOL
 70
         0
  9
$DIMLIM
 70
         0
  9
$DIMTIH
 70
         1
  9
$DIMTOH
 70
         1
  9
$DIMSE1
 70
         0
  9
$DIMSE2
 70
         0
  9
$DIMTAD
 70
         0
  9
$DIMZIN
 70
         0
  9
$DIMBLK
  1

  9
$DIMASO
 70
         1
  9
$DIMSHO
 70
         1
  9
$DIMPOST
  1

  9
$DIMAPOST
  1

  9
$DIMALT
 70
         0
  9
$DIMALTD
 70
         2
  9
$DIMALTF
 40
25.4
  9
$DIMLFAC
 40
1.0
  9
$DIMTOFL
 70
         0
  9
$DIMTVP
 40
0.0
  9
$DIMTIX
 70
         0
  9
$DIMSOXD
 70
         0
  9
$DIMSAH
 70
         0
  9
$DIMBLK1
  1

  9
$DIMBLK2
  1

  9
$DIMSTYLE
  2
STANDARD
  9
$DIMCLRD
 70
         0
  9
$DIMCLRE
 70
         0
  9
$DIMCLRT
 70
         0
  9
$DIMTFAC
 40
1.0
  9
$DIMGAP
 40
0.09
  9
$DIMJUST
 70
         0
  9
$DIMSD1
 70
         0
  9
$DIMSD2
 70
         0
  9
$DIMTOLJ
 70
         1
  9
$DIMTZIN
 70
         0
  9
$DIMALTZ
 70
         0
  9
$DIMALTTZ
 70
         0
  9
$DIMFIT
 70
         3
  9
$DIMUPT
 70
         0
  9
$DIMUNIT
 70
         2
  9
$DIMDEC
 70
         4
  9
$DIMTDEC
 70
         4
  9
$DIMALTU
 70
         2
  9
$DIMALTTD
 70
         2
  9
$DIMTXSTY
  7
STANDARD
  9
$DIMAUNIT
 70
         0
  9
$LUNITS
 70
         2
  9
$LUPREC
 70
         4
  9
$SKETCHINC
 40
0.1
  9
$FILLETRAD
 40
0.0
  9
$AUNITS
 70
         0
  9
$AUPREC
 70
         0
  9
$MENU
  1
acad
  9
$ELEVATION
 40
0.0
  9
$PELEVATION
 40
0.0
  9
$THICKNESS
 40
0.0
  9
$LIMCHECK
 70
         0
  9
$BLIPMODE
 70
         1
  9
$CHAMFERA
 40
0.0
  9
$CHAMFERB
 40
0.0
  9
$CHAMFERC
 40
0.0
  9
$CHAMFERD
 40
0.0
  9
$SKPOLY
 70
         0
  9
$TDCREATE
 40
2456645.457523148
  9
$TDUPDATE
 40
0.000000000
  9
$TDINDWG
 40
0.0000000000
  9
$TDUSRTIMER
 40
0.0000000000
  9
$USRTIMER
 70
         1
  9
$ANGBASE
 50
0.0
  9
$ANGDIR
 70
         0
  9
$PDMODE
 70
         0
  9
$PDSIZE
 40
0.0
  9
$PLINEWID
 40
0.0
  9
$COORDS
 70
         0
  9
$SPLFRAME
 70
         0
  9
$SPLINETYPE
 70
         6
  9
$SPLINESEGS
 70
         8
  9
$ATTDIA
 70
         0
  9
$ATTREQ
 70
         1
  9
$HANDLING
 70
         1
  9
$HANDSEED
  5
122
  9
$SURFTAB1
 70
         6
  9
$SURFTAB2
 70
         6
  9
$SURFTYPE
 70
         6
  9
$SURFU
 70
         6
  9
$SURFV
 70
         6
  9
$UCSNAME
  2

  9
$UCSORG
 10
0.0
 20
0.0
 30
0.0
  9
$UCSXDIR
 10
1.0
 20
0.0
 30
0.0
  9
$UCSYDIR
 10
0.0
 20
1.0
 30
0.0
  9
$PUCSNAME
  2

  9
$PUCSORG
 10
0.0
 20
0.0
 30
0.0
  9
$PUCSXDIR
 10
1.0
 20
0.0
 30
0.0
  9
$PUCSYDIR
 10
0.0
 20
1.0
 30
0.0
  9
$USERI1
 70
        -4
  9
$USERI2
 70
         0
  9
$USERI3
 70
         0
  9
$USERI4
 70
         0
  9
$USERI5
 70
         0
  9
$USERR1
 40
0.0
  9
$USERR2
 40
0.0
  9
$USERR3
 40
0.0
  9
$USERR4
 40
0.0
  9
$USERR5
 40
0.0
  9
$WORLDVIEW
 70
         1
  9
$SHADEDGE
 70
         3
  9
$SHADEDIF
 70
        70
  9
$TILEMODE
 70
         1
  9
$MAXACTVP
 70
        16
  9
$PINSBASE
 10
0.0
 20
0.0
 30
0.0
  9
$PLIMCHECK
 70
         0
  9
$PEXTMIN
 10
1.0000000000E+20
 20
1.0000000000E+20
 30
1.0000000000E+20
  9
$PEXTMAX
 10
-1.0000000000E+20
 20
-1.0000000000E+20
 30
-1.0000000000E+20
  9
$PLIMMIN
 10
0.0
 20
0.0
  9
$PLIMMAX
 10
12.0
 20
9.0
  9
$UNITMODE
 70
         0
  9
$VISRETAIN
 70
         0
  9
$PLINEGEN
 70
         1
  9
$PSLTSCALE
 70
         0
  9
$TREEDEPTH
 70
      3020
  9
$PICKSTYLE
 70
         1
  9
$CMLSTYLE
  2
STANDARD
  9
$CMLJUST
 70
         0
  9
$CMLSCALE
 40
1.0
  9
$PROXYGRAPHICS
 70
         0
  9
$MEASUREMENT
 70
         0
  0
ENDSEC
  0
SECTION
  2
CLASSES
  0
CLASS
  1
LWPOLYLINE
  2
AcDbPolyline
  3
"AutoCAD"
 90
        0
280
         0
281
         1
  0
CLASS
  1
IMAGE
  2
AcDbRasterImage
  3
ISM
 90
      127
280
         0
281
         1
  0
CLASS
  1
OLE2FRAME
  2
AcDbOle2Frame
  3
""
 90
        0
280
         0
281
         1
  0
CLASS
  1
HATCH
  2
AcDbHatch
  3
"ACAD_SEDONA"
 90
        0
280
         0
281
         1
  0
CLASS
  1
DICTIONARYVAR
  2
AcDbDictionaryVar
  3
"AutoCAD"
 90
        0
280
         0
281
         0
  0
CLASS
  1
RASTERVARIABLES
  2
AcDbRasterVariables
  3
ISM
 90
        0
280
         0
281
         0
  0
CLASS
  1
IMAGEDEF
  2
AcDbRasterImageDef
  3
ISM
 90
        0
280
         0
281
         0
  0
CLASS
  1
IMAGEDEF_REACTOR
  2
AcDbRasterImageDefReactor
  3
ISM
 90
        1
280
         0
281
         0
  0
CLASS
  1
IDBUFFER
  2
AcDbIdBuffer
  3
"Acad"
 90
        0
280
         0
281
         0
  0
CLASS
  1
SPATIAL_FILTER
  2
AcDbSpatialFilter
  3
"Acad"
 90
        0
280
         0
281
         0
  0
CLASS
  1
XRECORD
  2
AcDbXrecord
  3
"<Built In>"
 90
        0
280
         0
281
         0
  0
CLASS
  1
SORTENTSTABLE
  2
AcDbSortentsTable
  3
"AutoCAD"
 90
        0
280
         0
281
         0
  0
CLASS
  1
LAYER_INDEX
  2
AcDbLayerIndex
  3
"Acad"
 90
        0
280
         0
281
         0
  0
CLASS
  1
SPATIAL_INDEX
  2
AcDbSpatialIndex
  3
"Acad"
 90
        0
280
         0
281
         0
  0
CLASS
  1
OBJECT_PTR
  2
CAseDLPNTableRecord
  3
"ASE-LPNTableRecord"
 90
        1
280
         0
281
         0
  0
CLASS
  1
LAYOUT
  2
AcDbLayout
  3
"AutoCAD 2000"
 90
        0
280
         0
281
         0
  0
CLASS
  1
PLOTSETTINGS
  2
AcDbPlotSettings
  3
"AutoCAD 2000"
 90
        0
280
         0
281
         0
  0
CLASS
  1
ACDBDICTIONARYWDFLT
  2
AcDbDictionaryWithDefault
  3
"AutoCAD 2000"
 90
        0
280
         0
281
         0
  0
CLASS
  1
ACDBPLACEHOLDER
  2
AcDbPlaceHolder
  3
"AutoCAD 2000"
 90
        0
280
         0
281
         0
  0
CLASS
  1
VBA_PROJECT
  2
AcDbVbaProject
  3
"acadvba"
 90
        0
280
         0
281
         0
  0
CLASS
  1
WIPEOUT
  2
AcDbWipeout
  3
WipeOut|AutoCAD Express Tool|expresstools@autodesk.com
 90
      127
280
         0
281
         1
  0
CLASS
  1
WIPEOUTVARIABLES
  2
AcDbWipeoutVariables
  3
WipeOut|AutoCAD Express Tool|expresstools@autodesk.com
 90
        0
280
         0
281
         0
  0
CLASS
  1
RTEXT
  2
RText
  3
RText|AutoCAD Express Tool|expresstools@autodesk.com
 90
        0
280
         0
281
         1
  0
CLASS
  1
ARCALIGNEDTEXT
  2
AcDbArcAlignedText
  3
ATEXT|AutoCAD Express Tool|expresstools@autodesk.com
 90
        0
280
         0
281
         1
  0
ENDSEC
  0
SECTION
  2
TABLES
  0
TABLE
  2
VPORT
  5
7
100
AcDbSymbolTable
 70
         1
  0
VPORT
  5
15
100
AcDbSymbolTableRecord
100
AcDbViewportTableRecord
  2
*ACTIVE
 70
         0
 10
0.0
 20
0.0
 11
1.0
 21
1.0
 12
6.591288
 22
4.579184
 13
0.0
 23
0.0
 14
1.0
 24
1.0
 15
0.0
 25
0.0
 16
0.0
 26
0.0
 36
1.0
 17
0.0
 27
0.0
 37
0.0
 40
9.158369
 41
0.688564
 42
50.0
 43
0.0
 44
0.0
 50
0.0
 51
0.0
 71
         0
 72
       100
 73
         1
 74
         1
 75
         0
 76
         0
 77
         0
 78
         0
  0
ENDTAB
  0
TABLE
  2
LTYPE
  5
4
100
AcDbSymbolTable
 70
         3
  0
LTYPE
  5
11
100
AcDbSymbolTableRecord
100
AcDbLinetypeTableRecord
  2
BYBLOCK
 70
        64
  3

 72
        65
 73
         0
 40
0.0
  0
LTYPE
  5
12
100
AcDbSymbolTableRecord
100
AcDbLinetypeTableRecord
  2
BYLAYER
 70
        64
  3

 72
        65
 73
         0
 40
0.0
  0
LTYPE
  5
13
100
AcDbSymbolTableRecord
100
AcDbLinetypeTableRecord
  2
CONTINUOUS
 70
        64
  3
Solid line
 72
        65
 73
         0
 40
0.0
  0
ENDTAB
  0
TABLE
  2
LAYER
  5
2
100
AcDbSymbolTable
 70
         7
  0
LAYER
  5
14
100
AcDbSymbolTableRecord
100
AcDbLayerTableRecord
  2
0
 70
         0
 62
         7
  6
CONTINUOUS
  0
LAYER
  5
24
100
AcDbSymbolTableRecord
100
AcDbLayerTableRecord
  2
ASSEMBLY_OUTLINES_BTM
 70
         0
 62
       244
  6
CONTINUOUS
  0
LAYER
  5
25
100
AcDbSymbolTableRecord
100
AcDbLayerTableRecord
  2
ASSEMBLY_OUTLINES_TOP
 70
         0
 62
       104
  6
CONTINUOUS
  0
LAYER
  5
26
100
AcDbSymbolTableRecord
100
AcDbLayerTableRecord
  2
ASSEMBLY_REF_DES_BTM
 70
         0
 62
        10
  6
CONTINUOUS
  0
LAYER
  5
27
100
AcDbSymbolTableRecord
100
AcDbLayerTableRecord
  2
ASSEMBLY_REF_DES_TOP
 70
         0
 62
        30
  6
CONTINUOUS
  0
LAYER
  5
28
100
AcDbSymbolTableRecord
100
AcDbLayerTableRecord
  2
BOARD_OUTLINE
 70
         0
 62
        10
  6
CONTINUOUS
  0
LAYER
  5
29
100
AcDbSymbolTableRecord
100
AcDbLayerTableRecord
  2
PART_PADS_SMD_TOP
 70
         0
 62
       170
  6
CONTINUOUS
  0
ENDTAB
  0
TABLE
  2
STYLE
  5
3
100
AcDbSymbolTable
 70
         2
  0
STYLE
  5
17
100
AcDbSymbolTableRecord
100
AcDbTextStyleTableRecord
  2
STANDARD
 70
         0
 40
0.0
 41
1.0
 50
0.0
 71
         0
 42
0.0
  3
txt
  4

  0
STYLE
  5
70
100
AcDbSymbolTableRecord
100
AcDbTextStyleTableRecord
  2
ARIAL
 70
         0
 40
0.0
 41
1.0
 50
0.0
 71
         0
 42
0.0
  3
ARIAL.TTF
  4

  0
ENDTAB
  0
TABLE
  2
VIEW
  5
5
100
AcDbSymbolTable
 70
         0
  0
ENDTAB
  0
TABLE
  2
UCS
  5
6
100
AcDbSymbolTable
 70
         0
  0
ENDTAB
  0
TABLE
  2
APPID
  5
8
100
AcDbSymbolTable
 70
         1
  0
APPID
  5
16
100
AcDbSymbolTableRecord
100
AcDbRegAppTableRecord
  2
ACAD
 70
         0
  0
ENDTAB
  0
TABLE
  2
DIMSTYLE
  5
9
100
AcDbSymbolTable
 70
         1
  0
DIMSTYLE
105
18
100
AcDbSymbolTableRecord
100
AcDbDimStyleTableRecord
  2
STANDARD
 70
         0
  3

  4

  5

  6

  7

 40
1.0
 41
0.18
 42
0.0625
 43
0.38
 44
0.18
 45
0.0
 46
0.0
 47
0.0
 48
0.0
 71
         0
 72
         0
 73
         1
 74
         1
 75
         0
 76
         0
 77
         0
 78
         0
140
0.18
141
0.09
142
0.0
143
25.4
144
1.0
145
0.0
146
1.0
147
0.09
170
         0
171
         2
172
         0
173
         0
174
         0
175
         0
176
         0
177
         0
178
         0
270
         2
271
         4
272
         4
273
         2
274
         2
275
         0
280
         0
281
         0
282
         0
283
         1
284
         0
285
         0
286
         0
287
         3
288
         0
340
17
  0
ENDTAB
  0
TABLE
  2
BLOCK_RECORD
  5
1
100
AcDbSymbolTable
 70
         0
  0
BLOCK_RECORD
  5
A
100
AcDbSymbolTableRecord
100
AcDbBlockTableRecord
  2
*MODEL_SPACE
  0
BLOCK_RECORD
  5
B
100
AcDbSymbolTableRecord
100
AcDbBlockTableRecord
  2
*PAPER_SPACE
  0
ENDTAB
  0
ENDSEC
  0
SECTION
  2
BLOCKS
  0
BLOCK
  5
D
100
AcDbEntity
  8
0
100
AcDbBlockBegin
  2
*MODEL_SPACE
 70
         0
 10
0.0
 20
0.0
 30
0.0
  3
*MODEL_SPACE
  1

  0
ENDBLK
  5
E
100
AcDbEntity
  8
0
100
AcDbBlockEnd
  0
BLOCK
  5
F
100
AcDbEntity
 67
         1
  8
0
100
AcDbBlockBegin
  2
*PAPER_SPACE
 70
         0
 10
0.0
 20
0.0
 30
0.0
  3
*PAPER_SPACE
  1

  0
ENDBLK
  5
10
100
AcDbEntity
 67
         1
  8
0
100
AcDbBlockEnd
  0
ENDSEC
  0
SECTION
  2
ENTITIES
  0
LWPOLYLINE
  5
2A
100
AcDbEntity
  8
ASSEMBLY_OUTLINES_BTM
100
AcDbPolyline
 90
        5
 70
         1
 43
100.0
 10
65916.0
 20
5260.0
 10
65916.0
 20
1060.0
 10
5914.0
 20
1060.0
 10
5914.0
 20
4060.0
 10
7114.0
 20
5260.0
  0
LWPOLYLINE
  5
2B
100
AcDbEntity
  8
ASSEMBLY_OUTLINES_TOP
100
AcDbPolyline
 90
        4
 70
         0
 43
200.0
 10
40900.0
 20
74010.0
 10
40920.0
 20
78885.0
 10
25680.0
 20
78885.0
 10
25680.0
 20
73805.0
  0
LWPOLYLINE
  5
2C
100
AcDbEntity
  8
ASSEMBLY_OUTLINES_TOP
100
AcDbPolyline
 90
        5
 70
         1
 43
200.0
 10
48857.5
 20
73755.0
 10
48857.5
 20
60635.0
 10
19842.5
 20
60635.0
 10
17742.5
 20
62735.0
 10
17742.5
 20
73755.0
  0
LWPOLYLINE
  5
2D
100
AcDbEntity
  8
ASSEMBLY_OUTLINES_TOP
100
AcDbPolyline
 90
        2
 70
         0
 43
150.0
 10
33300.0
 20
79560.0
 10
33300.0
 20
83560.0
  0
LWPOLYLINE
  5
2E
100
AcDbEntity
  8
ASSEMBLY_OUTLINES_TOP
100
AcDbPolyline
 90
        2
 70
         0
 43
150.0
 10
33300.0
 20
79560.0
 10
33800.0
 20
80810.0
  0
LWPOLYLINE
  5
2F
100
AcDbEntity
  8
ASSEMBLY_OUTLINES_TOP
100
AcDbPolyline
 90
        2
 70
         0
 43
150.0
 10
33300.0
 20
79560.0
 10
32800.0
 20
80810.0
  0
LWPOLYLINE
  5
30
100
AcDbEntity
  8
ASSEMBLY_OUTLINES_TOP
100
AcDbPolyline
 90
        2
 70
         1
 43
150.0
 10
-1200.0
 20
3100.0
 42
-1.0
 10
5400.0
 20
3100.0
 42
-1.0
  0
LWPOLYLINE
  5
31
100
AcDbEntity
  8
ASSEMBLY_OUTLINES_TOP
100
AcDbPolyline
 90
        2
 70
         1
 43
150.0
 10
-1230.0
 20
53590.0
 42
-1.0
 10
5370.0
 20
53590.0
 42
-1.0
  0
LWPOLYLINE
  5
32
100
AcDbEntity
  8
ASSEMBLY_OUTLINES_TOP
100
AcDbPolyline
 90
        4
 70
         0
 43
250.0
 10
4770.0
 20
18270.0
 10
4570.0
 20
18270.0
 10
4570.0
 20
17870.0
 10
4770.0
 20
17870.0
  0
LWPOLYLINE
  5
33
100
AcDbEntity
  8
ASSEMBLY_OUTLINES_TOP
100
AcDbPolyline
 90
        4
 70
         0
 43
250.0
 10
50070.0
 20
54480.0
 10
50070.0
 20
54280.0
 10
50470.0
 20
54280.0
 10
50470.0
 20
54480.0
  0
LWPOLYLINE
  5
34
100
AcDbEntity
  8
ASSEMBLY_OUTLINES_TOP
100
AcDbPolyline
 90
        4
 70
         0
 43
200.0
 10
57840.0
 20
53090.0
 10
56840.0
 20
53090.0
 10
56840.0
 20
55590.0
 10
57840.0
 20
55590.0
  0
LWPOLYLINE
  5
35
100
AcDbEntity
  8
ASSEMBLY_OUTLINES_TOP
100
AcDbPolyline
 90
        6
 70
         1
 43
200.0
 10
57840.0
 20
54340.0
 10
57840.0
 20
56340.0
 10
51840.0
 20
56340.0
 10
51840.0
 20
54340.0
 10
51840.0
 20
52340.0
 10
57840.0
 20
52340.0
  0
LWPOLYLINE
  5
36
100
AcDbEntity
  8
ASSEMBLY_OUTLINES_TOP
100
AcDbPolyline
 90
        2
 70
         0
 10
54840.0
 20
53840.0
 10
54840.0
 20
54590.0
  0
LWPOLYLINE
  5
37
100
AcDbEntity
  8
ASSEMBLY_OUTLINES_TOP
100
AcDbPolyline
 90
        4
 70
         0
 43
250.0
 10
50070.0
 20
48930.0
 10
50070.0
 20
48730.0
 10
50470.0
 20
48730.0
 10
50470.0
 20
48930.0
  0
LWPOLYLINE
  5
38
100
AcDbEntity
  8
ASSEMBLY_OUTLINES_TOP
100
AcDbPolyline
 90
        4
 70
         0
 43
200.0
 10
57840.0
 20
47550.0
 10
56840.0
 20
47550.0
 10
56840.0
 20
50050.0
 10
57840.0
 20
50050.0
  0
LWPOLYLINE
  5
39
100
AcDbEntity
  8
ASSEMBLY_OUTLINES_TOP
100
AcDbPolyline
 90
        6
 70
         1
 43
200.0
 10
57840.0
 20
48800.0
 10
57840.0
 20
50800.0
 10
51840.0
 20
50800.0
 10
51840.0
 20
48800.0
 10
51840.0
 20
46800.0
 10
57840.0
 20
46800.0
  0
LWPOLYLINE
  5
3A
100
AcDbEntity
  8
ASSEMBLY_OUTLINES_TOP
100
AcDbPolyline
 90
        2
 70
         0
 10
54840.0
 20
48300.0
 10
54840.0
 20
49050.0
  0
LWPOLYLINE
  5
3B
100
AcDbEntity
  8
ASSEMBLY_OUTLINES_TOP
100
AcDbPolyline
 90
        4
 70
         0
 43
250.0
 10
13900.0
 20
42240.0
 10
13700.0
 20
42240.0
 10
13700.0
 20
41840.0
 10
13900.0
 20
41840.0
  0
LWPOLYLINE
  5
3C
100
AcDbEntity
  8
ASSEMBLY_OUTLINES_TOP
100
AcDbPolyline
 90
        4
 70
         0
 43
200.0
 10
26510.0
 20
40760.0
 10
26510.0
 20
40360.0
 10
25310.0
 20
40360.0
 10
25310.0
 20
40760.0
  0
LWPOLYLINE
  5
3D
100
AcDbEntity
  8
ASSEMBLY_OUTLINES_TOP
100
AcDbPolyline
 90
        4
 70
         0
 43
200.0
 10
24710.0
 20
40760.0
 10
24710.0
 20
40360.0
 10
23510.0
 20
40360.0
 10
23510.0
 20
40760.0
  0
LWPOLYLINE
  5
3E
100
AcDbEntity
  8
ASSEMBLY_OUTLINES_TOP
100
AcDbPolyline
 90
        4
 70
         0
 43
200.0
 10
23520.0
 20
42270.0
 10
23120.0
 20
42270.0
 10
23120.0
 20
43470.0
 10
23520.0
 20
43470.0
  0
LWPOLYLINE
  5
3F
100
AcDbEntity
  8
ASSEMBLY_OUTLINES_TOP
100
AcDbPolyline
 90
        4
 70
         0
 43
200.0
 10
26460.0
 20
43470.0
 10
26860.0
 20
43470.0
 10
26860.0
 20
42270.0
 10
26460.0
 20
42270.0
  0
LWPOLYLINE
  5
40
100
AcDbEntity
  8
ASSEMBLY_OUTLINES_TOP
100
AcDbPolyline
 90
        5
 70
         1
 43
100.0
 10
21400.0
 20
25100.0
 10
17300.0
 20
25100.0
 10
17300.0
 20
26889.0
 10
21800.0
 20
26889.0
 10
21800.0
 20
25492.0
  0
LWPOLYLINE
  5
41
100
AcDbEntity
  8
ASSEMBLY_OUTLINES_TOP
100
AcDbPolyline
 90
        4
 70
         0
 43
250.0
 10
19840.0
 20
31640.0
 10
19840.0
 20
31440.0
 10
20240.0
 20
31440.0
 10
20240.0
 20
31640.0
  0
LWPOLYLINE
  5
42
100
AcDbEntity
  8
ASSEMBLY_OUTLINES_TOP
100
AcDbPolyline
 90
        6
 70
         0
 43
150.0
 10
13300.0
 20
24300.0
 10
13300.0
 20
25400.0
 10
13100.0
 20
25600.0
 10
12100.0
 20
25600.0
 10
11900.0
 20
25400.0
 10
11900.0
 20
24300.0
  0
LWPOLYLINE
  5
43
100
AcDbEntity
  8
ASSEMBLY_OUTLINES_TOP
100
AcDbPolyline
 90
        4
 70
         0
 43
250.0
 10
28600.0
 20
20100.0
 10
28800.0
 20
20100.0
 10
28800.0
 20
20500.0
 10
28600.0
 20
20500.0
  0
LWPOLYLINE
  5
44
100
AcDbEntity
  8
ASSEMBLY_OUTLINES_TOP
100
AcDbPolyline
 90
        4
 70
         0
 43
250.0
 10
25900.0
 20
16200.0
 10
25700.0
 20
16200.0
 10
25700.0
 20
15800.0
 10
25900.0
 20
15800.0
  0
LWPOLYLINE
  5
45
100
AcDbEntity
  8
ASSEMBLY_OUTLINES_TOP
100
AcDbPolyline
 90
        4
 70
         0
 43
200.0
 10
41179.5
 20
52380.0
 10
41179.5
 20
52780.0
 10
42379.5
 20
52780.0
 10
42379.5
 20
52380.0
  0
CIRCLE
  5
46
100
AcDbEntity
  8
ASSEMBLY_OUTLINES_TOP
100
AcDbCircle
 10
41779.5
 20
54330.0
 30
0.0
 40
353.553
  0
HATCH
  5
47
100
AcDbEntity
  8
ASSEMBLY_OUTLINES_TOP
100
AcDbHatch
 10
0.0
 20
0.0
 30
0.0
210
0.0
220
0.0
230
1.0
  2
SOLID
 70
         1
 71
         1
 91
        1
 92
        1
 93
        1
 72
         2
 10
41779.5
 20
54330.0
 40
353.553
 50
0.0
 51
360.0
 73
         1
 97
        1
330
46
 75
         0
 76
         1
 98
        1
 10
0.0
 20
0.0
  0
LWPOLYLINE
  5
48
100
AcDbEntity
  8
ASSEMBLY_OUTLINES_TOP
100
AcDbPolyline
 90
        4
 70
         0
 43
250.0
 10
43470.0
 20
55170.0
 10
43470.0
 20
55370.0
 10
43070.0
 20
55370.0
 10
43070.0
 20
55170.0
  0
LWPOLYLINE
  5
49
100
AcDbEntity
  8
ASSEMBLY_OUTLINES_TOP
100
AcDbPolyline
 90
        4
 70
         0
 43
250.0
 10
43070.0
 20
52280.0
 10
43070.0
 20
52080.0
 10
43470.0
 20
52080.0
 10
43470.0
 20
52280.0
  0
LWPOLYLINE
  5
4A
100
AcDbEntity
  8
ASSEMBLY_OUTLINES_TOP
100
AcDbPolyline
 90
        4
 70
         1
 43
150.0
 10
41329.5
 20
54455.0
 10
41329.5
 20
56105.0
 10
42229.5
 20
56105.0
 10
42229.5
 20
54455.0
  0
LWPOLYLINE
  5
4B
100
AcDbEntity
  8
ASSEMBLY_OUTLINES_TOP
100
AcDbPolyline
 90
        4
 70
         0
 43
250.0
 10
43270.0
 20
43560.0
 10
43270.0
 20
43760.0
 10
42870.0
 20
43760.0
 10
42870.0
 20
43560.0
  0
LWPOLYLINE
  5
4C
100
AcDbEntity
  8
ASSEMBLY_OUTLINES_TOP
100
AcDbPolyline
 90
        4
 70
         0
 43
250.0
 10
42870.0
 20
40280.0
 10
42870.0
 20
40080.0
 10
43270.0
 20
40080.0
 10
43270.0
 20
40280.0
  0
LWPOLYLINE
  5
4D
100
AcDbEntity
  8
ASSEMBLY_OUTLINES_TOP
100
AcDbPolyline
 90
        4
 70
         0
 43
200.0
 10
40979.5
 20
40720.0
 10
40979.5
 20
41120.0
 10
42179.5
 20
41120.0
 10
42179.5
 20
40720.0
  0
CIRCLE
  5
4E
100
AcDbEntity
  8
ASSEMBLY_OUTLINES_TOP
100
AcDbCircle
 10
41579.5
 20
42670.0
 30
0.0
 40
353.553
  0
HATCH
  5
4F
100
AcDbEntity
  8
ASSEMBLY_OUTLINES_TOP
100
AcDbHatch
 10
0.0
 20
0.0
 30
0.0
210
0.0
220
0.0
230
1.0
  2
SOLID
 70
         1
 71
         1
 91
        1
 92
        1
 93
        1
 72
         2
 10
41579.5
 20
42670.0
 40
353.553
 50
0.0
 51
360.0
 73
         1
 97
        1
330
4E
 75
         0
 76
         1
 98
        1
 10
0.0
 20
0.0
  0
LWPOLYLINE
  5
50
100
AcDbEntity
  8
ASSEMBLY_OUTLINES_TOP
100
AcDbPolyline
 90
        4
 70
         1
 43
150.0
 10
41129.5
 20
42835.0
 10
41129.5
 20
44485.0
 10
42029.5
 20
44485.0
 10
42029.5
 20
42835.0
  0
LWPOLYLINE
  5
51
100
AcDbEntity
  8
ASSEMBLY_OUTLINES_TOP
100
AcDbPolyline
 90
        4
 70
         0
 43
200.0
 10
41079.5
 20
46500.0
 10
41079.5
 20
46900.0
 10
42279.5
 20
46900.0
 10
42279.5
 20
46500.0
  0
CIRCLE
  5
52
100
AcDbEntity
  8
ASSEMBLY_OUTLINES_TOP
100
AcDbCircle
 10
41679.5
 20
48450.0
 30
0.0
 40
353.553
  0
HATCH
  5
53
100
AcDbEntity
  8
ASSEMBLY_OUTLINES_TOP
100
AcDbHatch
 10
0.0
 20
0.0
 30
0.0
210
0.0
220
0.0
230
1.0
  2
SOLID
 70
         1
 71
         1
 91
        1
 92
        1
 93
        1
 72
         2
 10
41679.5
 20
48450.0
 40
353.553
 50
0.0
 51
360.0
 73
         1
 97
        1
330
52
 75
         0
 76
         1
 98
        1
 10
0.0
 20
0.0
  0
LWPOLYLINE
  5
54
100
AcDbEntity
  8
ASSEMBLY_OUTLINES_TOP
100
AcDbPolyline
 90
        4
 70
         0
 43
250.0
 10
43370.0
 20
49300.0
 10
43370.0
 20
49500.0
 10
42970.0
 20
49500.0
 10
42970.0
 20
49300.0
  0
LWPOLYLINE
  5
55
100
AcDbEntity
  8
ASSEMBLY_OUTLINES_TOP
100
AcDbPolyline
 90
        4
 70
         0
 43
250.0
 10
42970.0
 20
46650.0
 10
42970.0
 20
46450.0
 10
43370.0
 20
46450.0
 10
43370.0
 20
46650.0
  0
LWPOLYLINE
  5
56
100
AcDbEntity
  8
ASSEMBLY_OUTLINES_TOP
100
AcDbPolyline
 90
        4
 70
         1
 43
150.0
 10
41229.5
 20
48535.0
 10
41229.5
 20
50185.0
 10
42129.5
 20
50185.0
 10
42129.5
 20
48535.0
  0
LWPOLYLINE
  5
57
100
AcDbEntity
  8
ASSEMBLY_OUTLINES_TOP
100
AcDbPolyline
 90
        5
 70
         1
 43
100.0
 10
26400.0
 20
25100.0
 10
22300.0
 20
25100.0
 10
22300.0
 20
26889.0
 10
26800.0
 20
26889.0
 10
26800.0
 20
25492.0
  0
LWPOLYLINE
  5
58
100
AcDbEntity
  8
ASSEMBLY_OUTLINES_TOP
100
AcDbPolyline
 90
        5
 70
         1
 43
100.0
 10
31400.0
 20
25100.0
 10
27300.0
 20
25100.0
 10
27300.0
 20
26889.0
 10
31800.0
 20
26889.0
 10
31800.0
 20
25492.0
  0
LWPOLYLINE
  5
59
100
AcDbEntity
  8
ASSEMBLY_OUTLINES_TOP
100
AcDbPolyline
 90
        5
 70
         1
 43
200.0
 10
26040.0
 20
18412.5
 10
20960.0
 20
18412.5
 10
20960.0
 20
21587.5
 10
25405.0
 20
21587.5
 10
26040.0
 20
20952.5
  0
LWPOLYLINE
  5
5A
100
AcDbEntity
  8
ASSEMBLY_OUTLINES_TOP
100
AcDbPolyline
 90
        6
 70
         1
 43
150.0
 10
29400.0
 20
23400.0
 10
29400.0
 20
21000.0
 10
27600.0
 20
21000.0
 10
27600.0
 20
24050.0
 10
29050.0
 20
24050.0
 10
29400.0
 20
23700.0
  0
LWPOLYLINE
  5
5B
100
AcDbEntity
  8
ASSEMBLY_OUTLINES_TOP
100
AcDbPolyline
 90
        4
 70
         0
 43
250.0
 10
19130.0
 20
23190.0
 10
18930.0
 20
23190.0
 10
18930.0
 20
22790.0
 10
19130.0
 20
22790.0
  0
LWPOLYLINE
  5
5C
100
AcDbEntity
  8
ASSEMBLY_OUTLINES_TOP
100
AcDbPolyline
 90
        4
 70
         0
 43
250.0
 10
40890.0
 20
32260.0
 10
40690.0
 20
32260.0
 10
40690.0
 20
31860.0
 10
40890.0
 20
31860.0
  0
LWPOLYLINE
  5
5D
100
AcDbEntity
  8
ASSEMBLY_OUTLINES_TOP
100
AcDbPolyline
 90
        4
 70
         0
 43
250.0
 10
33250.0
 20
42990.0
 10
33050.0
 20
42990.0
 10
33050.0
 20
42590.0
 10
33250.0
 20
42590.0
  0
LWPOLYLINE
  5
5E
100
AcDbEntity
  8
ASSEMBLY_OUTLINES_TOP
100
AcDbPolyline
 90
        4
 70
         0
 43
250.0
 10
7340.0
 20
15390.0
 10
7140.0
 20
15390.0
 10
7140.0
 20
14990.0
 10
7340.0
 20
14990.0
  0
LWPOLYLINE
  5
5F
100
AcDbEntity
  8
ASSEMBLY_OUTLINES_TOP
100
AcDbPolyline
 90
        4
 70
         0
 43
200.0
 10
57840.0
 20
42010.0
 10
56840.0
 20
42010.0
 10
56840.0
 20
44510.0
 10
57840.0
 20
44510.0
  0
LWPOLYLINE
  5
60
100
AcDbEntity
  8
ASSEMBLY_OUTLINES_TOP
100
AcDbPolyline
 90
        6
 70
         1
 43
200.0
 10
57840.0
 20
43260.0
 10
57840.0
 20
45260.0
 10
51840.0
 20
45260.0
 10
51840.0
 20
43260.0
 10
51840.0
 20
41260.0
 10
57840.0
 20
41260.0
  0
LWPOLYLINE
  5
61
100
AcDbEntity
  8
ASSEMBLY_OUTLINES_TOP
100
AcDbPolyline
 90
        2
 70
         0
 10
54840.0
 20
42760.0
 10
54840.0
 20
43510.0
  0
LWPOLYLINE
  5
62
100
AcDbEntity
  8
ASSEMBLY_OUTLINES_TOP
100
AcDbPolyline
 90
        4
 70
         0
 43
250.0
 10
50070.0
 20
43330.0
 10
50070.0
 20
43130.0
 10
50470.0
 20
43130.0
 10
50470.0
 20
43330.0
  0
LWPOLYLINE
  5
63
100
AcDbEntity
  8
ASSEMBLY_OUTLINES_TOP
100
AcDbPolyline
 90
        2
 70
         1
 43
150.0
 10
57790.0
 20
34960.0
 42
-1.0
 10
64390.0
 20
34960.0
 42
-1.0
  0
LWPOLYLINE
  5
64
100
AcDbEntity
  8
ASSEMBLY_OUTLINES_TOP
100
AcDbPolyline
 90
        5
 70
         1
 43
200.0
 10
4270.0
 20
20030.0
 10
460.0
 20
20030.0
 10
460.0
 20
45430.0
 10
5540.0
 20
45430.0
 10
5540.0
 20
21300.0
  0
LWPOLYLINE
  5
65
100
AcDbEntity
  8
ASSEMBLY_OUTLINES_TOP
100
AcDbPolyline
 90
        4
 70
         0
 43
200.0
 10
6510.0
 20
32500.0
 10
6510.0
 20
32900.0
 10
7710.0
 20
32900.0
 10
7710.0
 20
32500.0
  0
LWPOLYLINE
  5
66
100
AcDbEntity
  8
ASSEMBLY_OUTLINES_TOP
100
AcDbPolyline
 90
        4
 70
         0
 43
250.0
 10
30450.0
 20
28470.0
 10
30250.0
 20
28470.0
 10
30250.0
 20
28070.0
 10
30450.0
 20
28070.0
  0
LWPOLYLINE
  5
67
100
AcDbEntity
  8
ASSEMBLY_OUTLINES_TOP
100
AcDbPolyline
 90
        4
 70
         0
 43
250.0
 10
25920.0
 20
36960.0
 10
25720.0
 20
36960.0
 10
25720.0
 20
36560.0
 10
25920.0
 20
36560.0
  0
LWPOLYLINE
  5
68
100
AcDbEntity
  8
ASSEMBLY_OUTLINES_TOP
100
AcDbPolyline
 90
        4
 70
         0
 43
250.0
 10
23890.0
 20
36560.0
 10
24090.0
 20
36560.0
 10
24090.0
 20
36960.0
 10
23890.0
 20
36960.0
  0
LWPOLYLINE
  5
69
100
AcDbEntity
  8
ASSEMBLY_OUTLINES_TOP
100
AcDbPolyline
 90
        4
 70
         0
 43
250.0
 10
29500.0
 20
36560.0
 10
29700.0
 20
36560.0
 10
29700.0
 20
36960.0
 10
29500.0
 20
36960.0
  0
LWPOLYLINE
  5
6A
100
AcDbEntity
  8
ASSEMBLY_OUTLINES_TOP
100
AcDbPolyline
 90
        4
 70
         0
 43
250.0
 10
22150.0
 20
36560.0
 10
22350.0
 20
36560.0
 10
22350.0
 20
36960.0
 10
22150.0
 20
36960.0
  0
LWPOLYLINE
  5
6B
100
AcDbEntity
  8
ASSEMBLY_OUTLINES_TOP
100
AcDbPolyline
 90
        4
 70
         0
 43
250.0
 10
28560.0
 20
28470.0
 10
28360.0
 20
28470.0
 10
28360.0
 20
28070.0
 10
28560.0
 20
28070.0
  0
LWPOLYLINE
  5
6C
100
AcDbEntity
  8
ASSEMBLY_OUTLINES_TOP
100
AcDbPolyline
 90
        4
 70
         0
 43
250.0
 10
26050.0
 20
28070.0
 10
26250.0
 20
28070.0
 10
26250.0
 20
28470.0
 10
26050.0
 20
28470.0
  0
LWPOLYLINE
  5
6D
100
AcDbEntity
  8
ASSEMBLY_OUTLINES_TOP
100
AcDbPolyline
 90
        4
 70
         0
 43
250.0
 10
22780.0
 20
28070.0
 10
22980.0
 20
28070.0
 10
22980.0
 20
28470.0
 10
22780.0
 20
28470.0
  0
LWPOLYLINE
  5
6E
100
AcDbEntity
  8
ASSEMBLY_OUTLINES_TOP
100
AcDbPolyline
 90
        5
 70
         1
 43
200.0
 10
21040.0
 20
34124.5
 10
31200.0
 20
34124.5
 10
31200.0
 20
30949.5
 10
21675.0
 20
30949.5
 10
21040.0
 20
31584.5
  0
LWPOLYLINE
  5
6F
100
AcDbEntity
  8
ASSEMBLY_OUTLINES_TOP
100
AcDbPolyline
 90
        5
 70
         1
 43
100.0
 10
65916.0
 20
12420.0
 10
65916.0
 20
8220.0
 10
5914.0
 20
8220.0
 10
5914.0
 20
11220.0
 10
7114.0
 20
12420.0
  0
TEXT
  5
71
100
AcDbEntity
  8
ASSEMBLY_REF_DES_BTM
100
AcDbText
 10
35564.0
 20
2460.8
 30
0.0
 40
800.0
  1
X1
 50
270.0
  7
ARIAL
 71
         2
 72
         1
 11
35980.0
 21
3160.0
 31
0.0
100
AcDbText
 73
         2
  0
TEXT
  5
72
100
AcDbEntity
  8
ASSEMBLY_REF_DES_TOP
100
AcDbText
 10
32600.8
 20
63814.0
 30
0.0
 40
800.0
  1
X4
  7
ARIAL
 72
         1
 11
33300.0
 21
64230.0
 31
0.0
100
AcDbText
 73
         2
  0
TEXT
  5
73
100
AcDbEntity
  8
ASSEMBLY_REF_DES_TOP
100
AcDbText
 10
68380.8
 20
68644.0
 30
0.0
 40
800.0
  1
X6
  7
ARIAL
 72
         1
 11
69080.0
 21
69060.0
 31
0.0
100
AcDbText
 73
         2
  0
TEXT
  5
74
100
AcDbEntity
  8
ASSEMBLY_REF_DES_TOP
100
AcDbText
 10
1400.8
 20
2684.0
 30
0.0
 40
800.0
  1
X9
  7
ARIAL
 72
         1
 11
2100.0
 21
3100.0
 31
0.0
100
AcDbText
 73
         2
  0
TEXT
  5
75
100
AcDbEntity
  8
ASSEMBLY_REF_DES_TOP
100
AcDbText
 10
1370.8
 20
53174.0
 30
0.0
 40
800.0
  1
X8
  7
ARIAL
 72
         1
 11
2070.0
 21
53590.0
 31
0.0
100
AcDbText
 73
         2
  0
TEXT
  5
76
100
AcDbEntity
  8
ASSEMBLY_REF_DES_TOP
100
AcDbText
 10
3621.2
 20
17654.0
 30
0.0
 40
800.0
  1
R36
  7
ARIAL
 72
         1
 11
4670.0
 21
18070.0
 31
0.0
100
AcDbText
 73
         2
  0
TEXT
  5
77
100
AcDbEntity
  8
ASSEMBLY_REF_DES_TOP
100
AcDbText
 10
49854.0
 20
55428.8
 30
0.0
 40
800.0
  1
R40
 50
270.0
  7
ARIAL
 72
         1
 11
50270.0
 21
54380.0
 31
0.0
100
AcDbText
 73
         2
  0
TEXT
  5
78
100
AcDbEntity
  8
ASSEMBLY_REF_DES_TOP
100
AcDbText
 10
54140.8
 20
53924.0
 30
0.0
 40
800.0
  1
S1
  7
ARIAL
 72
         1
 11
54840.0
 21
54340.0
 31
0.0
100
AcDbText
 73
         2
  0
TEXT
  5
79
100
AcDbEntity
  8
ASSEMBLY_REF_DES_TOP
100
AcDbText
 10
49854.0
 20
49878.8
 30
0.0
 40
800.0
  1
R41
 50
270.0
  7
ARIAL
 72
         1
 11
50270.0
 21
48830.0
 31
0.0
100
AcDbText
 73
         2
  0
TEXT
  5
7A
100
AcDbEntity
  8
ASSEMBLY_REF_DES_TOP
100
AcDbText
 10
54140.8
 20
48384.0
 30
0.0
 40
800.0
  1
S2
  7
ARIAL
 72
         1
 11
54840.0
 21
48800.0
 31
0.0
100
AcDbText
 73
         2
  0
TEXT
  5
7B
100
AcDbEntity
  8
ASSEMBLY_REF_DES_TOP
100
AcDbText
 10
12751.2
 20
41624.0
 30
0.0
 40
800.0
  1
C28
  7
ARIAL
 72
         1
 11
13800.0
 21
42040.0
 31
0.0
100
AcDbText
 73
         2
  0
TEXT
  5
7C
100
AcDbEntity
  8
ASSEMBLY_REF_DES_TOP
100
AcDbText
 10
25494.0
 20
41196.0
 30
0.0
 40
800.0
  1
L6
 50
270.0
  7
ARIAL
 72
         1
 11
25910.0
 21
40560.0
 31
0.0
100
AcDbText
 73
         2
  0
TEXT
  5
7D
100
AcDbEntity
  8
ASSEMBLY_REF_DES_TOP
100
AcDbText
 10
23694.0
 20
41196.0
 30
0.0
 40
800.0
  1
L5
 50
270.0
  7
ARIAL
 72
         1
 11
24110.0
 21
40560.0
 31
0.0
100
AcDbText
 73
         2
  0
TEXT
  5
7E
100
AcDbEntity
  8
ASSEMBLY_REF_DES_TOP
100
AcDbText
 10
22271.2
 20
42454.0
 30
0.0
 40
800.0
  1
R30
  7
ARIAL
 72
         1
 11
23320.0
 21
42870.0
 31
0.0
100
AcDbText
 73
         2
  0
TEXT
  5
7F
100
AcDbEntity
  8
ASSEMBLY_REF_DES_TOP
100
AcDbText
 10
25611.2
 20
42454.0
 30
0.0
 40
800.0
  1
R29
  7
ARIAL
 72
         1
 11
26660.0
 21
42870.0
 31
0.0
100
AcDbText
 73
         2
  0
TEXT
  5
80
100
AcDbEntity
  8
ASSEMBLY_REF_DES_TOP
100
AcDbText
 10
18896.0
 20
25584.0
 30
0.0
 40
800.0
  1
J3
  7
ARIAL
 72
         1
 11
19500.0
 21
26000.0
 31
0.0
100
AcDbText
 73
         2
  0
TEXT
  5
81
100
AcDbEntity
  8
ASSEMBLY_REF_DES_TOP
100
AcDbText
 10
19624.0
 20
32588.8
 30
0.0
 40
800.0
  1
C22
 50
270.0
  7
ARIAL
 72
         1
 11
20040.0
 21
31540.0
 31
0.0
100
AcDbText
 73
         2
  0
TEXT
  5
82
100
AcDbEntity
  8
ASSEMBLY_REF_DES_TOP
100
AcDbText
 10
12184.0
 20
26048.8
 30
0.0
 40
800.0
  1
C30
 50
270.0
  7
ARIAL
 72
         1
 11
12600.0
 21
25000.0
 31
0.0
100
AcDbText
 73
         2
  0
TEXT
  5
83
100
AcDbEntity
  8
ASSEMBLY_REF_DES_TOP
100
AcDbText
 10
27651.2
 20
19884.0
 30
0.0
 40
800.0
  1
R47
  7
ARIAL
 72
         1
 11
28700.0
 21
20300.0
 31
0.0
100
AcDbText
 73
         2
  0
TEXT
  5
84
100
AcDbEntity
  8
ASSEMBLY_REF_DES_TOP
100
AcDbText
 10
24751.2
 20
15584.0
 30
0.0
 40
800.0
  1
C31
  7
ARIAL
 72
         1
 11
25800.0
 21
16000.0
 31
0.0
100
AcDbText
 73
         2
  0
TEXT
  5
85
100
AcDbEntity
  8
ASSEMBLY_REF_DES_TOP
100
AcDbText
 10
41363.5
 20
53310.8
 30
0.0
 40
800.0
  1
D1
 50
270.0
  7
ARIAL
 72
         1
 11
41779.5
 21
52580.0
 31
0.0
100
AcDbText
 73
         2
  0
TEXT
  5
86
100
AcDbEntity
  8
ASSEMBLY_REF_DES_TOP
100
AcDbText
 10
42854.0
 20
56318.8
 30
0.0
 40
800.0
  1
R39
 50
270.0
  7
ARIAL
 72
         1
 11
43270.0
 21
55270.0
 31
0.0
100
AcDbText
 73
         2
  0
TEXT
  5
87
100
AcDbEntity
  8
ASSEMBLY_REF_DES_TOP
100
AcDbText
 10
42854.0
 20
53228.8
 30
0.0
 40
800.0
  1
R43
 50
270.0
  7
ARIAL
 72
         1
 11
43270.0
 21
52180.0
 31
0.0
100
AcDbText
 73
         2
  0
TEXT
  5
88
100
AcDbEntity
  8
ASSEMBLY_REF_DES_TOP
100
AcDbText
 10
41363.5
 20
56042.8
 30
0.0
 40
800.0
  1
Q1
 50
270.0
  7
ARIAL
 72
         1
 11
41779.5
 21
55280.0
 31
0.0
100
AcDbText
 73
         2
  0
TEXT
  5
89
100
AcDbEntity
  8
ASSEMBLY_REF_DES_TOP
100
AcDbText
 10
42654.0
 20
44708.8
 30
0.0
 40
800.0
  1
R38
 50
270.0
  7
ARIAL
 72
         1
 11
43070.0
 21
43660.0
 31
0.0
100
AcDbText
 73
         2
  0
TEXT
  5
8A
100
AcDbEntity
  8
ASSEMBLY_REF_DES_TOP
100
AcDbText
 10
42654.0
 20
41228.8
 30
0.0
 40
800.0
  1
R42
 50
270.0
  7
ARIAL
 72
         1
 11
43070.0
 21
40180.0
 31
0.0
100
AcDbText
 73
         2
  0
TEXT
  5
8B
100
AcDbEntity
  8
ASSEMBLY_REF_DES_TOP
100
AcDbText
 10
41163.5
 20
41650.8
 30
0.0
 40
800.0
  1
D3
 50
270.0
  7
ARIAL
 72
         1
 11
41579.5
 21
40920.0
 31
0.0
100
AcDbText
 73
         2
  0
TEXT
  5
8C
100
AcDbEntity
  8
ASSEMBLY_REF_DES_TOP
100
AcDbText
 10
41163.5
 20
44422.8
 30
0.0
 40
800.0
  1
Q3
 50
270.0
  7
ARIAL
 72
         1
 11
41579.5
 21
43660.0
 31
0.0
100
AcDbText
 73
         2
  0
TEXT
  5
8D
100
AcDbEntity
  8
ASSEMBLY_REF_DES_TOP
100
AcDbText
 10
41263.5
 20
47430.8
 30
0.0
 40
800.0
  1
D2
 50
270.0
  7
ARIAL
 72
         1
 11
41679.5
 21
46700.0
 31
0.0
100
AcDbText
 73
         2
  0
TEXT
  5
8E
100
AcDbEntity
  8
ASSEMBLY_REF_DES_TOP
100
AcDbText
 10
42754.0
 20
50448.8
 30
0.0
 40
800.0
  1
R45
 50
270.0
  7
ARIAL
 72
         1
 11
43170.0
 21
49400.0
 31
0.0
100
AcDbText
 73
         2
  0
TEXT
  5
8F
100
AcDbEntity
  8
ASSEMBLY_REF_DES_TOP
100
AcDbText
 10
42754.0
 20
47598.8
 30
0.0
 40
800.0
  1
R46
 50
270.0
  7
ARIAL
 72
         1
 11
43170.0
 21
46550.0
 31
0.0
100
AcDbText
 73
         2
  0
TEXT
  5
90
100
AcDbEntity
  8
ASSEMBLY_REF_DES_TOP
100
AcDbText
 10
41263.5
 20
50122.8
 30
0.0
 40
800.0
  1
Q2
 50
270.0
  7
ARIAL
 72
         1
 11
41679.5
 21
49360.0
 31
0.0
100
AcDbText
 73
         2
  0
TEXT
  5
91
100
AcDbEntity
  8
ASSEMBLY_REF_DES_TOP
100
AcDbText
 10
23896.0
 20
25584.0
 30
0.0
 40
800.0
  1
J2
  7
ARIAL
 72
         1
 11
24500.0
 21
26000.0
 31
0.0
100
AcDbText
 73
         2
  0
TEXT
  5
92
100
AcDbEntity
  8
ASSEMBLY_REF_DES_TOP
100
AcDbText
 10
28896.0
 20
25584.0
 30
0.0
 40
800.0
  1
J1
  7
ARIAL
 72
         1
 11
29500.0
 21
26000.0
 31
0.0
100
AcDbText
 73
         2
  0
TEXT
  5
93
100
AcDbEntity
  8
ASSEMBLY_REF_DES_TOP
100
AcDbText
 10
22769.2
 20
19568.5
 30
0.0
 40
800.0
  1
U5
  7
ARIAL
 72
         1
 11
23500.0
 21
19984.5
 31
0.0
100
AcDbText
 73
         2
  0
TEXT
  5
94
100
AcDbEntity
  8
ASSEMBLY_REF_DES_TOP
100
AcDbText
 10
28084.0
 20
23104.0
 30
0.0
 40
800.0
  1
J4
 50
270.0
  7
ARIAL
 72
         1
 11
28500.0
 21
22500.0
 31
0.0
100
AcDbText
 73
         2
  0
TEXT
  5
95
100
AcDbEntity
  8
ASSEMBLY_REF_DES_TOP
100
AcDbText
 10
17981.2
 20
22574.0
 30
0.0
 40
800.0
  1
C24
  7
ARIAL
 72
         1
 11
19030.0
 21
22990.0
 31
0.0
100
AcDbText
 73
         2
  0
TEXT
  5
96
100
AcDbEntity
  8
ASSEMBLY_REF_DES_TOP
100
AcDbText
 10
39741.2
 20
31644.0
 30
0.0
 40
800.0
  1
C27
  7
ARIAL
 72
         1
 11
40790.0
 21
32060.0
 31
0.0
100
AcDbText
 73
         2
  0
TEXT
  5
97
100
AcDbEntity
  8
ASSEMBLY_REF_DES_TOP
100
AcDbText
 10
32101.2
 20
42374.0
 30
0.0
 40
800.0
  1
C26
  7
ARIAL
 72
         1
 11
33150.0
 21
42790.0
 31
0.0
100
AcDbText
 73
         2
  0
TEXT
  5
98
100
AcDbEntity
  8
ASSEMBLY_REF_DES_TOP
100
AcDbText
 10
6191.2
 20
14774.0
 30
0.0
 40
800.0
  1
C25
  7
ARIAL
 72
         1
 11
7240.0
 21
15190.0
 31
0.0
100
AcDbText
 73
         2
  0
TEXT
  5
99
100
AcDbEntity
  8
ASSEMBLY_REF_DES_TOP
100
AcDbText
 10
54140.8
 20
42844.0
 30
0.0
 40
800.0
  1
S3
  7
ARIAL
 72
         1
 11
54840.0
 21
43260.0
 31
0.0
100
AcDbText
 73
         2
  0
TEXT
  5
9A
100
AcDbEntity
  8
ASSEMBLY_REF_DES_TOP
100
AcDbText
 10
49854.0
 20
44278.8
 30
0.0
 40
800.0
  1
R44
 50
270.0
  7
ARIAL
 72
         1
 11
50270.0
 21
43230.0
 31
0.0
100
AcDbText
 73
         2
  0
TEXT
  5
9B
100
AcDbEntity
  8
ASSEMBLY_REF_DES_TOP
100
AcDbText
 10
60390.8
 20
34544.0
 30
0.0
 40
800.0
  1
X7
  7
ARIAL
 72
         1
 11
61090.0
 21
34960.0
 31
0.0
100
AcDbText
 73
         2
  0
TEXT
  5
9C
100
AcDbEntity
  8
ASSEMBLY_REF_DES_TOP
100
AcDbText
 10
2300.8
 20
32314.0
 30
0.0
 40
800.0
  1
X3
  7
ARIAL
 72
         1
 11
3000.0
 21
32730.0
 31
0.0
100
AcDbText
 73
         2
  0
TEXT
  5
9D
100
AcDbEntity
  8
ASSEMBLY_REF_DES_TOP
100
AcDbText
 10
6694.0
 20
33748.8
 30
0.0
 40
800.0
  1
R37
 50
270.0
  7
ARIAL
 72
         1
 11
7110.0
 21
32700.0
 31
0.0
100
AcDbText
 73
         2
  0
TEXT
  5
9E
100
AcDbEntity
  8
ASSEMBLY_REF_DES_TOP
100
AcDbText
 10
29301.2
 20
27854.0
 30
0.0
 40
800.0
  1
R35
  7
ARIAL
 72
         1
 11
30350.0
 21
28270.0
 31
0.0
100
AcDbText
 73
         2
  0
TEXT
  5
9F
100
AcDbEntity
  8
ASSEMBLY_REF_DES_TOP
100
AcDbText
 10
25089.2
 20
36344.0
 30
0.0
 40
800.0
  1
C2
  7
ARIAL
 72
         1
 11
25820.0
 21
36760.0
 31
0.0
100
AcDbText
 73
         2
  0
TEXT
  5
A0
100
AcDbEntity
  8
ASSEMBLY_REF_DES_TOP
100
AcDbText
 10
23259.2
 20
36344.0
 30
0.0
 40
800.0
  1
C3
  7
ARIAL
 72
         1
 11
23990.0
 21
36760.0
 31
0.0
100
AcDbText
 73
         2
  0
TEXT
  5
A1
100
AcDbEntity
  8
ASSEMBLY_REF_DES_TOP
100
AcDbText
 10
28551.2
 20
36344.0
 30
0.0
 40
800.0
  1
R34
  7
ARIAL
 72
         1
 11
29600.0
 21
36760.0
 31
0.0
100
AcDbText
 73
         2
  0
TEXT
  5
A2
100
AcDbEntity
  8
ASSEMBLY_REF_DES_TOP
100
AcDbText
 10
21201.2
 20
36344.0
 30
0.0
 40
800.0
  1
C23
  7
ARIAL
 72
         1
 11
22250.0
 21
36760.0
 31
0.0
100
AcDbText
 73
         2
  0
TEXT
  5
A3
100
AcDbEntity
  8
ASSEMBLY_REF_DES_TOP
100
AcDbText
 10
27411.2
 20
27854.0
 30
0.0
 40
800.0
  1
C21
  7
ARIAL
 72
         1
 11
28460.0
 21
28270.0
 31
0.0
100
AcDbText
 73
         2
  0
TEXT
  5
A4
100
AcDbEntity
  8
ASSEMBLY_REF_DES_TOP
100
AcDbText
 10
25101.2
 20
27854.0
 30
0.0
 40
800.0
  1
C20
  7
ARIAL
 72
         1
 11
26150.0
 21
28270.0
 31
0.0
100
AcDbText
 73
         2
  0
TEXT
  5
A5
100
AcDbEntity
  8
ASSEMBLY_REF_DES_TOP
100
AcDbText
 10
21831.2
 20
27854.0
 30
0.0
 40
800.0
  1
C19
  7
ARIAL
 72
         1
 11
22880.0
 21
28270.0
 31
0.0
100
AcDbText
 73
         2
  0
TEXT
  5
A6
100
AcDbEntity
  8
ASSEMBLY_REF_DES_TOP
100
AcDbText
 10
25389.2
 20
32154.0
 30
0.0
 40
800.0
  1
U4
  7
ARIAL
 72
         1
 11
26120.0
 21
32570.0
 31
0.0
100
AcDbText
 73
         2
  0
TEXT
  5
A7
100
AcDbEntity
  8
ASSEMBLY_REF_DES_TOP
100
AcDbText
 10
35564.0
 20
11019.2
 30
0.0
 40
800.0
  1
X5
 50
270.0
  7
ARIAL
 72
         1
 11
35980.0
 21
10320.0
 31
0.0
100
AcDbText
 73
         2
  0
TEXT
  5
A8
100
AcDbEntity
  8
ASSEMBLY_REF_DES_TOP
100
AcDbText
 10
68380.8
 20
2644.0
 30
0.0
 40
800.0
  1
X2
  7
ARIAL
 72
         1
 11
69080.0
 21
3060.0
 31
0.0
100
AcDbText
 73
         2
  0
LWPOLYLINE
  5
A9
100
AcDbEntity
  8
BOARD_OUTLINE
100
AcDbPolyline
 90
       10
 70
         1
 10
0.0
 20
0.0
 10
0.0
 20
55500.0
 10
13000.0
 20
55500.0
 10
13000.0
 20
72000.0
 10
72000.0
 20
72000.0
 10
72000.0
 20
56000.0
 10
63500.0
 20
56000.0
 10
63500.0
 20
30000.0
 10
72000.0
 20
30000.0
 10
72000.0
 20
0.0
  0
LWPOLYLINE
  5
AA
100
AcDbEntity
  8
PART_PADS_SMD_TOP
100
AcDbPolyline
 90
        4
 70
         1
 10
4870.0
 20
17820.0
 10
4870.0
 20
18320.0
 10
5270.0
 20
18320.0
 10
5270.0
 20
17820.0
  0
LWPOLYLINE
  5
AB
100
AcDbEntity
  8
PART_PADS_SMD_TOP
100
AcDbPolyline
 90
        4
 70
         1
 10
4070.0
 20
17820.0
 10
4070.0
 20
18320.0
 10
4470.0
 20
18320.0
 10
4470.0
 20
17820.0
  0
LWPOLYLINE
  5
AC
100
AcDbEntity
  8
PART_PADS_SMD_TOP
100
AcDbPolyline
 90
        4
 70
         1
 10
50020.0
 20
54580.0
 10
50020.0
 20
54980.0
 10
50520.0
 20
54980.0
 10
50520.0
 20
54580.0
  0
LWPOLYLINE
  5
AD
100
AcDbEntity
  8
PART_PADS_SMD_TOP
100
AcDbPolyline
 90
        4
 70
         1
 10
50020.0
 20
53780.0
 10
50020.0
 20
54180.0
 10
50520.0
 20
54180.0
 10
50520.0
 20
53780.0
  0
LWPOLYLINE
  5
AE
100
AcDbEntity
  8
PART_PADS_SMD_TOP
100
AcDbPolyline
 90
        4
 70
         1
 10
57040.0
 20
53640.0
 10
57040.0
 20
55040.0
 10
58640.0
 20
55040.0
 10
58640.0
 20
53640.0
  0
LWPOLYLINE
  5
AF
100
AcDbEntity
  8
PART_PADS_SMD_TOP
100
AcDbPolyline
 90
        4
 70
         1
 10
51040.0
 20
53640.0
 10
51040.0
 20
55040.0
 10
52640.0
 20
55040.0
 10
52640.0
 20
53640.0
  0
LWPOLYLINE
  5
B0
100
AcDbEntity
  8
PART_PADS_SMD_TOP
100
AcDbPolyline
 90
        4
 70
         1
 10
50020.0
 20
49030.0
 10
50020.0
 20
49430.0
 10
50520.0
 20
49430.0
 10
50520.0
 20
49030.0
  0
LWPOLYLINE
  5
B1
100
AcDbEntity
  8
PART_PADS_SMD_TOP
100
AcDbPolyline
 90
        4
 70
         1
 10
50020.0
 20
48230.0
 10
50020.0
 20
48630.0
 10
50520.0
 20
48630.0
 10
50520.0
 20
48230.0
  0
LWPOLYLINE
  5
B2
100
AcDbEntity
  8
PART_PADS_SMD_TOP
100
AcDbPolyline
 90
        4
 70
         1
 10
57040.0
 20
48100.0
 10
57040.0
 20
49500.0
 10
58640.0
 20
49500.0
 10
58640.0
 20
48100.0
  0
LWPOLYLINE
  5
B3
100
AcDbEntity
  8
PART_PADS_SMD_TOP
100
AcDbPolyline
 90
        4
 70
         1
 10
51040.0
 20
48100.0
 10
51040.0
 20
49500.0
 10
52640.0
 20
49500.0
 10
52640.0
 20
48100.0
  0
LWPOLYLINE
  5
B4
100
AcDbEntity
  8
PART_PADS_SMD_TOP
100
AcDbPolyline
 90
        4
 70
         1
 10
14000.0
 20
41790.0
 10
14000.0
 20
42290.0
 10
14400.0
 20
42290.0
 10
14400.0
 20
41790.0
  0
LWPOLYLINE
  5
B5
100
AcDbEntity
  8
PART_PADS_SMD_TOP
100
AcDbPolyline
 90
        4
 70
         1
 10
13200.0
 20
41790.0
 10
13200.0
 20
42290.0
 10
13600.0
 20
42290.0
 10
13600.0
 20
41790.0
  0
LWPOLYLINE
  5
B6
100
AcDbEntity
  8
PART_PADS_SMD_TOP
100
AcDbPolyline
 90
        4
 70
         1
 10
25285.0
 20
39360.0
 10
25285.0
 20
40210.0
 10
26535.0
 20
40210.0
 10
26535.0
 20
39360.0
  0
LWPOLYLINE
  5
B7
100
AcDbEntity
  8
PART_PADS_SMD_TOP
100
AcDbPolyline
 90
        4
 70
         1
 10
25285.0
 20
40910.0
 10
25285.0
 20
41760.0
 10
26535.0
 20
41760.0
 10
26535.0
 20
40910.0
  0
LWPOLYLINE
  5
B8
100
AcDbEntity
  8
PART_PADS_SMD_TOP
100
AcDbPolyline
 90
        4
 70
         1
 10
23485.0
 20
39360.0
 10
23485.0
 20
40210.0
 10
24735.0
 20
40210.0
 10
24735.0
 20
39360.0
  0
LWPOLYLINE
  5
B9
100
AcDbEntity
  8
PART_PADS_SMD_TOP
100
AcDbPolyline
 90
        4
 70
         1
 10
23485.0
 20
40910.0
 10
23485.0
 20
41760.0
 10
24735.0
 20
41760.0
 10
24735.0
 20
40910.0
  0
LWPOLYLINE
  5
BA
100
AcDbEntity
  8
PART_PADS_SMD_TOP
100
AcDbPolyline
 90
        4
 70
         1
 10
22120.0
 20
42245.0
 10
22120.0
 20
43495.0
 10
22970.0
 20
43495.0
 10
22970.0
 20
42245.0
  0
LWPOLYLINE
  5
BB
100
AcDbEntity
  8
PART_PADS_SMD_TOP
100
AcDbPolyline
 90
        4
 70
         1
 10
23670.0
 20
42245.0
 10
23670.0
 20
43495.0
 10
24520.0
 20
43495.0
 10
24520.0
 20
42245.0
  0
LWPOLYLINE
  5
BC
100
AcDbEntity
  8
PART_PADS_SMD_TOP
100
AcDbPolyline
 90
        4
 70
         1
 10
27010.0
 20
42245.0
 10
27010.0
 20
43495.0
 10
27860.0
 20
43495.0
 10
27860.0
 20
42245.0
  0
LWPOLYLINE
  5
BD
100
AcDbEntity
  8
PART_PADS_SMD_TOP
100
AcDbPolyline
 90
        4
 70
         1
 10
25460.0
 20
42245.0
 10
25460.0
 20
43495.0
 10
26310.0
 20
43495.0
 10
26310.0
 20
42245.0
  0
LWPOLYLINE
  5
BE
100
AcDbEntity
  8
PART_PADS_SMD_TOP
100
AcDbPolyline
 90
        4
 70
         1
 10
20625.0
 20
25375.0
 10
20625.0
 20
26625.0
 10
21475.0
 20
26625.0
 10
21475.0
 20
25375.0
  0
LWPOLYLINE
  5
BF
100
AcDbEntity
  8
PART_PADS_SMD_TOP
100
AcDbPolyline
 90
        4
 70
         1
 10
19075.0
 20
25375.0
 10
19075.0
 20
26625.0
 10
19925.0
 20
26625.0
 10
19925.0
 20
25375.0
  0
LWPOLYLINE
  5
C0
100
AcDbEntity
  8
PART_PADS_SMD_TOP
100
AcDbPolyline
 90
        4
 70
         1
 10
17525.0
 20
25375.0
 10
17525.0
 20
26625.0
 10
18375.0
 20
26625.0
 10
18375.0
 20
25375.0
  0
LWPOLYLINE
  5
C1
100
AcDbEntity
  8
PART_PADS_SMD_TOP
100
AcDbPolyline
 90
        4
 70
         1
 10
19790.0
 20
31740.0
 10
19790.0
 20
32140.0
 10
20290.0
 20
32140.0
 10
20290.0
 20
31740.0
  0
LWPOLYLINE
  5
C2
100
AcDbEntity
  8
PART_PADS_SMD_TOP
100
AcDbPolyline
 90
        4
 70
         1
 10
19790.0
 20
30940.0
 10
19790.0
 20
31340.0
 10
20290.0
 20
31340.0
 10
20290.0
 20
30940.0
  0
LWPOLYLINE
  5
C3
100
AcDbEntity
  8
PART_PADS_SMD_TOP
100
AcDbPolyline
 90
        4
 70
         1
 10
11850.0
 20
25925.0
 10
11850.0
 20
26725.0
 10
13350.0
 20
26725.0
 10
13350.0
 20
25925.0
  0
LWPOLYLINE
  5
C4
100
AcDbEntity
  8
PART_PADS_SMD_TOP
100
AcDbPolyline
 90
        4
 70
         1
 10
11850.0
 20
23275.0
 10
11850.0
 20
24075.0
 10
13350.0
 20
24075.0
 10
13350.0
 20
23275.0
  0
LWPOLYLINE
  5
C5
100
AcDbEntity
  8
PART_PADS_SMD_TOP
100
AcDbPolyline
 90
        4
 70
         1
 10
28100.0
 20
20050.0
 10
28100.0
 20
20550.0
 10
28500.0
 20
20550.0
 10
28500.0
 20
20050.0
  0
LWPOLYLINE
  5
C6
100
AcDbEntity
  8
PART_PADS_SMD_TOP
100
AcDbPolyline
 90
        4
 70
         1
 10
28900.0
 20
20050.0
 10
28900.0
 20
20550.0
 10
29300.0
 20
20550.0
 10
29300.0
 20
20050.0
  0
LWPOLYLINE
  5
C7
100
AcDbEntity
  8
PART_PADS_SMD_TOP
100
AcDbPolyline
 90
        4
 70
         1
 10
26000.0
 20
15750.0
 10
26000.0
 20
16250.0
 10
26400.0
 20
16250.0
 10
26400.0
 20
15750.0
  0
LWPOLYLINE
  5
C8
100
AcDbEntity
  8
PART_PADS_SMD_TOP
100
AcDbPolyline
 90
        4
 70
         1
 10
25200.0
 20
15750.0
 10
25200.0
 20
16250.0
 10
25600.0
 20
16250.0
 10
25600.0
 20
15750.0
  0
LWPOLYLINE
  5
C9
100
AcDbEntity
  8
PART_PADS_SMD_TOP
100
AcDbPolyline
 90
        4
 70
         1
 10
41154.5
 20
51380.0
 10
41154.5
 20
52230.0
 10
42404.5
 20
52230.0
 10
42404.5
 20
51380.0
  0
LWPOLYLINE
  5
CA
100
AcDbEntity
  8
PART_PADS_SMD_TOP
100
AcDbPolyline
 90
        4
 70
         1
 10
41154.5
 20
52930.0
 10
41154.5
 20
53780.0
 10
42404.5
 20
53780.0
 10
42404.5
 20
52930.0
  0
LWPOLYLINE
  5
CB
100
AcDbEntity
  8
PART_PADS_SMD_TOP
100
AcDbPolyline
 90
        4
 70
         1
 10
43020.0
 20
54670.0
 10
43020.0
 20
55070.0
 10
43520.0
 20
55070.0
 10
43520.0
 20
54670.0
  0
LWPOLYLINE
  5
CC
100
AcDbEntity
  8
PART_PADS_SMD_TOP
100
AcDbPolyline
 90
        4
 70
         1
 10
43020.0
 20
55470.0
 10
43020.0
 20
55870.0
 10
43520.0
 20
55870.0
 10
43520.0
 20
55470.0
  0
LWPOLYLINE
  5
CD
100
AcDbEntity
  8
PART_PADS_SMD_TOP
100
AcDbPolyline
 90
        4
 70
         1
 10
43020.0
 20
52380.0
 10
43020.0
 20
52780.0
 10
43520.0
 20
52780.0
 10
43520.0
 20
52380.0
  0
LWPOLYLINE
  5
CE
100
AcDbEntity
  8
PART_PADS_SMD_TOP
100
AcDbPolyline
 90
        4
 70
         1
 10
43020.0
 20
51580.0
 10
43020.0
 20
51980.0
 10
43520.0
 20
51980.0
 10
43520.0
 20
51580.0
  0
LWPOLYLINE
  5
CF
100
AcDbEntity
  8
PART_PADS_SMD_TOP
100
AcDbPolyline
 90
        4
 70
         1
 10
42253.0
 20
54605.0
 10
42253.0
 20
54955.0
 10
42753.0
 20
54955.0
 10
42753.0
 20
54605.0
  0
LWPOLYLINE
  5
D0
100
AcDbEntity
  8
PART_PADS_SMD_TOP
100
AcDbPolyline
 90
        4
 70
         1
 10
42253.0
 20
55605.0
 10
42253.0
 20
55955.0
 10
42753.0
 20
55955.0
 10
42753.0
 20
55605.0
  0
LWPOLYLINE
  5
D1
100
AcDbEntity
  8
PART_PADS_SMD_TOP
100
AcDbPolyline
 90
        4
 70
         1
 10
40806.0
 20
55105.0
 10
40806.0
 20
55455.0
 10
41306.0
 20
55455.0
 10
41306.0
 20
55105.0
  0
LWPOLYLINE
  5
D2
100
AcDbEntity
  8
PART_PADS_SMD_TOP
100
AcDbPolyline
 90
        4
 70
         1
 10
42820.0
 20
43060.0
 10
42820.0
 20
43460.0
 10
43320.0
 20
43460.0
 10
43320.0
 20
43060.0
  0
LWPOLYLINE
  5
D3
100
AcDbEntity
  8
PART_PADS_SMD_TOP
100
AcDbPolyline
 90
        4
 70
         1
 10
42820.0
 20
43860.0
 10
42820.0
 20
44260.0
 10
43320.0
 20
44260.0
 10
43320.0
 20
43860.0
  0
LWPOLYLINE
  5
D4
100
AcDbEntity
  8
PART_PADS_SMD_TOP
100
AcDbPolyline
 90
        4
 70
         1
 10
42820.0
 20
40380.0
 10
42820.0
 20
40780.0
 10
43320.0
 20
40780.0
 10
43320.0
 20
40380.0
  0
LWPOLYLINE
  5
D5
100
AcDbEntity
  8
PART_PADS_SMD_TOP
100
AcDbPolyline
 90
        4
 70
         1
 10
42820.0
 20
39580.0
 10
42820.0
 20
39980.0
 10
43320.0
 20
39980.0
 10
43320.0
 20
39580.0
  0
LWPOLYLINE
  5
D6
100
AcDbEntity
  8
PART_PADS_SMD_TOP
100
AcDbPolyline
 90
        4
 70
         1
 10
40954.5
 20
39720.0
 10
40954.5
 20
40570.0
 10
42204.5
 20
40570.0
 10
42204.5
 20
39720.0
  0
LWPOLYLINE
  5
D7
100
AcDbEntity
  8
PART_PADS_SMD_TOP
100
AcDbPolyline
 90
        4
 70
         1
 10
40954.5
 20
41270.0
 10
40954.5
 20
42120.0
 10
42204.5
 20
42120.0
 10
42204.5
 20
41270.0
  0
LWPOLYLINE
  5
D8
100
AcDbEntity
  8
PART_PADS_SMD_TOP
100
AcDbPolyline
 90
        4
 70
         1
 10
42053.0
 20
42985.0
 10
42053.0
 20
43335.0
 10
42553.0
 20
43335.0
 10
42553.0
 20
42985.0
  0
LWPOLYLINE
  5
D9
100
AcDbEntity
  8
PART_PADS_SMD_TOP
100
AcDbPolyline
 90
        4
 70
         1
 10
42053.0
 20
43985.0
 10
42053.0
 20
44335.0
 10
42553.0
 20
44335.0
 10
42553.0
 20
43985.0
  0
LWPOLYLINE
  5
DA
100
AcDbEntity
  8
PART_PADS_SMD_TOP
100
AcDbPolyline
 90
        4
 70
         1
 10
40606.0
 20
43485.0
 10
40606.0
 20
43835.0
 10
41106.0
 20
43835.0
 10
41106.0
 20
43485.0
  0
LWPOLYLINE
  5
DB
100
AcDbEntity
  8
PART_PADS_SMD_TOP
100
AcDbPolyline
 90
        4
 70
         1
 10
41054.5
 20
45500.0
 10
41054.5
 20
46350.0
 10
42304.5
 20
46350.0
 10
42304.5
 20
45500.0
  0
LWPOLYLINE
  5
DC
100
AcDbEntity
  8
PART_PADS_SMD_TOP
100
AcDbPolyline
 90
        4
 70
         1
 10
41054.5
 20
47050.0
 10
41054.5
 20
47900.0
 10
42304.5
 20
47900.0
 10
42304.5
 20
47050.0
  0
LWPOLYLINE
  5
DD
100
AcDbEntity
  8
PART_PADS_SMD_TOP
100
AcDbPolyline
 90
        4
 70
         1
 10
42920.0
 20
48800.0
 10
42920.0
 20
49200.0
 10
43420.0
 20
49200.0
 10
43420.0
 20
48800.0
  0
LWPOLYLINE
  5
DE
100
AcDbEntity
  8
PART_PADS_SMD_TOP
100
AcDbPolyline
 90
        4
 70
         1
 10
42920.0
 20
49600.0
 10
42920.0
 20
50000.0
 10
43420.0
 20
50000.0
 10
43420.0
 20
49600.0
  0
LWPOLYLINE
  5
DF
100
AcDbEntity
  8
PART_PADS_SMD_TOP
100
AcDbPolyline
 90
        4
 70
         1
 10
42920.0
 20
46750.0
 10
42920.0
 20
47150.0
 10
43420.0
 20
47150.0
 10
43420.0
 20
46750.0
  0
LWPOLYLINE
  5
E0
100
AcDbEntity
  8
PART_PADS_SMD_TOP
100
AcDbPolyline
 90
        4
 70
         1
 10
42920.0
 20
45950.0
 10
42920.0
 20
46350.0
 10
43420.0
 20
46350.0
 10
43420.0
 20
45950.0
  0
LWPOLYLINE
  5
E1
100
AcDbEntity
  8
PART_PADS_SMD_TOP
100
AcDbPolyline
 90
        4
 70
         1
 10
42153.0
 20
48685.0
 10
42153.0
 20
49035.0
 10
42653.0
 20
49035.0
 10
42653.0
 20
48685.0
  0
LWPOLYLINE
  5
E2
100
AcDbEntity
  8
PART_PADS_SMD_TOP
100
AcDbPolyline
 90
        4
 70
         1
 10
42153.0
 20
49685.0
 10
42153.0
 20
50035.0
 10
42653.0
 20
50035.0
 10
42653.0
 20
49685.0
  0
LWPOLYLINE
  5
E3
100
AcDbEntity
  8
PART_PADS_SMD_TOP
100
AcDbPolyline
 90
        4
 70
         1
 10
40706.0
 20
49185.0
 10
40706.0
 20
49535.0
 10
41206.0
 20
49535.0
 10
41206.0
 20
49185.0
  0
LWPOLYLINE
  5
E4
100
AcDbEntity
  8
PART_PADS_SMD_TOP
100
AcDbPolyline
 90
        4
 70
         1
 10
25625.0
 20
25375.0
 10
25625.0
 20
26625.0
 10
26475.0
 20
26625.0
 10
26475.0
 20
25375.0
  0
LWPOLYLINE
  5
E5
100
AcDbEntity
  8
PART_PADS_SMD_TOP
100
AcDbPolyline
 90
        4
 70
         1
 10
24075.0
 20
25375.0
 10
24075.0
 20
26625.0
 10
24925.0
 20
26625.0
 10
24925.0
 20
25375.0
  0
LWPOLYLINE
  5
E6
100
AcDbEntity
  8
PART_PADS_SMD_TOP
100
AcDbPolyline
 90
        4
 70
         1
 10
22525.0
 20
25375.0
 10
22525.0
 20
26625.0
 10
23375.0
 20
26625.0
 10
23375.0
 20
25375.0
  0
LWPOLYLINE
  5
E7
100
AcDbEntity
  8
PART_PADS_SMD_TOP
100
AcDbPolyline
 90
        4
 70
         1
 10
30625.0
 20
25375.0
 10
30625.0
 20
26625.0
 10
31475.0
 20
26625.0
 10
31475.0
 20
25375.0
  0
LWPOLYLINE
  5
E8
100
AcDbEntity
  8
PART_PADS_SMD_TOP
100
AcDbPolyline
 90
        4
 70
         1
 10
29075.0
 20
25375.0
 10
29075.0
 20
26625.0
 10
29925.0
 20
26625.0
 10
29925.0
 20
25375.0
  0
LWPOLYLINE
  5
E9
100
AcDbEntity
  8
PART_PADS_SMD_TOP
100
AcDbPolyline
 90
        4
 70
         1
 10
27525.0
 20
25375.0
 10
27525.0
 20
26625.0
 10
28375.0
 20
26625.0
 10
28375.0
 20
25375.0
  0
LWPOLYLINE
  5
EA
100
AcDbEntity
  8
PART_PADS_SMD_TOP
100
AcDbPolyline
 90
        4
 70
         1
 10
25180.0
 20
21984.5
 10
25180.0
 20
23384.5
 10
25630.0
 20
23384.5
 10
25630.0
 20
21984.5
  0
LWPOLYLINE
  5
EB
100
AcDbEntity
  8
PART_PADS_SMD_TOP
100
AcDbPolyline
 90
        4
 70
         1
 10
23910.0
 20
21984.5
 10
23910.0
 20
23384.5
 10
24360.0
 20
23384.5
 10
24360.0
 20
21984.5
  0
LWPOLYLINE
  5
EC
100
AcDbEntity
  8
PART_PADS_SMD_TOP
100
AcDbPolyline
 90
        4
 70
         1
 10
22640.0
 20
21984.5
 10
22640.0
 20
23384.5
 10
23090.0
 20
23384.5
 10
23090.0
 20
21984.5
  0
LWPOLYLINE
  5
ED
100
AcDbEntity
  8
PART_PADS_SMD_TOP
100
AcDbPolyline
 90
        4
 70
         1
 10
21370.0
 20
21984.5
 10
21370.0
 20
23384.5
 10
21820.0
 20
23384.5
 10
21820.0
 20
21984.5
  0
LWPOLYLINE
  5
EE
100
AcDbEntity
  8
PART_PADS_SMD_TOP
100
AcDbPolyline
 90
        4
 70
         1
 10
21370.0
 20
16584.5
 10
21370.0
 20
17984.5
 10
21820.0
 20
17984.5
 10
21820.0
 20
16584.5
  0
LWPOLYLINE
  5
EF
100
AcDbEntity
  8
PART_PADS_SMD_TOP
100
AcDbPolyline
 90
        4
 70
         1
 10
22640.0
 20
16584.5
 10
22640.0
 20
17984.5
 10
23090.0
 20
17984.5
 10
23090.0
 20
16584.5
  0
LWPOLYLINE
  5
F0
100
AcDbEntity
  8
PART_PADS_SMD_TOP
100
AcDbPolyline
 90
        4
 70
         1
 10
23910.0
 20
16584.5
 10
23910.0
 20
17984.5
 10
24360.0
 20
17984.5
 10
24360.0
 20
16584.5
  0
LWPOLYLINE
  5
F1
100
AcDbEntity
  8
PART_PADS_SMD_TOP
100
AcDbPolyline
 90
        4
 70
         1
 10
25180.0
 20
16584.5
 10
25180.0
 20
17984.5
 10
25630.0
 20
17984.5
 10
25630.0
 20
16584.5
  0
LWPOLYLINE
  5
F2
100
AcDbEntity
  8
PART_PADS_SMD_TOP
100
AcDbPolyline
 90
        4
 70
         1
 10
27875.0
 20
21300.0
 10
27875.0
 20
22150.0
 10
29125.0
 20
22150.0
 10
29125.0
 20
21300.0
  0
LWPOLYLINE
  5
F3
100
AcDbEntity
  8
PART_PADS_SMD_TOP
100
AcDbPolyline
 90
        4
 70
         1
 10
27875.0
 20
22850.0
 10
27875.0
 20
23700.0
 10
29125.0
 20
23700.0
 10
29125.0
 20
22850.0
  0
LWPOLYLINE
  5
F4
100
AcDbEntity
  8
PART_PADS_SMD_TOP
100
AcDbPolyline
 90
        4
 70
         1
 10
19230.0
 20
22740.0
 10
19230.0
 20
23240.0
 10
19630.0
 20
23240.0
 10
19630.0
 20
22740.0
  0
LWPOLYLINE
  5
F5
100
AcDbEntity
  8
PART_PADS_SMD_TOP
100
AcDbPolyline
 90
        4
 70
         1
 10
18430.0
 20
22740.0
 10
18430.0
 20
23240.0
 10
18830.0
 20
23240.0
 10
18830.0
 20
22740.0
  0
LWPOLYLINE
  5
F6
100
AcDbEntity
  8
PART_PADS_SMD_TOP
100
AcDbPolyline
 90
        4
 70
         1
 10
40990.0
 20
31810.0
 10
40990.0
 20
32310.0
 10
41390.0
 20
32310.0
 10
41390.0
 20
31810.0
  0
LWPOLYLINE
  5
F7
100
AcDbEntity
  8
PART_PADS_SMD_TOP
100
AcDbPolyline
 90
        4
 70
         1
 10
40190.0
 20
31810.0
 10
40190.0
 20
32310.0
 10
40590.0
 20
32310.0
 10
40590.0
 20
31810.0
  0
LWPOLYLINE
  5
F8
100
AcDbEntity
  8
PART_PADS_SMD_TOP
100
AcDbPolyline
 90
        4
 70
         1
 10
33350.0
 20
42540.0
 10
33350.0
 20
43040.0
 10
33750.0
 20
43040.0
 10
33750.0
 20
42540.0
  0
LWPOLYLINE
  5
F9
100
AcDbEntity
  8
PART_PADS_SMD_TOP
100
AcDbPolyline
 90
        4
 70
         1
 10
32550.0
 20
42540.0
 10
32550.0
 20
43040.0
 10
32950.0
 20
43040.0
 10
32950.0
 20
42540.0
  0
LWPOLYLINE
  5
FA
100
AcDbEntity
  8
PART_PADS_SMD_TOP
100
AcDbPolyline
 90
        4
 70
         1
 10
7440.0
 20
14940.0
 10
7440.0
 20
15440.0
 10
7840.0
 20
15440.0
 10
7840.0
 20
14940.0
  0
LWPOLYLINE
  5
FB
100
AcDbEntity
  8
PART_PADS_SMD_TOP
100
AcDbPolyline
 90
        4
 70
         1
 10
6640.0
 20
14940.0
 10
6640.0
 20
15440.0
 10
7040.0
 20
15440.0
 10
7040.0
 20
14940.0
  0
LWPOLYLINE
  5
FC
100
AcDbEntity
  8
PART_PADS_SMD_TOP
100
AcDbPolyline
 90
        4
 70
         1
 10
57040.0
 20
42560.0
 10
57040.0
 20
43960.0
 10
58640.0
 20
43960.0
 10
58640.0
 20
42560.0
  0
LWPOLYLINE
  5
FD
100
AcDbEntity
  8
PART_PADS_SMD_TOP
100
AcDbPolyline
 90
        4
 70
         1
 10
51040.0
 20
42560.0
 10
51040.0
 20
43960.0
 10
52640.0
 20
43960.0
 10
52640.0
 20
42560.0
  0
LWPOLYLINE
  5
FE
100
AcDbEntity
  8
PART_PADS_SMD_TOP
100
AcDbPolyline
 90
        4
 70
         1
 10
50020.0
 20
43430.0
 10
50020.0
 20
43830.0
 10
50520.0
 20
43830.0
 10
50520.0
 20
43430.0
  0
LWPOLYLINE
  5
FF
100
AcDbEntity
  8
PART_PADS_SMD_TOP
100
AcDbPolyline
 90
        4
 70
         1
 10
50020.0
 20
42630.0
 10
50020.0
 20
43030.0
 10
50520.0
 20
43030.0
 10
50520.0
 20
42630.0
  0
LWPOLYLINE
  5
100
100
AcDbEntity
  8
PART_PADS_SMD_TOP
100
AcDbPolyline
 90
        4
 70
         1
 10
6485.0
 20
33050.0
 10
6485.0
 20
33900.0
 10
7735.0
 20
33900.0
 10
7735.0
 20
33050.0
  0
LWPOLYLINE
  5
101
100
AcDbEntity
  8
PART_PADS_SMD_TOP
100
AcDbPolyline
 90
        4
 70
         1
 10
6485.0
 20
31500.0
 10
6485.0
 20
32350.0
 10
7735.0
 20
32350.0
 10
7735.0
 20
31500.0
  0
LWPOLYLINE
  5
102
100
AcDbEntity
  8
PART_PADS_SMD_TOP
100
AcDbPolyline
 90
        4
 70
         1
 10
30550.0
 20
28020.0
 10
30550.0
 20
28520.0
 10
30950.0
 20
28520.0
 10
30950.0
 20
28020.0
  0
LWPOLYLINE
  5
103
100
AcDbEntity
  8
PART_PADS_SMD_TOP
100
AcDbPolyline
 90
        4
 70
         1
 10
29750.0
 20
28020.0
 10
29750.0
 20
28520.0
 10
30150.0
 20
28520.0
 10
30150.0
 20
28020.0
  0
LWPOLYLINE
  5
104
100
AcDbEntity
  8
PART_PADS_SMD_TOP
100
AcDbPolyline
 90
        4
 70
         1
 10
26020.0
 20
36510.0
 10
26020.0
 20
37010.0
 10
26420.0
 20
37010.0
 10
26420.0
 20
36510.0
  0
LWPOLYLINE
  5
105
100
AcDbEntity
  8
PART_PADS_SMD_TOP
100
AcDbPolyline
 90
        4
 70
         1
 10
25220.0
 20
36510.0
 10
25220.0
 20
37010.0
 10
25620.0
 20
37010.0
 10
25620.0
 20
36510.0
  0
LWPOLYLINE
  5
106
100
AcDbEntity
  8
PART_PADS_SMD_TOP
100
AcDbPolyline
 90
        4
 70
         1
 10
23390.0
 20
36510.0
 10
23390.0
 20
37010.0
 10
23790.0
 20
37010.0
 10
23790.0
 20
36510.0
  0
LWPOLYLINE
  5
107
100
AcDbEntity
  8
PART_PADS_SMD_TOP
100
AcDbPolyline
 90
        4
 70
         1
 10
24190.0
 20
36510.0
 10
24190.0
 20
37010.0
 10
24590.0
 20
37010.0
 10
24590.0
 20
36510.0
  0
LWPOLYLINE
  5
108
100
AcDbEntity
  8
PART_PADS_SMD_TOP
100
AcDbPolyline
 90
        4
 70
         1
 10
29000.0
 20
36510.0
 10
29000.0
 20
37010.0
 10
29400.0
 20
37010.0
 10
29400.0
 20
36510.0
  0
LWPOLYLINE
  5
109
100
AcDbEntity
  8
PART_PADS_SMD_TOP
100
AcDbPolyline
 90
        4
 70
         1
 10
29800.0
 20
36510.0
 10
29800.0
 20
37010.0
 10
30200.0
 20
37010.0
 10
30200.0
 20
36510.0
  0
LWPOLYLINE
  5
10A
100
AcDbEntity
  8
PART_PADS_SMD_TOP
100
AcDbPolyline
 90
        4
 70
         1
 10
21650.0
 20
36510.0
 10
21650.0
 20
37010.0
 10
22050.0
 20
37010.0
 10
22050.0
 20
36510.0
  0
LWPOLYLINE
  5
10B
100
AcDbEntity
  8
PART_PADS_SMD_TOP
100
AcDbPolyline
 90
        4
 70
         1
 10
22450.0
 20
36510.0
 10
22450.0
 20
37010.0
 10
22850.0
 20
37010.0
 10
22850.0
 20
36510.0
  0
LWPOLYLINE
  5
10C
100
AcDbEntity
  8
PART_PADS_SMD_TOP
100
AcDbPolyline
 90
        4
 70
         1
 10
28660.0
 20
28020.0
 10
28660.0
 20
28520.0
 10
29060.0
 20
28520.0
 10
29060.0
 20
28020.0
  0
LWPOLYLINE
  5
10D
100
AcDbEntity
  8
PART_PADS_SMD_TOP
100
AcDbPolyline
 90
        4
 70
         1
 10
27860.0
 20
28020.0
 10
27860.0
 20
28520.0
 10
28260.0
 20
28520.0
 10
28260.0
 20
28020.0
  0
LWPOLYLINE
  5
10E
100
AcDbEntity
  8
PART_PADS_SMD_TOP
100
AcDbPolyline
 90
        4
 70
         1
 10
25550.0
 20
28020.0
 10
25550.0
 20
28520.0
 10
25950.0
 20
28520.0
 10
25950.0
 20
28020.0
  0
LWPOLYLINE
  5
10F
100
AcDbEntity
  8
PART_PADS_SMD_TOP
100
AcDbPolyline
 90
        4
 70
         1
 10
26350.0
 20
28020.0
 10
26350.0
 20
28520.0
 10
26750.0
 20
28520.0
 10
26750.0
 20
28020.0
  0
LWPOLYLINE
  5
110
100
AcDbEntity
  8
PART_PADS_SMD_TOP
100
AcDbPolyline
 90
        4
 70
         1
 10
22280.0
 20
28020.0
 10
22280.0
 20
28520.0
 10
22680.0
 20
28520.0
 10
22680.0
 20
28020.0
  0
LWPOLYLINE
  5
111
100
AcDbEntity
  8
PART_PADS_SMD_TOP
100
AcDbPolyline
 90
        4
 70
         1
 10
23080.0
 20
28020.0
 10
23080.0
 20
28520.0
 10
23480.0
 20
28520.0
 10
23480.0
 20
28020.0
  0
LWPOLYLINE
  5
112
100
AcDbEntity
  8
PART_PADS_SMD_TOP
100
AcDbPolyline
 90
        4
 70
         1
 10
21450.0
 20
29170.0
 10
21450.0
 20
30570.0
 10
21900.0
 20
30570.0
 10
21900.0
 20
29170.0
  0
LWPOLYLINE
  5
113
100
AcDbEntity
  8
PART_PADS_SMD_TOP
100
AcDbPolyline
 90
        4
 70
         1
 10
22720.0
 20
29170.0
 10
22720.0
 20
30570.0
 10
23170.0
 20
30570.0
 10
23170.0
 20
29170.0
  0
LWPOLYLINE
  5
114
100
AcDbEntity
  8
PART_PADS_SMD_TOP
100
AcDbPolyline
 90
        4
 70
         1
 10
23990.0
 20
29170.0
 10
23990.0
 20
30570.0
 10
24440.0
 20
30570.0
 10
24440.0
 20
29170.0
  0
LWPOLYLINE
  5
115
100
AcDbEntity
  8
PART_PADS_SMD_TOP
100
AcDbPolyline
 90
        4
 70
         1
 10
25260.0
 20
29170.0
 10
25260.0
 20
30570.0
 10
25710.0
 20
30570.0
 10
25710.0
 20
29170.0
  0
LWPOLYLINE
  5
116
100
AcDbEntity
  8
PART_PADS_SMD_TOP
100
AcDbPolyline
 90
        4
 70
         1
 10
26530.0
 20
29170.0
 10
26530.0
 20
30570.0
 10
26980.0
 20
30570.0
 10
26980.0
 20
29170.0
  0
LWPOLYLINE
  5
117
100
AcDbEntity
  8
PART_PADS_SMD_TOP
100
AcDbPolyline
 90
        4
 70
         1
 10
27800.0
 20
29170.0
 10
27800.0
 20
30570.0
 10
28250.0
 20
30570.0
 10
28250.0
 20
29170.0
  0
LWPOLYLINE
  5
118
100
AcDbEntity
  8
PART_PADS_SMD_TOP
100
AcDbPolyline
 90
        4
 70
         1
 10
29070.0
 20
29170.0
 10
29070.0
 20
30570.0
 10
29520.0
 20
30570.0
 10
29520.0
 20
29170.0
  0
LWPOLYLINE
  5
119
100
AcDbEntity
  8
PART_PADS_SMD_TOP
100
AcDbPolyline
 90
        4
 70
         1
 10
30340.0
 20
29170.0
 10
30340.0
 20
30570.0
 10
30790.0
 20
30570.0
 10
30790.0
 20
29170.0
  0
LWPOLYLINE
  5
11A
100
AcDbEntity
  8
PART_PADS_SMD_TOP
100
AcDbPolyline
 90
        4
 70
         1
 10
30340.0
 20
34570.0
 10
30340.0
 20
35970.0
 10
30790.0
 20
35970.0
 10
30790.0
 20
34570.0
  0
LWPOLYLINE
  5
11B
100
AcDbEntity
  8
PART_PADS_SMD_TOP
100
AcDbPolyline
 90
        4
 70
         1
 10
29070.0
 20
34570.0
 10
29070.0
 20
35970.0
 10
29520.0
 20
35970.0
 10
29520.0
 20
34570.0
  0
LWPOLYLINE
  5
11C
100
AcDbEntity
  8
PART_PADS_SMD_TOP
100
AcDbPolyline
 90
        4
 70
         1
 10
27800.0
 20
34570.0
 10
27800.0
 20
35970.0
 10
28250.0
 20
35970.0
 10
28250.0
 20
34570.0
  0
LWPOLYLINE
  5
11D
100
AcDbEntity
  8
PART_PADS_SMD_TOP
100
AcDbPolyline
 90
        4
 70
         1
 10
26530.0
 20
34570.0
 10
26530.0
 20
35970.0
 10
26980.0
 20
35970.0
 10
26980.0
 20
34570.0
  0
LWPOLYLINE
  5
11E
100
AcDbEntity
  8
PART_PADS_SMD_TOP
100
AcDbPolyline
 90
        4
 70
         1
 10
25260.0
 20
34570.0
 10
25260.0
 20
35970.0
 10
25710.0
 20
35970.0
 10
25710.0
 20
34570.0
  0
LWPOLYLINE
  5
11F
100
AcDbEntity
  8
PART_PADS_SMD_TOP
100
AcDbPolyline
 90
        4
 70
         1
 10
23990.0
 20
34570.0
 10
23990.0
 20
35970.0
 10
24440.0
 20
35970.0
 10
24440.0
 20
34570.0
  0
LWPOLYLINE
  5
120
100
AcDbEntity
  8
PART_PADS_SMD_TOP
100
AcDbPolyline
 90
        4
 70
         1
 10
22720.0
 20
34570.0
 10
22720.0
 20
35970.0
 10
23170.0
 20
35970.0
 10
23170.0
 20
34570.0
  0
LWPOLYLINE
  5
121
100
AcDbEntity
  8
PART_PADS_SMD_TOP
100
AcDbPolyline
 90
        4
 70
         1
 10
21450.0
 20
34570.0
 10
21450.0
 20
35970.0
 10
21900.0
 20
35970.0
 10
21900.0
 20
34570.0
  0
ENDSEC
  0
SECTION
  2
OBJECTS
  0
DICTIONARY
  5
19
100
AcDbDictionary
  3
ACAD_GROUP
350
1A
  3
ACAD_MLINESTYLE
350
1B
  0
DICTIONARY
  5
1A
102
{ACAD_REACTORS
330
19
102
}
100
AcDbDictionary
  0
DICTIONARY
  5
1B
102
{ACAD_REACTORS
330
19
102
}
100
AcDbDictionary
  3
STANDARD
350
1C
  0
MLINESTYLE
  5
1C
102
{ACAD_REACTORS
330
1B
102
}
100
AcDbMlineStyle
  2
STANDARD
 70
         0
  3

 62
         0
 51
90.0
 52
90.0
 71
         2
 49
0.5
 62
       256
  6
BYLAYER
 49
-0.5
 62
       256
  6
BYLAYER
  0
DICTIONARY
  5
22
102
{ACAD_REACTORS
330
19
102
}
100
AcDbDictionary
  0
ENDSEC
  0
EOF
