  0
SECTION
  2
HEADER
  9
$ACADVER
  1
AC1014
  9
$ACADMAINTVER
 70
         0
  9
$DWGCODEPAGE
  3
ANSI_1252
  9
$INSBASE
 10
0.0
 20
0.0
 30
0.0
  9
$EXTMIN
 10
-7250.0
 20
-101.6
 30
0.0
  9
$EXTMAX
 10
48149.6
 20
75149.6
 30
0.0
  9
$LIMMIN
 10
0.0
 20
0.0
  9
$LIMMAX
 10
0.0
 20
0.0
  9
$ORTHOMODE
 70
         0
  9
$REGENMODE
 70
         1
  9
$FILLMODE
 70
         1
  9
$QTEXTMODE
 70
         0
  9
$MIRRTEXT
 70
         1
  9
$DRAGMODE
 70
         2
  9
$LTSCALE
 40
1.0
  9
$OSMODE
 70
         0
  9
$ATTMODE
 70
         1
  9
$TEXTSIZE
 40
0.2
  9
$TRACEWID
 40
0.05
  9
$TEXTSTYLE
  7
STANDARD
  9
$CLAYER
  8
0
  9
$CELTYPE
  6
CONTINUOUS
  9
$CECOLOR
 62
       256
  9
$CELTSCALE
 40
1.0
  9
$DELOBJ
 70
         1
  9
$DISPSILH
 70
         0
  9
$DIMSCALE
 40
1.0
  9
$DIMASZ
 40
0.18
  9
$DIMEXO
 40
0.0625
  9
$DIMDLI
 40
0.38
  9
$DIMRND
 40
0.0
  9
$DIMDLE
 40
0.0
  9
$DIMEXE
 40
0.18
  9
$DIMTP
 40
0.0
  9
$DIMTM
 40
0.0
  9
$DIMTXT
 40
0.18
  9
$DIMCEN
 40
0.09
  9
$DIMTSZ
 40
0.0
  9
$DIMTOL
 70
         0
  9
$DIMLIM
 70
         0
  9
$DIMTIH
 70
         1
  9
$DIMTOH
 70
         1
  9
$DIMSE1
 70
         0
  9
$DIMSE2
 70
         0
  9
$DIMTAD
 70
         0
  9
$DIMZIN
 70
         0
  9
$DIMBLK
  1

  9
$DIMASO
 70
         1
  9
$DIMSHO
 70
         1
  9
$DIMPOST
  1

  9
$DIMAPOST
  1

  9
$DIMALT
 70
         0
  9
$DIMALTD
 70
         2
  9
$DIMALTF
 40
25.4
  9
$DIMLFAC
 40
1.0
  9
$DIMTOFL
 70
         0
  9
$DIMTVP
 40
0.0
  9
$DIMTIX
 70
         0
  9
$DIMSOXD
 70
         0
  9
$DIMSAH
 70
         0
  9
$DIMBLK1
  1

  9
$DIMBLK2
  1

  9
$DIMSTYLE
  2
STANDARD
  9
$DIMCLRD
 70
         0
  9
$DIMCLRE
 70
         0
  9
$DIMCLRT
 70
         0
  9
$DIMTFAC
 40
1.0
  9
$DIMGAP
 40
0.09
  9
$DIMJUST
 70
         0
  9
$DIMSD1
 70
         0
  9
$DIMSD2
 70
         0
  9
$DIMTOLJ
 70
         1
  9
$DIMTZIN
 70
         0
  9
$DIMALTZ
 70
         0
  9
$DIMALTTZ
 70
         0
  9
$DIMFIT
 70
         3
  9
$DIMUPT
 70
         0
  9
$DIMUNIT
 70
         2
  9
$DIMDEC
 70
         4
  9
$DIMTDEC
 70
         4
  9
$DIMALTU
 70
         2
  9
$DIMALTTD
 70
         2
  9
$DIMTXSTY
  7
STANDARD
  9
$DIMAUNIT
 70
         0
  9
$LUNITS
 70
         2
  9
$LUPREC
 70
         4
  9
$SKETCHINC
 40
0.1
  9
$FILLETRAD
 40
0.0
  9
$AUNITS
 70
         0
  9
$AUPREC
 70
         0
  9
$MENU
  1
acad
  9
$ELEVATION
 40
0.0
  9
$PELEVATION
 40
0.0
  9
$THICKNESS
 40
0.0
  9
$LIMCHECK
 70
         0
  9
$BLIPMODE
 70
         1
  9
$CHAMFERA
 40
0.0
  9
$CHAMFERB
 40
0.0
  9
$CHAMFERC
 40
0.0
  9
$CHAMFERD
 40
0.0
  9
$SKPOLY
 70
         0
  9
$TDCREATE
 40
2456576.490254629
  9
$TDUPDATE
 40
0.000000000
  9
$TDINDWG
 40
0.0000000000
  9
$TDUSRTIMER
 40
0.0000000000
  9
$USRTIMER
 70
         1
  9
$ANGBASE
 50
0.0
  9
$ANGDIR
 70
         0
  9
$PDMODE
 70
         0
  9
$PDSIZE
 40
0.0
  9
$PLINEWID
 40
0.0
  9
$COORDS
 70
         0
  9
$SPLFRAME
 70
         0
  9
$SPLINETYPE
 70
         6
  9
$SPLINESEGS
 70
         8
  9
$ATTDIA
 70
         0
  9
$ATTREQ
 70
         1
  9
$HANDLING
 70
         1
  9
$HANDSEED
  5
2F4
  9
$SURFTAB1
 70
         6
  9
$SURFTAB2
 70
         6
  9
$SURFTYPE
 70
         6
  9
$SURFU
 70
         6
  9
$SURFV
 70
         6
  9
$UCSNAME
  2

  9
$UCSORG
 10
0.0
 20
0.0
 30
0.0
  9
$UCSXDIR
 10
1.0
 20
0.0
 30
0.0
  9
$UCSYDIR
 10
0.0
 20
1.0
 30
0.0
  9
$PUCSNAME
  2

  9
$PUCSORG
 10
0.0
 20
0.0
 30
0.0
  9
$PUCSXDIR
 10
1.0
 20
0.0
 30
0.0
  9
$PUCSYDIR
 10
0.0
 20
1.0
 30
0.0
  9
$USERI1
 70
        -4
  9
$USERI2
 70
         0
  9
$USERI3
 70
         0
  9
$USERI4
 70
         0
  9
$USERI5
 70
         0
  9
$USERR1
 40
0.0
  9
$USERR2
 40
0.0
  9
$USERR3
 40
0.0
  9
$USERR4
 40
0.0
  9
$USERR5
 40
0.0
  9
$WORLDVIEW
 70
         1
  9
$SHADEDGE
 70
         3
  9
$SHADEDIF
 70
        70
  9
$TILEMODE
 70
         1
  9
$MAXACTVP
 70
        16
  9
$PINSBASE
 10
0.0
 20
0.0
 30
0.0
  9
$PLIMCHECK
 70
         0
  9
$PEXTMIN
 10
1.0000000000E+20
 20
1.0000000000E+20
 30
1.0000000000E+20
  9
$PEXTMAX
 10
-1.0000000000E+20
 20
-1.0000000000E+20
 30
-1.0000000000E+20
  9
$PLIMMIN
 10
0.0
 20
0.0
  9
$PLIMMAX
 10
12.0
 20
9.0
  9
$UNITMODE
 70
         0
  9
$VISRETAIN
 70
         0
  9
$PLINEGEN
 70
         1
  9
$PSLTSCALE
 70
         0
  9
$TREEDEPTH
 70
      3020
  9
$PICKSTYLE
 70
         1
  9
$CMLSTYLE
  2
STANDARD
  9
$CMLJUST
 70
         0
  9
$CMLSCALE
 40
1.0
  9
$PROXYGRAPHICS
 70
         0
  9
$MEASUREMENT
 70
         0
  0
ENDSEC
  0
SECTION
  2
CLASSES
  0
CLASS
  1
LWPOLYLINE
  2
AcDbPolyline
  3
"AutoCAD"
 90
        0
280
         0
281
         1
  0
CLASS
  1
IMAGE
  2
AcDbRasterImage
  3
ISM
 90
      127
280
         0
281
         1
  0
CLASS
  1
OLE2FRAME
  2
AcDbOle2Frame
  3
""
 90
        0
280
         0
281
         1
  0
CLASS
  1
HATCH
  2
AcDbHatch
  3
"ACAD_SEDONA"
 90
        0
280
         0
281
         1
  0
CLASS
  1
DICTIONARYVAR
  2
AcDbDictionaryVar
  3
"AutoCAD"
 90
        0
280
         0
281
         0
  0
CLASS
  1
RASTERVARIABLES
  2
AcDbRasterVariables
  3
ISM
 90
        0
280
         0
281
         0
  0
CLASS
  1
IMAGEDEF
  2
AcDbRasterImageDef
  3
ISM
 90
        0
280
         0
281
         0
  0
CLASS
  1
IMAGEDEF_REACTOR
  2
AcDbRasterImageDefReactor
  3
ISM
 90
        1
280
         0
281
         0
  0
CLASS
  1
IDBUFFER
  2
AcDbIdBuffer
  3
"Acad"
 90
        0
280
         0
281
         0
  0
CLASS
  1
SPATIAL_FILTER
  2
AcDbSpatialFilter
  3
"Acad"
 90
        0
280
         0
281
         0
  0
CLASS
  1
XRECORD
  2
AcDbXrecord
  3
"<Built In>"
 90
        0
280
         0
281
         0
  0
CLASS
  1
SORTENTSTABLE
  2
AcDbSortentsTable
  3
"AutoCAD"
 90
        0
280
         0
281
         0
  0
CLASS
  1
LAYER_INDEX
  2
AcDbLayerIndex
  3
"Acad"
 90
        0
280
         0
281
         0
  0
CLASS
  1
SPATIAL_INDEX
  2
AcDbSpatialIndex
  3
"Acad"
 90
        0
280
         0
281
         0
  0
CLASS
  1
OBJECT_PTR
  2
CAseDLPNTableRecord
  3
"ASE-LPNTableRecord"
 90
        1
280
         0
281
         0
  0
CLASS
  1
LAYOUT
  2
AcDbLayout
  3
"AutoCAD 2000"
 90
        0
280
         0
281
         0
  0
CLASS
  1
PLOTSETTINGS
  2
AcDbPlotSettings
  3
"AutoCAD 2000"
 90
        0
280
         0
281
         0
  0
CLASS
  1
ACDBDICTIONARYWDFLT
  2
AcDbDictionaryWithDefault
  3
"AutoCAD 2000"
 90
        0
280
         0
281
         0
  0
CLASS
  1
ACDBPLACEHOLDER
  2
AcDbPlaceHolder
  3
"AutoCAD 2000"
 90
        0
280
         0
281
         0
  0
CLASS
  1
VBA_PROJECT
  2
AcDbVbaProject
  3
"acadvba"
 90
        0
280
         0
281
         0
  0
CLASS
  1
WIPEOUT
  2
AcDbWipeout
  3
WipeOut|AutoCAD Express Tool|expresstools@autodesk.com
 90
      127
280
         0
281
         1
  0
CLASS
  1
WIPEOUTVARIABLES
  2
AcDbWipeoutVariables
  3
WipeOut|AutoCAD Express Tool|expresstools@autodesk.com
 90
        0
280
         0
281
         0
  0
CLASS
  1
RTEXT
  2
RText
  3
RText|AutoCAD Express Tool|expresstools@autodesk.com
 90
        0
280
         0
281
         1
  0
CLASS
  1
ARCALIGNEDTEXT
  2
AcDbArcAlignedText
  3
ATEXT|AutoCAD Express Tool|expresstools@autodesk.com
 90
        0
280
         0
281
         1
  0
ENDSEC
  0
SECTION
  2
TABLES
  0
TABLE
  2
VPORT
  5
7
100
AcDbSymbolTable
 70
         1
  0
VPORT
  5
15
100
AcDbSymbolTableRecord
100
AcDbViewportTableRecord
  2
*ACTIVE
 70
         0
 10
0.0
 20
0.0
 11
1.0
 21
1.0
 12
6.591288
 22
4.579184
 13
0.0
 23
0.0
 14
1.0
 24
1.0
 15
0.0
 25
0.0
 16
0.0
 26
0.0
 36
1.0
 17
0.0
 27
0.0
 37
0.0
 40
9.158369
 41
0.688564
 42
50.0
 43
0.0
 44
0.0
 50
0.0
 51
0.0
 71
         0
 72
       100
 73
         1
 74
         1
 75
         0
 76
         0
 77
         0
 78
         0
  0
ENDTAB
  0
TABLE
  2
LTYPE
  5
4
100
AcDbSymbolTable
 70
         3
  0
LTYPE
  5
11
100
AcDbSymbolTableRecord
100
AcDbLinetypeTableRecord
  2
BYBLOCK
 70
        64
  3

 72
        65
 73
         0
 40
0.0
  0
LTYPE
  5
12
100
AcDbSymbolTableRecord
100
AcDbLinetypeTableRecord
  2
BYLAYER
 70
        64
  3

 72
        65
 73
         0
 40
0.0
  0
LTYPE
  5
13
100
AcDbSymbolTableRecord
100
AcDbLinetypeTableRecord
  2
CONTINUOUS
 70
        64
  3
Solid line
 72
        65
 73
         0
 40
0.0
  0
ENDTAB
  0
TABLE
  2
LAYER
  5
2
100
AcDbSymbolTable
 70
         6
  0
LAYER
  5
14
100
AcDbSymbolTableRecord
100
AcDbLayerTableRecord
  2
0
 70
         0
 62
         7
  6
CONTINUOUS
  0
LAYER
  5
24
100
AcDbSymbolTableRecord
100
AcDbLayerTableRecord
  2
ASSEMBLY_OUTLINES_TOP
 70
         0
 62
       104
  6
CONTINUOUS
  0
LAYER
  5
25
100
AcDbSymbolTableRecord
100
AcDbLayerTableRecord
  2
ASSEMBLY_REF_DES_TOP
 70
         0
 62
        30
  6
CONTINUOUS
  0
LAYER
  5
26
100
AcDbSymbolTableRecord
100
AcDbLayerTableRecord
  2
BOARD_OUTLINE
 70
         0
 62
        10
  6
CONTINUOUS
  0
LAYER
  5
27
100
AcDbSymbolTableRecord
100
AcDbLayerTableRecord
  2
SOLDERMASK_PADS_BTM
 70
         0
 62
       151
  6
CONTINUOUS
  0
LAYER
  5
28
100
AcDbSymbolTableRecord
100
AcDbLayerTableRecord
  2
SOLDERMASK_PADS_TOP
 70
         0
 62
        81
  6
CONTINUOUS
  0
ENDTAB
  0
TABLE
  2
STYLE
  5
3
100
AcDbSymbolTable
 70
         2
  0
STYLE
  5
17
100
AcDbSymbolTableRecord
100
AcDbTextStyleTableRecord
  2
STANDARD
 70
         0
 40
0.0
 41
1.0
 50
0.0
 71
         0
 42
0.0
  3
txt
  4

  0
STYLE
  5
39
100
AcDbSymbolTableRecord
100
AcDbTextStyleTableRecord
  2
ARIAL
 70
         0
 40
0.0
 41
1.0
 50
0.0
 71
         0
 42
0.0
  3
ARIAL.TTF
  4

  0
ENDTAB
  0
TABLE
  2
VIEW
  5
5
100
AcDbSymbolTable
 70
         0
  0
ENDTAB
  0
TABLE
  2
UCS
  5
6
100
AcDbSymbolTable
 70
         0
  0
ENDTAB
  0
TABLE
  2
APPID
  5
8
100
AcDbSymbolTable
 70
         1
  0
APPID
  5
16
100
AcDbSymbolTableRecord
100
AcDbRegAppTableRecord
  2
ACAD
 70
         0
  0
ENDTAB
  0
TABLE
  2
DIMSTYLE
  5
9
100
AcDbSymbolTable
 70
         1
  0
DIMSTYLE
105
18
100
AcDbSymbolTableRecord
100
AcDbDimStyleTableRecord
  2
STANDARD
 70
         0
  3

  4

  5

  6

  7

 40
1.0
 41
0.18
 42
0.0625
 43
0.38
 44
0.18
 45
0.0
 46
0.0
 47
0.0
 48
0.0
 71
         0
 72
         0
 73
         1
 74
         1
 75
         0
 76
         0
 77
         0
 78
         0
140
0.18
141
0.09
142
0.0
143
25.4
144
1.0
145
0.0
146
1.0
147
0.09
170
         0
171
         2
172
         0
173
         0
174
         0
175
         0
176
         0
177
         0
178
         0
270
         2
271
         4
272
         4
273
         2
274
         2
275
         0
280
         0
281
         0
282
         0
283
         1
284
         0
285
         0
286
         0
287
         3
288
         0
340
17
  0
ENDTAB
  0
TABLE
  2
BLOCK_RECORD
  5
1
100
AcDbSymbolTable
 70
         0
  0
BLOCK_RECORD
  5
A
100
AcDbSymbolTableRecord
100
AcDbBlockTableRecord
  2
*MODEL_SPACE
  0
BLOCK_RECORD
  5
B
100
AcDbSymbolTableRecord
100
AcDbBlockTableRecord
  2
*PAPER_SPACE
  0
ENDTAB
  0
ENDSEC
  0
SECTION
  2
BLOCKS
  0
BLOCK
  5
D
100
AcDbEntity
  8
0
100
AcDbBlockBegin
  2
*MODEL_SPACE
 70
         0
 10
0.0
 20
0.0
 30
0.0
  3
*MODEL_SPACE
  1

  0
ENDBLK
  5
E
100
AcDbEntity
  8
0
100
AcDbBlockEnd
  0
BLOCK
  5
F
100
AcDbEntity
 67
         1
  8
0
100
AcDbBlockBegin
  2
*PAPER_SPACE
 70
         0
 10
0.0
 20
0.0
 30
0.0
  3
*PAPER_SPACE
  1

  0
ENDBLK
  5
10
100
AcDbEntity
 67
         1
  8
0
100
AcDbBlockEnd
  0
ENDSEC
  0
SECTION
  2
ENTITIES
  0
LWPOLYLINE
  5
29
100
AcDbEntity
  8
ASSEMBLY_OUTLINES_TOP
100
AcDbPolyline
 90
        3
 70
         1
 10
47540.0
 20
0.0
 10
46968.5
 20
1143.0
 10
48111.5
 20
1143.0
  0
HATCH
  5
2A
100
AcDbEntity
  8
ASSEMBLY_OUTLINES_TOP
100
AcDbHatch
 10
0.0
 20
0.0
 30
0.0
210
0.0
220
0.0
230
1.0
  2
SOLID
 70
         1
 71
         1
 91
        1
 92
        2
 72
         0
 73
         1
 93
        3
 10
47540.0
 20
0.0
 10
46968.5
 20
1143.0
 10
48111.5
 20
1143.0
 97
        1
330
29
 75
         0
 76
         1
 98
        1
 10
0.0
 20
0.0
  0
LWPOLYLINE
  5
2B
100
AcDbEntity
  8
ASSEMBLY_OUTLINES_TOP
100
AcDbPolyline
 90
        3
 70
         1
 10
47540.0
 20
72000.0
 10
48111.499
 20
70857.0
 10
46968.5
 20
70857.001
  0
HATCH
  5
2C
100
AcDbEntity
  8
ASSEMBLY_OUTLINES_TOP
100
AcDbHatch
 10
0.0
 20
0.0
 30
0.0
210
0.0
220
0.0
230
1.0
  2
SOLID
 70
         1
 71
         1
 91
        1
 92
        2
 72
         0
 73
         1
 93
        3
 10
47540.0
 20
72000.0
 10
48111.499000000003
 20
70857.0
 10
46968.5
 20
70857.001000000004
 97
        1
330
2B
 75
         0
 76
         1
 98
        1
 10
0.0
 20
0.0
  0
LWPOLYLINE
  5
2D
100
AcDbEntity
  8
ASSEMBLY_OUTLINES_TOP
100
AcDbPolyline
 90
        2
 70
         0
 43
203.2
 10
47540.0
 20
29114.219
 10
47540.0
 20
571.5
  0
LWPOLYLINE
  5
2E
100
AcDbEntity
  8
ASSEMBLY_OUTLINES_TOP
100
AcDbPolyline
 90
        2
 70
         0
 43
203.2
 10
47540.0
 20
71428.5
 10
47540.0
 20
42885.78
  0
LWPOLYLINE
  5
2F
100
AcDbEntity
  8
ASSEMBLY_OUTLINES_TOP
100
AcDbPolyline
 90
        2
 70
         0
 43
203.2
 10
45508.0
 20
0.0
 10
48048.0
 20
0.0
  0
LWPOLYLINE
  5
30
100
AcDbEntity
  8
ASSEMBLY_OUTLINES_TOP
100
AcDbPolyline
 90
        2
 70
         0
 43
203.2
 10
45508.0
 20
72000.0
 10
48048.0
 20
72000.0
  0
LWPOLYLINE
  5
31
100
AcDbEntity
  8
ASSEMBLY_OUTLINES_TOP
100
AcDbPolyline
 90
        3
 70
         1
 10
45000.0
 20
74540.0
 10
43857.0
 20
73968.501
 10
43857.0
 20
75111.5
  0
HATCH
  5
32
100
AcDbEntity
  8
ASSEMBLY_OUTLINES_TOP
100
AcDbHatch
 10
0.0
 20
0.0
 30
0.0
210
0.0
220
0.0
230
1.0
  2
SOLID
 70
         1
 71
         1
 91
        1
 92
        2
 72
         0
 73
         1
 93
        3
 10
45000.0
 20
74540.0
 10
43857.0
 20
73968.501000000004
 10
43857.0
 20
75111.5
 97
        1
330
31
 75
         0
 76
         1
 98
        1
 10
0.0
 20
0.0
  0
LWPOLYLINE
  5
33
100
AcDbEntity
  8
ASSEMBLY_OUTLINES_TOP
100
AcDbPolyline
 90
        3
 70
         1
 10
0.0
 20
74540.0
 10
1143.0
 20
75111.5
 10
1143.0
 20
73968.5
  0
HATCH
  5
34
100
AcDbEntity
  8
ASSEMBLY_OUTLINES_TOP
100
AcDbHatch
 10
0.0
 20
0.0
 30
0.0
210
0.0
220
0.0
230
1.0
  2
SOLID
 70
         1
 71
         1
 91
        1
 92
        2
 72
         0
 73
         1
 93
        3
 10
0.0
 20
74540.0
 10
1143.0
 20
75111.5
 10
1143.0
 20
73968.5
 97
        1
330
33
 75
         0
 76
         1
 98
        1
 10
0.0
 20
0.0
  0
LWPOLYLINE
  5
35
100
AcDbEntity
  8
ASSEMBLY_OUTLINES_TOP
100
AcDbPolyline
 90
        2
 70
         0
 43
203.2
 10
29385.781
 20
74540.0
 10
44428.5
 20
74540.0
  0
LWPOLYLINE
  5
36
100
AcDbEntity
  8
ASSEMBLY_OUTLINES_TOP
100
AcDbPolyline
 90
        2
 70
         0
 43
203.2
 10
571.5
 20
74540.0
 10
15614.219
 20
74540.0
  0
LWPOLYLINE
  5
37
100
AcDbEntity
  8
ASSEMBLY_OUTLINES_TOP
100
AcDbPolyline
 90
        2
 70
         0
 43
203.2
 10
45000.0
 20
72508.0
 10
45000.0
 20
75048.0
  0
LWPOLYLINE
  5
38
100
AcDbEntity
  8
ASSEMBLY_OUTLINES_TOP
100
AcDbPolyline
 90
        2
 70
         0
 43
203.2
 10
0.0
 20
72508.0
 10
0.0
 20
75048.0
  0
TEXT
  5
3A
100
AcDbEntity
  8
ASSEMBLY_OUTLINES_TOP
100
AcDbText
 10
48200.4
 20
29538.4
 30
0.0
 40
1270.0
  1
72000um
 50
90.0
  7
ARIAL
 72
         1
 11
47540.0
 21
33323.0
 31
0.0
100
AcDbText
 73
         2
  0
TEXT
  5
3B
100
AcDbEntity
  8
ASSEMBLY_OUTLINES_TOP
100
AcDbText
 10
47882.9
 20
37590.041
 30
0.0
 40
1270.0
  1
+
 50
90.0
  7
ARIAL
 72
         1
 11
47222.5
 21
38120.266
 31
0.0
100
AcDbText
 73
         2
  0
TEXT
  5
3C
100
AcDbEntity
  8
ASSEMBLY_OUTLINES_TOP
100
AcDbText
 10
48517.9
 20
37578.643
 30
0.0
 40
1270.0
  1
-
 50
90.0
  7
ARIAL
 72
         1
 11
47857.5
 21
37880.903
 31
0.0
100
AcDbText
 73
         2
  0
TEXT
  5
3D
100
AcDbEntity
  8
ASSEMBLY_OUTLINES_TOP
100
AcDbText
 10
48200.4
 20
39031.967
 30
0.0
 40
1270.0
  1
0um
 50
90.0
  7
ARIAL
 72
         1
 11
47540.0
 21
40797.267
 31
0.0
100
AcDbText
 73
         2
  0
TEXT
  5
3E
100
AcDbEntity
  8
ASSEMBLY_OUTLINES_TOP
100
AcDbText
 10
16038.399
 20
73879.6
 30
0.0
 40
1270.0
  1
45000um
  7
ARIAL
 72
         1
 11
19822.999
 21
74540.0
 31
0.0
100
AcDbText
 73
         2
  0
TEXT
  5
3F
100
AcDbEntity
  8
ASSEMBLY_OUTLINES_TOP
100
AcDbText
 10
24090.04
 20
74197.1
 30
0.0
 40
1270.0
  1
+
  7
ARIAL
 72
         1
 11
24620.265
 21
74857.5
 31
0.0
100
AcDbText
 73
         2
  0
TEXT
  5
40
100
AcDbEntity
  8
ASSEMBLY_OUTLINES_TOP
100
AcDbText
 10
24078.642
 20
73562.1
 30
0.0
 40
1270.0
  1
-
  7
ARIAL
 72
         1
 11
24380.902
 21
74222.5
 31
0.0
100
AcDbText
 73
         2
  0
TEXT
  5
41
100
AcDbEntity
  8
ASSEMBLY_OUTLINES_TOP
100
AcDbText
 10
25531.966
 20
73879.6
 30
0.0
 40
1270.0
  1
0um
  7
ARIAL
 72
         1
 11
27297.266
 21
74540.0
 31
0.0
100
AcDbText
 73
         2
  0
LWPOLYLINE
  5
42
100
AcDbEntity
  8
ASSEMBLY_OUTLINES_TOP
100
AcDbPolyline
 90
        4
 70
         0
 43
250.0
 10
36520.0
 20
3380.0
 10
36720.0
 20
3380.0
 10
36720.0
 20
3780.0
 10
36520.0
 20
3780.0
  0
LWPOLYLINE
  5
43
100
AcDbEntity
  8
ASSEMBLY_OUTLINES_TOP
100
AcDbPolyline
 90
        4
 70
         0
 43
250.0
 10
19260.0
 20
5270.0
 10
19260.0
 20
5070.0
 10
19660.0
 20
5070.0
 10
19660.0
 20
5270.0
  0
LWPOLYLINE
  5
44
100
AcDbEntity
  8
ASSEMBLY_OUTLINES_TOP
100
AcDbPolyline
 90
        4
 70
         0
 43
250.0
 10
11950.0
 20
10360.0
 10
11950.0
 20
10160.0
 10
12350.0
 20
10160.0
 10
12350.0
 20
10360.0
  0
LWPOLYLINE
  5
45
100
AcDbEntity
  8
ASSEMBLY_OUTLINES_TOP
100
AcDbPolyline
 90
        4
 70
         0
 43
250.0
 10
14120.626
 20
8301.563
 10
14120.626
 20
8101.563
 10
14520.626
 20
8101.563
 10
14520.626
 20
8301.563
  0
LWPOLYLINE
  5
46
100
AcDbEntity
  8
ASSEMBLY_OUTLINES_TOP
100
AcDbPolyline
 90
        4
 70
         0
 43
250.0
 10
22560.0
 20
5280.0
 10
22560.0
 20
5080.0
 10
22960.0
 20
5080.0
 10
22960.0
 20
5280.0
  0
LWPOLYLINE
  5
47
100
AcDbEntity
  8
ASSEMBLY_OUTLINES_TOP
100
AcDbPolyline
 90
        4
 70
         0
 43
250.0
 10
25960.0
 20
5390.0
 10
25960.0
 20
5190.0
 10
26360.0
 20
5190.0
 10
26360.0
 20
5390.0
  0
LWPOLYLINE
  5
48
100
AcDbEntity
  8
ASSEMBLY_OUTLINES_TOP
100
AcDbPolyline
 90
        4
 70
         0
 43
200.0
 10
26150.004
 20
30755.625
 10
26150.004
 20
30355.625
 10
24950.004
 20
30355.625
 10
24950.004
 20
30755.625
  0
LWPOLYLINE
  5
49
100
AcDbEntity
  8
ASSEMBLY_OUTLINES_TOP
100
AcDbPolyline
 90
        4
 70
         0
 43
250.0
 10
24400.001
 20
30155.625
 10
24400.001
 20
30355.625
 10
24000.001
 20
30355.625
 10
24000.001
 20
30155.625
  0
LWPOLYLINE
  5
4A
100
AcDbEntity
  8
ASSEMBLY_OUTLINES_TOP
100
AcDbPolyline
 90
        4
 70
         0
 43
250.0
 10
23344.375
 20
30900.001
 10
23344.375
 20
31100.001
 10
22944.375
 20
31100.001
 10
22944.375
 20
30900.001
  0
LWPOLYLINE
  5
4B
100
AcDbEntity
  8
ASSEMBLY_OUTLINES_TOP
100
AcDbPolyline
 90
        4
 70
         0
 43
200.0
 10
25150.004
 20
27475.625
 10
25150.004
 20
27875.625
 10
26350.004
 20
27875.625
 10
26350.004
 20
27475.625
  0
LWPOLYLINE
  5
4C
100
AcDbEntity
  8
ASSEMBLY_OUTLINES_TOP
100
AcDbPolyline
 90
        4
 70
         0
 43
250.0
 10
27400.001
 20
26955.625
 10
27400.001
 20
27155.625
 10
27000.001
 20
27155.625
 10
27000.001
 20
26955.625
  0
LWPOLYLINE
  5
4D
100
AcDbEntity
  8
ASSEMBLY_OUTLINES_TOP
100
AcDbPolyline
 90
        4
 70
         1
 43
150.0
 10
8710.0
 20
61270.0
 10
8710.0
 20
64270.0
 10
12210.0
 20
64270.0
 10
12210.0
 20
61270.0
  0
LWPOLYLINE
  5
4E
100
AcDbEntity
  8
ASSEMBLY_OUTLINES_TOP
100
AcDbPolyline
 90
        4
 70
         1
 10
5310.0
 20
59880.0
 10
5310.0
 20
65880.0
 10
8210.0
 20
65880.0
 10
8210.0
 20
59880.0
  0
LWPOLYLINE
  5
4F
100
AcDbEntity
  8
ASSEMBLY_OUTLINES_TOP
100
AcDbPolyline
 90
        4
 70
         1
 43
150.0
 10
5560.0
 20
61480.0
 10
5560.0
 20
64280.0
 10
7960.0
 20
64280.0
 10
7960.0
 20
61480.0
  0
LWPOLYLINE
  5
50
100
AcDbEntity
  8
ASSEMBLY_OUTLINES_TOP
100
AcDbPolyline
 90
        4
 70
         0
 43
250.0
 10
7120.0
 20
40380.0
 10
7320.0
 20
40380.0
 10
7320.0
 20
40780.0
 10
7120.0
 20
40780.0
  0
LWPOLYLINE
  5
51
100
AcDbEntity
  8
ASSEMBLY_OUTLINES_TOP
100
AcDbPolyline
 90
        4
 70
         0
 43
250.0
 10
39850.0
 20
52558.437
 10
39650.0
 20
52558.437
 10
39650.0
 20
52158.437
 10
39850.0
 20
52158.437
  0
LWPOLYLINE
  5
52
100
AcDbEntity
  8
ASSEMBLY_OUTLINES_TOP
100
AcDbPolyline
 90
        4
 70
         0
 43
250.0
 10
19020.0
 20
9880.0
 10
18820.0
 20
9880.0
 10
18820.0
 20
9480.0
 10
19020.0
 20
9480.0
  0
LWPOLYLINE
  5
53
100
AcDbEntity
  8
ASSEMBLY_OUTLINES_TOP
100
AcDbPolyline
 90
        4
 70
         0
 43
250.0
 10
6820.0
 20
51780.0
 10
7020.0
 20
51780.0
 10
7020.0
 20
52180.0
 10
6820.0
 20
52180.0
  0
LWPOLYLINE
  5
54
100
AcDbEntity
  8
ASSEMBLY_OUTLINES_TOP
100
AcDbPolyline
 90
        2
 70
         0
 43
150.0
 10
37352.187
 20
62525.0
 10
37352.187
 20
62125.0
  0
LWPOLYLINE
  5
55
100
AcDbEntity
  8
ASSEMBLY_OUTLINES_TOP
100
AcDbPolyline
 90
        2
 70
         0
 43
150.0
 10
30352.187
 20
62125.0
 10
30352.187
 20
62525.0
  0
LWPOLYLINE
  5
56
100
AcDbEntity
  8
ASSEMBLY_OUTLINES_TOP
100
AcDbPolyline
 90
        2
 70
         0
 43
150.0
 10
37352.187
 20
65325.0
 10
37352.187
 20
65725.0
  0
LWPOLYLINE
  5
57
100
AcDbEntity
  8
ASSEMBLY_OUTLINES_TOP
100
AcDbPolyline
 90
        2
 70
         0
 43
150.0
 10
30352.187
 20
65725.0
 10
30352.187
 20
65325.0
  0
LWPOLYLINE
  5
58
100
AcDbEntity
  8
ASSEMBLY_OUTLINES_TOP
100
AcDbPolyline
 90
        2
 70
         0
 43
150.0
 10
39052.187
 20
61425.0
 10
27552.187
 20
61425.0
  0
LWPOLYLINE
  5
59
100
AcDbEntity
  8
ASSEMBLY_OUTLINES_TOP
100
AcDbPolyline
 90
        2
 70
         0
 43
150.0
 10
27552.187
 20
61425.0
 10
27552.187
 20
66425.0
  0
LWPOLYLINE
  5
5A
100
AcDbEntity
  8
ASSEMBLY_OUTLINES_TOP
100
AcDbPolyline
 90
        2
 70
         0
 43
150.0
 10
27552.187
 20
66425.0
 10
39052.187
 20
66425.0
  0
LWPOLYLINE
  5
5B
100
AcDbEntity
  8
ASSEMBLY_OUTLINES_TOP
100
AcDbPolyline
 90
        2
 70
         0
 43
150.0
 10
39052.187
 20
66425.0
 10
39052.187
 20
61425.0
  0
LWPOLYLINE
  5
5C
100
AcDbEntity
  8
ASSEMBLY_OUTLINES_TOP
100
AcDbPolyline
 90
        6
 70
         0
 43
150.0
 10
35700.001
 20
33455.625
 10
36800.001
 20
33455.625
 10
37000.001
 20
33655.625
 10
37000.001
 20
34655.625
 10
36800.001
 20
34855.625
 10
35700.001
 20
34855.625
  0
LWPOLYLINE
  5
5D
100
AcDbEntity
  8
ASSEMBLY_OUTLINES_TOP
100
AcDbPolyline
 90
        4
 70
         0
 43
200.0
 10
30260.001
 20
5835.625
 10
29860.001
 20
5835.625
 10
29860.001
 20
7035.625
 10
30260.001
 20
7035.625
  0
LWPOLYLINE
  5
5E
100
AcDbEntity
  8
ASSEMBLY_OUTLINES_TOP
100
AcDbPolyline
 90
        4
 70
         0
 43
200.0
 10
35400.001
 20
26155.625
 10
35800.001
 20
26155.625
 10
35800.001
 20
24955.625
 10
35400.001
 20
24955.625
  0
LWPOLYLINE
  5
5F
100
AcDbEntity
  8
ASSEMBLY_OUTLINES_TOP
100
AcDbPolyline
 90
        4
 70
         0
 43
200.0
 10
42600.001
 20
39955.625
 10
42600.001
 20
39555.625
 10
41400.001
 20
39555.625
 10
41400.001
 20
39955.625
  0
LWPOLYLINE
  5
60
100
AcDbEntity
  8
ASSEMBLY_OUTLINES_TOP
100
AcDbPolyline
 90
        6
 70
         0
 43
150.0
 10
35700.001
 20
26755.625
 10
36800.001
 20
26755.625
 10
37000.001
 20
26955.625
 10
37000.001
 20
27955.625
 10
36800.001
 20
28155.625
 10
35700.001
 20
28155.625
  0
LWPOLYLINE
  5
61
100
AcDbEntity
  8
ASSEMBLY_OUTLINES_TOP
100
AcDbPolyline
 90
        6
 70
         0
 43
200.0
 10
22815.001
 20
33620.625
 10
24585.001
 20
33620.625
 10
24585.001
 20
33938.125
 10
22815.001
 20
33938.125
 10
22815.001
 20
33620.625
 10
22815.001
 20
34890.625
  0
LWPOLYLINE
  5
62
100
AcDbEntity
  8
ASSEMBLY_OUTLINES_TOP
100
AcDbPolyline
 90
        2
 70
         0
 43
200.0
 10
24585.001
 20
33938.125
 10
24585.001
 20
34890.625
  0
LWPOLYLINE
  5
63
100
AcDbEntity
  8
ASSEMBLY_OUTLINES_TOP
100
AcDbPolyline
 90
        6
 70
         0
 43
200.0
 10
32840.001
 20
23255.625
 10
32840.001
 20
22255.625
 10
33040.001
 20
22055.625
 10
34940.001
 20
22055.625
 10
35140.001
 20
22255.625
 10
35140.001
 20
23255.625
  0
LWPOLYLINE
  5
64
100
AcDbEntity
  8
ASSEMBLY_OUTLINES_TOP
100
AcDbPolyline
 90
        4
 70
         0
 43
200.0
 10
41600.001
 20
43855.625
 10
41200.001
 20
43855.625
 10
41200.001
 20
45055.625
 10
41600.001
 20
45055.625
  0
CIRCLE
  5
65
100
AcDbEntity
  8
ASSEMBLY_OUTLINES_TOP
100
AcDbCircle
 10
39650.001
 20
44455.625
 30
0.0
 40
353.553
  0
HATCH
  5
66
100
AcDbEntity
  8
ASSEMBLY_OUTLINES_TOP
100
AcDbHatch
 10
0.0
 20
0.0
 30
0.0
210
0.0
220
0.0
230
1.0
  2
SOLID
 70
         1
 71
         1
 91
        1
 92
        1
 93
        1
 72
         2
 10
39650.000999999997
 20
44455.625
 40
353.553
 50
0.0
 51
360.0
 73
         1
 97
        1
330
65
 75
         0
 76
         1
 98
        1
 10
0.0
 20
0.0
  0
LWPOLYLINE
  5
67
100
AcDbEntity
  8
ASSEMBLY_OUTLINES_TOP
100
AcDbPolyline
 90
        4
 70
         0
 43
200.0
 10
42700.001
 20
29755.625
 10
42700.001
 20
29355.625
 10
41500.001
 20
29355.625
 10
41500.001
 20
29755.625
  0
LWPOLYLINE
  5
68
100
AcDbEntity
  8
ASSEMBLY_OUTLINES_TOP
100
AcDbPolyline
 90
        2
 70
         0
 43
200.0
 10
20300.001
 20
25205.624
 10
17400.001
 20
25205.624
  0
LWPOLYLINE
  5
69
100
AcDbEntity
  8
ASSEMBLY_OUTLINES_TOP
100
AcDbPolyline
 90
        2
 70
         0
 43
200.0
 10
17400.001
 20
25205.624
 10
16400.001
 20
24205.624
  0
LWPOLYLINE
  5
6A
100
AcDbEntity
  8
ASSEMBLY_OUTLINES_TOP
100
AcDbPolyline
 90
        2
 70
         0
 43
200.0
 10
16400.001
 20
24205.624
 10
16400.001
 20
20905.624
  0
LWPOLYLINE
  5
6B
100
AcDbEntity
  8
ASSEMBLY_OUTLINES_TOP
100
AcDbPolyline
 90
        2
 70
         0
 43
200.0
 10
16400.001
 20
20905.624
 10
17400.001
 20
20005.624
  0
LWPOLYLINE
  5
6C
100
AcDbEntity
  8
ASSEMBLY_OUTLINES_TOP
100
AcDbPolyline
 90
        2
 70
         0
 43
200.0
 10
17400.001
 20
20005.624
 10
20300.001
 20
20005.624
  0
LWPOLYLINE
  5
6D
100
AcDbEntity
  8
ASSEMBLY_OUTLINES_TOP
100
AcDbPolyline
 90
        4
 70
         1
 43
100.0
 10
15725.001
 20
40780.625
 10
15725.001
 20
46130.625
 10
22075.001
 20
46130.625
 10
22075.001
 20
40780.625
  0
LWPOLYLINE
  5
6E
100
AcDbEntity
  8
ASSEMBLY_OUTLINES_TOP
100
AcDbPolyline
 90
        3
 70
         0
 43
150.0
 10
22500.001
 20
41055.625
 10
22500.001
 20
40547.625
 10
21738.001
 20
40547.625
  0
LWPOLYLINE
  5
6F
100
AcDbEntity
  8
ASSEMBLY_OUTLINES_TOP
100
AcDbPolyline
 90
        6
 70
         0
 43
150.0
 10
30600.001
 20
22355.625
 10
30600.001
 20
23455.625
 10
30400.001
 20
23655.625
 10
29400.001
 20
23655.625
 10
29200.001
 20
23455.625
 10
29200.001
 20
22355.625
  0
LWPOLYLINE
  5
70
100
AcDbEntity
  8
ASSEMBLY_OUTLINES_TOP
100
AcDbPolyline
 90
        2
 70
         0
 43
150.0
 10
34591.251
 20
55858.375
 10
30791.251
 20
55858.375
  0
LWPOLYLINE
  5
71
100
AcDbEntity
  8
ASSEMBLY_OUTLINES_TOP
100
AcDbPolyline
 90
        4
 70
         0
 43
150.0
 10
30791.251
 20
53858.375
 10
30791.251
 20
56458.375
 10
34591.251
 20
56458.375
 10
34591.251
 20
53858.375
  0
LWPOLYLINE
  5
72
100
AcDbEntity
  8
ASSEMBLY_OUTLINES_TOP
100
AcDbPolyline
 90
        2
 70
         1
 43
150.0
 10
32549.831
 20
56058.375
 42
-1.0
 10
32832.671
 20
56058.375
 42
-1.0
  0
LWPOLYLINE
  5
73
100
AcDbEntity
  8
ASSEMBLY_OUTLINES_TOP
100
AcDbPolyline
 90
        2
 70
         1
 43
150.0
 10
32467.641
 20
56058.375
 42
-1.0
 10
32914.861
 20
56058.375
 42
-1.0
  0
LWPOLYLINE
  5
74
100
AcDbEntity
  8
ASSEMBLY_OUTLINES_TOP
100
AcDbPolyline
 90
        2
 70
         1
 43
150.0
 10
32408.411
 20
56058.375
 42
-1.0
 10
32974.091
 20
56058.375
 42
-1.0
  0
LWPOLYLINE
  5
75
100
AcDbEntity
  8
ASSEMBLY_OUTLINES_TOP
100
AcDbPolyline
 90
        2
 70
         1
 43
150.0
 10
32330.691
 20
56058.375
 42
-1.0
 10
33051.811
 20
56058.375
 42
-1.0
  0
LWPOLYLINE
  5
76
100
AcDbEntity
  8
ASSEMBLY_OUTLINES_TOP
100
AcDbPolyline
 90
        2
 70
         0
 43
200.0
 10
29500.001
 20
16855.625
 10
29500.001
 20
18855.625
  0
LWPOLYLINE
  5
77
100
AcDbEntity
  8
ASSEMBLY_OUTLINES_TOP
100
AcDbPolyline
 90
        2
 70
         0
 43
200.0
 10
29500.001
 20
18855.625
 10
29500.001
 20
19855.625
  0
LWPOLYLINE
  5
78
100
AcDbEntity
  8
ASSEMBLY_OUTLINES_TOP
100
AcDbPolyline
 90
        2
 70
         0
 43
200.0
 10
41500.001
 20
19855.625
 10
41500.001
 20
16855.625
  0
LWPOLYLINE
  5
79
100
AcDbEntity
  8
ASSEMBLY_OUTLINES_TOP
100
AcDbPolyline
 90
        2
 70
         0
 43
200.0
 10
41500.001
 20
10855.625
 10
41500.001
 20
7855.625
  0
LWPOLYLINE
  5
7A
100
AcDbEntity
  8
ASSEMBLY_OUTLINES_TOP
100
AcDbPolyline
 90
        2
 70
         0
 43
200.0
 10
29500.001
 20
7855.625
 10
29500.001
 20
8855.625
  0
LWPOLYLINE
  5
7B
100
AcDbEntity
  8
ASSEMBLY_OUTLINES_TOP
100
AcDbPolyline
 90
        2
 70
         0
 43
200.0
 10
29500.001
 20
8855.625
 10
29500.001
 20
10855.625
  0
LWPOLYLINE
  5
7C
100
AcDbEntity
  8
ASSEMBLY_OUTLINES_TOP
100
AcDbPolyline
 90
        2
 70
         0
 43
200.0
 10
29500.001
 20
7855.625
 10
41500.001
 20
7855.625
  0
LWPOLYLINE
  5
7D
100
AcDbEntity
  8
ASSEMBLY_OUTLINES_TOP
100
AcDbPolyline
 90
        2
 70
         0
 43
200.0
 10
29500.001
 20
19855.625
 10
41500.001
 20
19855.625
  0
CIRCLE
  5
7E
100
AcDbEntity
  8
ASSEMBLY_OUTLINES_TOP
100
AcDbCircle
 10
29500.001
 20
19105.625
 30
0.0
 40
750.0
  0
HATCH
  5
7F
100
AcDbEntity
  8
ASSEMBLY_OUTLINES_TOP
100
AcDbHatch
 10
0.0
 20
0.0
 30
0.0
210
0.0
220
0.0
230
1.0
  2
SOLID
 70
         1
 71
         1
 91
        1
 92
        1
 93
        1
 72
         2
 10
29500.001
 20
19105.625
 40
750.0
 50
0.0
 51
360.0
 73
         1
 97
        1
330
7E
 75
         0
 76
         1
 98
        1
 10
0.0
 20
0.0
  0
LWPOLYLINE
  5
80
100
AcDbEntity
  8
ASSEMBLY_OUTLINES_TOP
100
AcDbPolyline
 90
        6
 70
         0
 43
150.0
 10
29500.001
 20
36855.625
 10
29500.001
 20
35755.625
 10
29700.001
 20
35555.625
 10
30700.001
 20
35555.625
 10
30900.001
 20
35755.625
 10
30900.001
 20
36855.625
  0
LWPOLYLINE
  5
81
100
AcDbEntity
  8
ASSEMBLY_OUTLINES_TOP
100
AcDbPolyline
 90
        4
 70
         0
 43
200.0
 10
41000.001
 20
28855.625
 10
41000.001
 20
28455.625
 10
39800.001
 20
28455.625
 10
39800.001
 20
28855.625
  0
LWPOLYLINE
  5
82
100
AcDbEntity
  8
ASSEMBLY_OUTLINES_TOP
100
AcDbPolyline
 90
        4
 70
         0
 43
250.0
 10
42200.001
 20
36355.625
 10
42200.001
 20
36555.625
 10
41800.001
 20
36555.625
 10
41800.001
 20
36355.625
  0
LWPOLYLINE
  5
83
100
AcDbEntity
  8
ASSEMBLY_OUTLINES_TOP
100
AcDbPolyline
 90
        4
 70
         0
 43
200.0
 10
40100.001
 20
22255.625
 10
40100.001
 20
21855.625
 10
38900.001
 20
21855.625
 10
38900.001
 20
22255.625
  0
LWPOLYLINE
  5
84
100
AcDbEntity
  8
ASSEMBLY_OUTLINES_TOP
100
AcDbPolyline
 90
        4
 70
         0
 43
200.0
 10
25900.001
 20
10855.625
 10
26300.001
 20
10855.625
 10
26300.001
 20
9655.625
 10
25900.001
 20
9655.625
  0
CIRCLE
  5
85
100
AcDbEntity
  8
ASSEMBLY_OUTLINES_TOP
100
AcDbCircle
 10
27850.001
 20
10255.625
 30
0.0
 40
353.553
  0
HATCH
  5
86
100
AcDbEntity
  8
ASSEMBLY_OUTLINES_TOP
100
AcDbHatch
 10
0.0
 20
0.0
 30
0.0
210
0.0
220
0.0
230
1.0
  2
SOLID
 70
         1
 71
         1
 91
        1
 92
        1
 93
        1
 72
         2
 10
27850.001
 20
10255.625
 40
353.553
 50
0.0
 51
360.0
 73
         1
 97
        1
330
85
 75
         0
 76
         1
 98
        1
 10
0.0
 20
0.0
  0
LWPOLYLINE
  5
87
100
AcDbEntity
  8
ASSEMBLY_OUTLINES_TOP
100
AcDbPolyline
 90
        4
 70
         0
 43
200.0
 10
27070.626
 20
22060.0
 10
27070.626
 20
21660.0
 10
25870.626
 20
21660.0
 10
25870.626
 20
22060.0
  0
LWPOLYLINE
  5
88
100
AcDbEntity
  8
ASSEMBLY_OUTLINES_TOP
100
AcDbPolyline
 90
        4
 70
         0
 43
200.0
 10
30091.251
 20
59364.375
 10
30091.251
 20
58964.375
 10
28891.251
 20
58964.375
 10
28891.251
 20
59364.375
  0
LWPOLYLINE
  5
89
100
AcDbEntity
  8
ASSEMBLY_OUTLINES_TOP
100
AcDbPolyline
 90
        4
 70
         0
 43
250.0
 10
41800.001
 20
41755.625
 10
42000.001
 20
41755.625
 10
42000.001
 20
42155.625
 10
41800.001
 20
42155.625
  0
LWPOLYLINE
  5
8A
100
AcDbEntity
  8
ASSEMBLY_OUTLINES_TOP
100
AcDbPolyline
 90
        4
 70
         1
 43
100.0
 10
23125.001
 20
40580.625
 10
23125.001
 20
46930.625
 10
28475.001
 20
46930.625
 10
28475.001
 20
40580.625
  0
LWPOLYLINE
  5
8B
100
AcDbEntity
  8
ASSEMBLY_OUTLINES_TOP
100
AcDbPolyline
 90
        3
 70
         0
 43
150.0
 10
23400.001
 20
40155.625
 10
22892.001
 20
40155.625
 10
22892.001
 20
40917.625
  0
LWPOLYLINE
  5
8C
100
AcDbEntity
  8
ASSEMBLY_OUTLINES_TOP
100
AcDbPolyline
 90
        2
 70
         0
 43
200.0
 10
16591.251
 20
56864.375
 10
16591.251
 20
53964.375
  0
LWPOLYLINE
  5
8D
100
AcDbEntity
  8
ASSEMBLY_OUTLINES_TOP
100
AcDbPolyline
 90
        2
 70
         0
 43
200.0
 10
16591.251
 20
53964.375
 10
17591.251
 20
52964.375
  0
LWPOLYLINE
  5
8E
100
AcDbEntity
  8
ASSEMBLY_OUTLINES_TOP
100
AcDbPolyline
 90
        2
 70
         0
 43
200.0
 10
17591.251
 20
52964.375
 10
20891.251
 20
52964.375
  0
LWPOLYLINE
  5
8F
100
AcDbEntity
  8
ASSEMBLY_OUTLINES_TOP
100
AcDbPolyline
 90
        2
 70
         0
 43
200.0
 10
20891.251
 20
52964.375
 10
21791.251
 20
53964.375
  0
LWPOLYLINE
  5
90
100
AcDbEntity
  8
ASSEMBLY_OUTLINES_TOP
100
AcDbPolyline
 90
        2
 70
         0
 43
200.0
 10
21791.251
 20
53964.375
 10
21791.251
 20
56864.375
  0
LWPOLYLINE
  5
91
100
AcDbEntity
  8
ASSEMBLY_OUTLINES_TOP
100
AcDbPolyline
 90
        4
 70
         0
 43
250.0
 10
42000.001
 20
31455.625
 10
42200.001
 20
31455.625
 10
42200.001
 20
31855.625
 10
42000.001
 20
31855.625
  0
LWPOLYLINE
  5
92
100
AcDbEntity
  8
ASSEMBLY_OUTLINES_TOP
100
AcDbPolyline
 90
        4
 70
         1
 43
150.0
 10
28000.001
 20
27055.625
 10
28000.001
 20
32255.625
 10
33200.001
 20
32255.625
 10
33200.001
 20
27055.625
  0
LWPOLYLINE
  5
93
100
AcDbEntity
  8
ASSEMBLY_OUTLINES_TOP
100
AcDbPolyline
 90
        3
 70
         1
 10
28500.001
 20
26155.625
 10
28800.001
 20
26755.625
 10
29100.001
 20
26155.625
  0
HATCH
  5
94
100
AcDbEntity
  8
ASSEMBLY_OUTLINES_TOP
100
AcDbHatch
 10
0.0
 20
0.0
 30
0.0
210
0.0
220
0.0
230
1.0
  2
SOLID
 70
         1
 71
         1
 91
        1
 92
        2
 72
         0
 73
         1
 93
        3
 10
28500.001
 20
26155.625
 10
28800.001
 20
26755.625
 10
29100.001
 20
26155.625
 97
        1
330
93
 75
         0
 76
         1
 98
        1
 10
0.0
 20
0.0
  0
LWPOLYLINE
  5
95
100
AcDbEntity
  8
ASSEMBLY_OUTLINES_TOP
100
AcDbPolyline
 90
        4
 70
         1
 43
100.0
 10
23225.001
 20
12980.625
 10
23225.001
 20
19330.625
 10
28575.001
 20
19330.625
 10
28575.001
 20
12980.625
  0
LWPOLYLINE
  5
96
100
AcDbEntity
  8
ASSEMBLY_OUTLINES_TOP
100
AcDbPolyline
 90
        3
 70
         0
 43
150.0
 10
28300.001
 20
19755.625
 10
28808.001
 20
19755.625
 10
28808.001
 20
18993.625
  0
LWPOLYLINE
  5
97
100
AcDbEntity
  8
ASSEMBLY_OUTLINES_TOP
100
AcDbPolyline
 90
        2
 70
         0
 43
200.0
 10
22891.251
 20
56864.375
 10
22891.251
 20
53964.375
  0
LWPOLYLINE
  5
98
100
AcDbEntity
  8
ASSEMBLY_OUTLINES_TOP
100
AcDbPolyline
 90
        2
 70
         0
 43
200.0
 10
22891.251
 20
53964.375
 10
23891.251
 20
52964.375
  0
LWPOLYLINE
  5
99
100
AcDbEntity
  8
ASSEMBLY_OUTLINES_TOP
100
AcDbPolyline
 90
        2
 70
         0
 43
200.0
 10
23891.251
 20
52964.375
 10
27191.251
 20
52964.375
  0
LWPOLYLINE
  5
9A
100
AcDbEntity
  8
ASSEMBLY_OUTLINES_TOP
100
AcDbPolyline
 90
        2
 70
         0
 43
200.0
 10
27191.251
 20
52964.375
 10
28091.251
 20
53964.375
  0
LWPOLYLINE
  5
9B
100
AcDbEntity
  8
ASSEMBLY_OUTLINES_TOP
100
AcDbPolyline
 90
        2
 70
         0
 43
200.0
 10
28091.251
 20
53964.375
 10
28091.251
 20
56864.375
  0
LWPOLYLINE
  5
9C
100
AcDbEntity
  8
ASSEMBLY_OUTLINES_TOP
100
AcDbPolyline
 90
        4
 70
         0
 43
200.0
 10
25370.626
 20
22060.0
 10
25370.626
 20
21660.0
 10
24170.626
 20
21660.0
 10
24170.626
 20
22060.0
  0
LWPOLYLINE
  5
9D
100
AcDbEntity
  8
ASSEMBLY_OUTLINES_TOP
100
AcDbPolyline
 90
        4
 70
         0
 43
200.0
 10
24870.626
 20
38160.0
 10
24870.626
 20
38560.0
 10
26070.626
 20
38560.0
 10
26070.626
 20
38160.0
  0
LWPOLYLINE
  5
9E
100
AcDbEntity
  8
ASSEMBLY_OUTLINES_TOP
100
AcDbPolyline
 90
        4
 70
         0
 43
200.0
 10
26450.004
 20
33655.625
 10
26450.004
 20
33255.625
 10
25250.004
 20
33255.625
 10
25250.004
 20
33655.625
  0
LWPOLYLINE
  5
9F
100
AcDbEntity
  8
ASSEMBLY_OUTLINES_TOP
100
AcDbPolyline
 90
        4
 70
         0
 43
200.0
 10
42700.001
 20
33755.625
 10
42700.001
 20
33355.625
 10
41500.001
 20
33355.625
 10
41500.001
 20
33755.625
  0
LWPOLYLINE
  5
A0
100
AcDbEntity
  8
ASSEMBLY_OUTLINES_TOP
100
AcDbPolyline
 90
        4
 70
         0
 43
250.0
 10
42000.001
 20
27455.625
 10
42200.001
 20
27455.625
 10
42200.001
 20
27855.625
 10
42000.001
 20
27855.625
  0
LWPOLYLINE
  5
A1
100
AcDbEntity
  8
ASSEMBLY_OUTLINES_TOP
100
AcDbPolyline
 90
        4
 70
         0
 43
200.0
 10
34200.001
 20
39655.625
 10
34200.001
 20
40055.625
 10
35400.001
 20
40055.625
 10
35400.001
 20
39655.625
  0
LWPOLYLINE
  5
A2
100
AcDbEntity
  8
ASSEMBLY_OUTLINES_TOP
100
AcDbPolyline
 90
        4
 70
         0
 43
200.0
 10
41200.001
 20
46955.625
 10
41600.001
 20
46955.625
 10
41600.001
 20
45755.625
 10
41200.001
 20
45755.625
  0
LWPOLYLINE
  5
A3
100
AcDbEntity
  8
ASSEMBLY_OUTLINES_TOP
100
AcDbPolyline
 90
        2
 70
         0
 43
200.0
 10
20300.001
 20
37905.626
 10
17400.001
 20
37905.626
  0
LWPOLYLINE
  5
A4
100
AcDbEntity
  8
ASSEMBLY_OUTLINES_TOP
100
AcDbPolyline
 90
        2
 70
         0
 43
200.0
 10
17400.001
 20
37905.626
 10
16400.001
 20
36905.626
  0
LWPOLYLINE
  5
A5
100
AcDbEntity
  8
ASSEMBLY_OUTLINES_TOP
100
AcDbPolyline
 90
        2
 70
         0
 43
200.0
 10
16400.001
 20
36905.626
 10
16400.001
 20
33605.626
  0
LWPOLYLINE
  5
A6
100
AcDbEntity
  8
ASSEMBLY_OUTLINES_TOP
100
AcDbPolyline
 90
        2
 70
         0
 43
200.0
 10
16400.001
 20
33605.626
 10
17400.001
 20
32705.626
  0
LWPOLYLINE
  5
A7
100
AcDbEntity
  8
ASSEMBLY_OUTLINES_TOP
100
AcDbPolyline
 90
        2
 70
         0
 43
200.0
 10
17400.001
 20
32705.626
 10
20300.001
 20
32705.626
  0
LWPOLYLINE
  5
A8
100
AcDbEntity
  8
ASSEMBLY_OUTLINES_TOP
100
AcDbPolyline
 90
        4
 70
         0
 43
200.0
 10
28200.001
 20
25055.625
 10
28200.001
 20
24655.625
 10
27000.001
 20
24655.625
 10
27000.001
 20
25055.625
  0
LWPOLYLINE
  5
A9
100
AcDbEntity
  8
ASSEMBLY_OUTLINES_TOP
100
AcDbPolyline
 90
        4
 70
         0
 43
250.0
 10
27000.001
 20
33255.625
 10
27000.001
 20
33055.625
 10
27400.001
 20
33055.625
 10
27400.001
 20
33255.625
  0
LWPOLYLINE
  5
AA
100
AcDbEntity
  8
ASSEMBLY_OUTLINES_TOP
100
AcDbPolyline
 90
        6
 70
         0
 43
200.0
 10
24585.001
 20
27190.625
 10
22815.001
 20
27190.625
 10
22815.001
 20
26873.125
 10
24585.001
 20
26873.125
 10
24585.001
 20
27190.625
 10
24585.001
 20
25920.625
  0
LWPOLYLINE
  5
AB
100
AcDbEntity
  8
ASSEMBLY_OUTLINES_TOP
100
AcDbPolyline
 90
        2
 70
         0
 43
200.0
 10
22815.001
 20
26873.125
 10
22815.001
 20
25920.625
  0
LWPOLYLINE
  5
AC
100
AcDbEntity
  8
ASSEMBLY_OUTLINES_TOP
100
AcDbPolyline
 90
        4
 70
         0
 43
200.0
 10
30475.001
 20
49789.374
 10
30075.001
 20
49789.374
 10
30075.001
 20
50989.374
 10
30475.001
 20
50989.374
  0
LWPOLYLINE
  5
AD
100
AcDbEntity
  8
ASSEMBLY_OUTLINES_TOP
100
AcDbPolyline
 90
        4
 70
         0
 43
200.0
 10
30500.001
 20
39655.625
 10
30500.001
 20
40055.625
 10
31700.001
 20
40055.625
 10
31700.001
 20
39655.625
  0
LWPOLYLINE
  5
AE
100
AcDbEntity
  8
ASSEMBLY_OUTLINES_TOP
100
AcDbPolyline
 90
        4
 70
         0
 43
250.0
 10
35670.626
 20
29660.0
 10
35670.626
 20
29860.0
 10
35270.626
 20
29860.0
 10
35270.626
 20
29660.0
  0
LWPOLYLINE
  5
AF
100
AcDbEntity
  8
ASSEMBLY_OUTLINES_TOP
100
AcDbPolyline
 90
        6
 70
         0
 43
200.0
 10
35940.001
 20
23255.625
 10
35940.001
 20
22255.625
 10
36140.001
 20
22055.625
 10
38040.001
 20
22055.625
 10
38240.001
 20
22255.625
 10
38240.001
 20
23255.625
  0
LWPOLYLINE
  5
B0
100
AcDbEntity
  8
ASSEMBLY_OUTLINES_TOP
100
AcDbPolyline
 90
        2
 70
         0
 43
200.0
 10
20300.001
 20
31555.625
 10
17400.001
 20
31555.625
  0
LWPOLYLINE
  5
B1
100
AcDbEntity
  8
ASSEMBLY_OUTLINES_TOP
100
AcDbPolyline
 90
        2
 70
         0
 43
200.0
 10
17400.001
 20
31555.625
 10
16400.001
 20
30555.625
  0
LWPOLYLINE
  5
B2
100
AcDbEntity
  8
ASSEMBLY_OUTLINES_TOP
100
AcDbPolyline
 90
        2
 70
         0
 43
200.0
 10
16400.001
 20
30555.625
 10
16400.001
 20
27255.625
  0
LWPOLYLINE
  5
B3
100
AcDbEntity
  8
ASSEMBLY_OUTLINES_TOP
100
AcDbPolyline
 90
        2
 70
         0
 43
200.0
 10
16400.001
 20
27255.625
 10
17400.001
 20
26355.625
  0
LWPOLYLINE
  5
B4
100
AcDbEntity
  8
ASSEMBLY_OUTLINES_TOP
100
AcDbPolyline
 90
        2
 70
         0
 43
200.0
 10
17400.001
 20
26355.625
 10
20300.001
 20
26355.625
  0
LWPOLYLINE
  5
B5
100
AcDbEntity
  8
ASSEMBLY_OUTLINES_TOP
100
AcDbPolyline
 90
        4
 70
         0
 43
200.0
 10
40900.001
 20
33055.625
 10
40900.001
 20
32655.625
 10
39700.001
 20
32655.625
 10
39700.001
 20
33055.625
  0
LWPOLYLINE
  5
B6
100
AcDbEntity
  8
ASSEMBLY_OUTLINES_TOP
100
AcDbPolyline
 90
        4
 70
         0
 43
200.0
 10
23170.626
 20
38160.0
 10
23170.626
 20
38560.0
 10
24370.626
 20
38560.0
 10
24370.626
 20
38160.0
  0
LWPOLYLINE
  5
B7
100
AcDbEntity
  8
ASSEMBLY_OUTLINES_TOP
100
AcDbPolyline
 90
        4
 70
         0
 43
200.0
 10
37200.001
 20
30555.625
 10
37600.001
 20
30555.625
 10
37600.001
 20
29355.625
 10
37200.001
 20
29355.625
  0
LWPOLYLINE
  5
B8
100
AcDbEntity
  8
ASSEMBLY_OUTLINES_TOP
100
AcDbPolyline
 90
        4
 70
         1
 43
100.0
 10
15825.001
 20
13580.625
 10
15825.001
 20
18930.625
 10
22175.001
 20
18930.625
 10
22175.001
 20
13580.625
  0
LWPOLYLINE
  5
B9
100
AcDbEntity
  8
ASSEMBLY_OUTLINES_TOP
100
AcDbPolyline
 90
        3
 70
         0
 43
150.0
 10
22600.001
 20
13855.625
 10
22600.001
 20
13347.625
 10
21838.001
 20
13347.625
  0
LWPOLYLINE
  5
BA
100
AcDbEntity
  8
ASSEMBLY_OUTLINES_TOP
100
AcDbPolyline
 90
        6
 70
         0
 43
200.0
 10
38460.001
 20
38655.625
 10
38460.001
 20
39655.625
 10
38260.001
 20
39855.625
 10
36360.001
 20
39855.625
 10
36160.001
 20
39655.625
 10
36160.001
 20
38655.625
  0
LWPOLYLINE
  5
BB
100
AcDbEntity
  8
ASSEMBLY_OUTLINES_TOP
100
AcDbPolyline
 90
        4
 70
         0
 43
200.0
 10
41500.001
 20
25355.625
 10
41500.001
 20
25755.625
 10
42700.001
 20
25755.625
 10
42700.001
 20
25355.625
  0
LWPOLYLINE
  5
BC
100
AcDbEntity
  8
ASSEMBLY_OUTLINES_TOP
100
AcDbPolyline
 90
        4
 70
         0
 43
200.0
 10
20400.001
 20
46755.627
 10
20000.001
 20
46755.627
 10
20000.001
 20
47955.627
 10
20400.001
 20
47955.627
  0
LWPOLYLINE
  5
BD
100
AcDbEntity
  8
ASSEMBLY_OUTLINES_TOP
100
AcDbPolyline
 90
        4
 70
         0
 43
200.0
 10
26570.626
 20
38160.0
 10
26570.626
 20
38560.0
 10
27770.626
 20
38560.0
 10
27770.626
 20
38160.0
  0
LWPOLYLINE
  5
BE
100
AcDbEntity
  8
ASSEMBLY_OUTLINES_TOP
100
AcDbPolyline
 90
        4
 70
         0
 43
200.0
 10
36700.001
 20
32255.625
 10
37100.001
 20
32255.625
 10
37100.001
 20
31055.625
 10
36700.001
 20
31055.625
  0
LWPOLYLINE
  5
BF
100
AcDbEntity
  8
ASSEMBLY_OUTLINES_TOP
100
AcDbPolyline
 90
        4
 70
         1
 43
150.0
 10
29600.001
 20
41855.625
 10
29600.001
 20
48855.625
 10
36600.001
 20
48855.625
 10
36600.001
 20
41855.625
  0
CIRCLE
  5
C0
100
AcDbEntity
  8
ASSEMBLY_OUTLINES_TOP
100
AcDbCircle
 10
29600.001
 20
48105.625
 30
0.0
 40
750.0
  0
HATCH
  5
C1
100
AcDbEntity
  8
ASSEMBLY_OUTLINES_TOP
100
AcDbHatch
 10
0.0
 20
0.0
 30
0.0
210
0.0
220
0.0
230
1.0
  2
SOLID
 70
         1
 71
         1
 91
        1
 92
        1
 93
        1
 72
         2
 10
29600.001
 20
48105.625
 40
750.0
 50
0.0
 51
360.0
 73
         1
 97
        1
330
C0
 75
         0
 76
         1
 98
        1
 10
0.0
 20
0.0
  0
LWPOLYLINE
  5
C2
100
AcDbEntity
  8
ASSEMBLY_OUTLINES_TOP
100
AcDbPolyline
 90
        4
 70
         0
 43
200.0
 10
23670.626
 20
22060.0
 10
23670.626
 20
21660.0
 10
22470.626
 20
21660.0
 10
22470.626
 20
22060.0
  0
LWPOLYLINE
  5
C3
100
AcDbEntity
  8
ASSEMBLY_OUTLINES_TOP
100
AcDbPolyline
 90
        4
 70
         0
 43
200.0
 10
20400.001
 20
38955.625
 10
20000.001
 20
38955.625
 10
20000.001
 20
40155.625
 10
20400.001
 20
40155.625
  0
LWPOLYLINE
  5
C4
100
AcDbEntity
  8
ASSEMBLY_OUTLINES_TOP
100
AcDbPolyline
 90
        4
 70
         0
 43
200.0
 10
41800.001
 20
22255.625
 10
41800.001
 20
21855.625
 10
40600.001
 20
21855.625
 10
40600.001
 20
22255.625
  0
LWPOLYLINE
  5
C5
100
AcDbEntity
  8
ASSEMBLY_OUTLINES_TOP
100
AcDbPolyline
 90
        4
 70
         0
 43
200.0
 10
27200.001
 20
35255.625
 10
27200.001
 20
35655.625
 10
28400.001
 20
35655.625
 10
28400.001
 20
35255.625
  0
LWPOLYLINE
  5
C6
100
AcDbEntity
  8
ASSEMBLY_OUTLINES_TOP
100
AcDbPolyline
 90
        4
 70
         0
 43
200.0
 10
35400.001
 20
36755.625
 10
35800.001
 20
36755.625
 10
35800.001
 20
35555.625
 10
35400.001
 20
35555.625
  0
LWPOLYLINE
  5
C7
100
AcDbEntity
  8
ASSEMBLY_OUTLINES_TOP
100
AcDbPolyline
 90
        4
 70
         0
 43
200.0
 10
32300.001
 20
39655.625
 10
32300.001
 20
40055.625
 10
33500.001
 20
40055.625
 10
33500.001
 20
39655.625
  0
LWPOLYLINE
  5
C8
100
AcDbEntity
  8
ASSEMBLY_OUTLINES_TOP
100
AcDbPolyline
 90
        6
 70
         1
 43
100.0
 10
1800.0
 20
8050.0
 10
1800.0
 20
9550.0
 10
-4700.0
 20
9550.0
 10
-4700.0
 20
30550.0
 10
10000.0
 20
30550.0
 10
10000.0
 20
8050.0
  0
LWPOLYLINE
  5
C9
100
AcDbEntity
  8
ASSEMBLY_OUTLINES_TOP
100
AcDbPolyline
 90
        2
 70
         0
 43
100.0
 10
-4825.0
 20
27725.0
 10
-7200.0
 20
27725.0
  0
LWPOLYLINE
  5
CA
100
AcDbEntity
  8
ASSEMBLY_OUTLINES_TOP
100
AcDbPolyline
 90
        2
 70
         0
 43
100.0
 10
-4800.0
 20
27725.0
 10
-5250.0
 20
28150.0
  0
LWPOLYLINE
  5
CB
100
AcDbEntity
  8
ASSEMBLY_OUTLINES_TOP
100
AcDbPolyline
 90
        2
 70
         0
 43
100.0
 10
-4800.0
 20
27725.0
 10
-5225.0
 20
27350.0
  0
LWPOLYLINE
  5
CC
100
AcDbEntity
  8
ASSEMBLY_OUTLINES_TOP
100
AcDbPolyline
 90
        2
 70
         0
 43
100.0
 10
-4825.0
 20
20000.0
 10
-7200.0
 20
20000.0
  0
LWPOLYLINE
  5
CD
100
AcDbEntity
  8
ASSEMBLY_OUTLINES_TOP
100
AcDbPolyline
 90
        2
 70
         0
 43
100.0
 10
-4800.0
 20
20000.0
 10
-5250.0
 20
20425.0
  0
LWPOLYLINE
  5
CE
100
AcDbEntity
  8
ASSEMBLY_OUTLINES_TOP
100
AcDbPolyline
 90
        2
 70
         0
 43
100.0
 10
-4800.0
 20
20000.0
 10
-5225.0
 20
19625.0
  0
LWPOLYLINE
  5
CF
100
AcDbEntity
  8
ASSEMBLY_OUTLINES_TOP
100
AcDbPolyline
 90
        2
 70
         0
 43
100.0
 10
-4825.0
 20
13350.0
 10
-7200.0
 20
13350.0
  0
LWPOLYLINE
  5
D0
100
AcDbEntity
  8
ASSEMBLY_OUTLINES_TOP
100
AcDbPolyline
 90
        2
 70
         0
 43
100.0
 10
-4800.0
 20
13350.0
 10
-5250.0
 20
13775.0
  0
LWPOLYLINE
  5
D1
100
AcDbEntity
  8
ASSEMBLY_OUTLINES_TOP
100
AcDbPolyline
 90
        2
 70
         0
 43
100.0
 10
-4800.0
 20
13350.0
 10
-5225.0
 20
12975.0
  0
LWPOLYLINE
  5
D2
100
AcDbEntity
  8
ASSEMBLY_OUTLINES_TOP
100
AcDbPolyline
 90
        4
 70
         0
 43
250.0
 10
11850.0
 20
17810.0
 10
11850.0
 20
18010.0
 10
11450.0
 20
18010.0
 10
11450.0
 20
17810.0
  0
LWPOLYLINE
  5
D3
100
AcDbEntity
  8
ASSEMBLY_OUTLINES_TOP
100
AcDbPolyline
 90
        4
 70
         0
 43
250.0
 10
16260.0
 20
6160.0
 10
16260.0
 20
5960.0
 10
16660.0
 20
5960.0
 10
16660.0
 20
6160.0
  0
LWPOLYLINE
  5
D4
100
AcDbEntity
  8
ASSEMBLY_OUTLINES_TOP
100
AcDbPolyline
 90
        4
 70
         1
 43
100.0
 10
17930.0
 20
62400.0
 10
17930.0
 20
71600.0
 10
26330.0
 20
71600.0
 10
26330.0
 20
62400.0
  0
LWPOLYLINE
  5
D5
100
AcDbEntity
  8
ASSEMBLY_OUTLINES_TOP
100
AcDbPolyline
 90
        3
 70
         1
 10
22730.0
 20
72700.0
 10
22130.0
 20
72000.0
 10
21530.0
 20
72700.0
  0
HATCH
  5
D6
100
AcDbEntity
  8
ASSEMBLY_OUTLINES_TOP
100
AcDbHatch
 10
0.0
 20
0.0
 30
0.0
210
0.0
220
0.0
230
1.0
  2
SOLID
 70
         1
 71
         1
 91
        1
 92
        2
 72
         0
 73
         1
 93
        3
 10
22730.0
 20
72700.0
 10
22130.0
 20
72000.0
 10
21530.0
 20
72700.0
 97
        1
330
D5
 75
         0
 76
         1
 98
        1
 10
0.0
 20
0.0
  0
SOLID
  5
D7
100
AcDbEntity
  8
ASSEMBLY_OUTLINES_TOP
100
AcDbTrace
 10
21830.0
 20
72500.0
 30
0.0
 11
22430.0
 21
72500.0
 31
0.0
 12
21830.0
 22
73700.0
 32
0.0
 13
22430.0
 23
73700.0
 33
0.0
  0
TEXT
  5
D8
100
AcDbEntity
  8
ASSEMBLY_REF_DES_TOP
100
AcDbText
 10
35253.2
 20
3164.0
 30
0.0
 40
800.0
  1
C116
  7
ARIAL
 72
         1
 11
36620.0
 21
3580.0
 31
0.0
100
AcDbText
 73
         2
  0
TEXT
  5
D9
100
AcDbEntity
  8
ASSEMBLY_REF_DES_TOP
100
AcDbText
 10
19044.0
 20
6536.8
 30
0.0
 40
800.0
  1
C120
 50
270.0
  7
ARIAL
 72
         1
 11
19460.0
 21
5170.0
 31
0.0
100
AcDbText
 73
         2
  0
TEXT
  5
DA
100
AcDbEntity
  8
ASSEMBLY_REF_DES_TOP
100
AcDbText
 10
11734.0
 20
11626.8
 30
0.0
 40
800.0
  1
C124
 50
270.0
  7
ARIAL
 72
         1
 11
12150.0
 21
10260.0
 31
0.0
100
AcDbText
 73
         2
  0
TEXT
  5
DB
100
AcDbEntity
  8
ASSEMBLY_REF_DES_TOP
100
AcDbText
 10
13904.626
 20
9568.363
 30
0.0
 40
800.0
  1
C118
 50
270.0
  7
ARIAL
 72
         1
 11
14320.626
 21
8201.563
 31
0.0
100
AcDbText
 73
         2
  0
TEXT
  5
DC
100
AcDbEntity
  8
ASSEMBLY_REF_DES_TOP
100
AcDbText
 10
22344.0
 20
6546.8
 30
0.0
 40
800.0
  1
C121
 50
270.0
  7
ARIAL
 72
         1
 11
22760.0
 21
5180.0
 31
0.0
100
AcDbText
 73
         2
  0
TEXT
  5
DD
100
AcDbEntity
  8
ASSEMBLY_REF_DES_TOP
100
AcDbText
 10
25744.0
 20
6656.8
 30
0.0
 40
800.0
  1
C122
 50
270.0
  7
ARIAL
 72
         1
 11
26160.0
 21
5290.0
 31
0.0
100
AcDbText
 73
         2
  0
TEXT
  5
DE
100
AcDbEntity
  8
ASSEMBLY_REF_DES_TOP
100
AcDbText
 10
25134.004
 20
31604.425
 30
0.0
 40
800.0
  1
C65
 50
270.0
  7
ARIAL
 72
         1
 11
25550.004
 21
30555.625
 31
0.0
100
AcDbText
 73
         2
  0
TEXT
  5
DF
100
AcDbEntity
  8
ASSEMBLY_REF_DES_TOP
100
AcDbText
 10
23784.001
 20
31304.425
 30
0.0
 40
800.0
  1
R81
 50
270.0
  7
ARIAL
 72
         1
 11
24200.001
 21
30255.625
 31
0.0
100
AcDbText
 73
         2
  0
TEXT
  5
E0
100
AcDbEntity
  8
ASSEMBLY_REF_DES_TOP
100
AcDbText
 10
22728.375
 20
32048.801
 30
0.0
 40
800.0
  1
R86
 50
270.0
  7
ARIAL
 72
         1
 11
23144.375
 21
31000.001
 31
0.0
100
AcDbText
 73
         2
  0
TEXT
  5
E1
100
AcDbEntity
  8
ASSEMBLY_REF_DES_TOP
100
AcDbText
 10
25334.004
 20
28724.425
 30
0.0
 40
800.0
  1
C64
 50
270.0
  7
ARIAL
 72
         1
 11
25750.004
 21
27675.625
 31
0.0
100
AcDbText
 73
         2
  0
TEXT
  5
E2
100
AcDbEntity
  8
ASSEMBLY_REF_DES_TOP
100
AcDbText
 10
26784.001
 20
28104.425
 30
0.0
 40
800.0
  1
R84
 50
270.0
  7
ARIAL
 72
         1
 11
27200.001
 21
27055.625
 31
0.0
100
AcDbText
 73
         2
  0
TEXT
  5
E3
100
AcDbEntity
  8
ASSEMBLY_REF_DES_TOP
100
AcDbText
 10
9729.2
 20
62354.0
 30
0.0
 40
800.0
  1
C1
  7
ARIAL
 72
         1
 11
10460.0
 21
62770.0
 31
0.0
100
AcDbText
 73
         2
  0
TEXT
  5
E4
100
AcDbEntity
  8
ASSEMBLY_REF_DES_TOP
100
AcDbText
 10
6344.0
 20
63610.8
 30
0.0
 40
800.0
  1
R1
 50
270.0
  7
ARIAL
 72
         1
 11
6760.0
 21
62880.0
 31
0.0
100
AcDbText
 73
         2
  0
TEXT
  5
E5
100
AcDbEntity
  8
ASSEMBLY_REF_DES_TOP
100
AcDbText
 10
5853.2
 20
40164.0
 30
0.0
 40
800.0
  1
C115
  7
ARIAL
 72
         1
 11
7220.0
 21
40580.0
 31
0.0
100
AcDbText
 73
         2
  0
TEXT
  5
E6
100
AcDbEntity
  8
ASSEMBLY_REF_DES_TOP
100
AcDbText
 10
38383.2
 20
51942.437
 30
0.0
 40
800.0
  1
C123
  7
ARIAL
 72
         1
 11
39750.0
 21
52358.437
 31
0.0
100
AcDbText
 73
         2
  0
TEXT
  5
E7
100
AcDbEntity
  8
ASSEMBLY_REF_DES_TOP
100
AcDbText
 10
17553.2
 20
9264.0
 30
0.0
 40
800.0
  1
C113
  7
ARIAL
 72
         1
 11
18920.0
 21
9680.0
 31
0.0
100
AcDbText
 73
         2
  0
TEXT
  5
E8
100
AcDbEntity
  8
ASSEMBLY_REF_DES_TOP
100
AcDbText
 10
5553.2
 20
51564.0
 30
0.0
 40
800.0
  1
C114
  7
ARIAL
 72
         1
 11
6920.0
 21
51980.0
 31
0.0
100
AcDbText
 73
         2
  0
TEXT
  5
E9
100
AcDbEntity
  8
ASSEMBLY_REF_DES_TOP
100
AcDbText
 10
41300.8
 20
2584.0
 30
0.0
 40
800.0
  1
X6
  7
ARIAL
 72
         1
 11
42000.0
 21
3000.0
 31
0.0
100
AcDbText
 73
         2
  0
TEXT
  5
EA
100
AcDbEntity
  8
ASSEMBLY_REF_DES_TOP
100
AcDbText
 10
41300.8
 20
68584.0
 30
0.0
 40
800.0
  1
X3
  7
ARIAL
 72
         1
 11
42000.0
 21
69000.0
 31
0.0
100
AcDbText
 73
         2
  0
TEXT
  5
EB
100
AcDbEntity
  8
ASSEMBLY_REF_DES_TOP
100
AcDbText
 10
32734.987
 20
63509.0
 30
0.0
 40
800.0
  1
F1
  7
ARIAL
 72
         1
 11
33402.187
 21
63925.0
 31
0.0
100
AcDbText
 73
         2
  0
TEXT
  5
EC
100
AcDbEntity
  8
ASSEMBLY_REF_DES_TOP
100
AcDbText
 10
35033.201
 20
33739.625
 30
0.0
 40
800.0
  1
C111
  7
ARIAL
 72
         1
 11
36400.001
 21
34155.625
 31
0.0
100
AcDbText
 73
         2
  0
TEXT
  5
ED
100
AcDbEntity
  8
ASSEMBLY_REF_DES_TOP
100
AcDbText
 10
29011.201
 20
6019.625
 30
0.0
 40
800.0
  1
R60
  7
ARIAL
 72
         1
 11
30060.001
 21
6435.625
 31
0.0
100
AcDbText
 73
         2
  0
TEXT
  5
EE
100
AcDbEntity
  8
ASSEMBLY_REF_DES_TOP
100
AcDbText
 10
34551.201
 20
25139.625
 30
0.0
 40
800.0
  1
C82
  7
ARIAL
 72
         1
 11
35600.001
 21
25555.625
 31
0.0
100
AcDbText
 73
         2
  0
TEXT
  5
EF
100
AcDbEntity
  8
ASSEMBLY_REF_DES_TOP
100
AcDbText
 10
41584.001
 20
40804.425
 30
0.0
 40
800.0
  1
R79
 50
270.0
  7
ARIAL
 72
         1
 11
42000.001
 21
39755.625
 31
0.0
100
AcDbText
 73
         2
  0
TEXT
  5
F0
100
AcDbEntity
  8
ASSEMBLY_REF_DES_TOP
100
AcDbText
 10
35033.201
 20
27039.625
 30
0.0
 40
800.0
  1
C112
  7
ARIAL
 72
         1
 11
36400.001
 21
27455.625
 31
0.0
100
AcDbText
 73
         2
  0
TEXT
  5
F1
100
AcDbEntity
  8
ASSEMBLY_REF_DES_TOP
100
AcDbText
 10
23284.001
 20
34986.425
 30
0.0
 40
800.0
  1
D3
 50
270.0
  7
ARIAL
 72
         1
 11
23700.001
 21
34255.625
 31
0.0
100
AcDbText
 73
         2
  0
TEXT
  5
F2
100
AcDbEntity
  8
ASSEMBLY_REF_DES_TOP
100
AcDbText
 10
33584.001
 20
24022.425
 30
0.0
 40
800.0
  1
C108
 50
270.0
  7
ARIAL
 72
         1
 11
34000.001
 21
22655.625
 31
0.0
100
AcDbText
 73
         2
  0
TEXT
  5
F3
100
AcDbEntity
  8
ASSEMBLY_REF_DES_TOP
100
AcDbText
 10
40351.201
 20
44039.625
 30
0.0
 40
800.0
  1
D14
  7
ARIAL
 72
         1
 11
41400.001
 21
44455.625
 31
0.0
100
AcDbText
 73
         2
  0
TEXT
  5
F4
100
AcDbEntity
  8
ASSEMBLY_REF_DES_TOP
100
AcDbText
 10
41684.001
 20
30922.425
 30
0.0
 40
800.0
  1
C100
 50
270.0
  7
ARIAL
 72
         1
 11
42100.001
 21
29555.625
 31
0.0
100
AcDbText
 73
         2
  0
TEXT
  5
F5
100
AcDbEntity
  8
ASSEMBLY_REF_DES_TOP
100
AcDbText
 10
17251.201
 20
22189.624
 30
0.0
 40
800.0
  1
C79
  7
ARIAL
 72
         1
 11
18300.001
 21
22605.624
 31
0.0
100
AcDbText
 73
         2
  0
TEXT
  5
F6
100
AcDbEntity
  8
ASSEMBLY_REF_DES_TOP
100
AcDbText
 10
18137.201
 20
43039.625
 30
0.0
 40
800.0
  1
Q5
  7
ARIAL
 72
         1
 11
18900.001
 21
43455.625
 31
0.0
100
AcDbText
 73
         2
  0
TEXT
  5
F7
100
AcDbEntity
  8
ASSEMBLY_REF_DES_TOP
100
AcDbText
 10
29484.001
 20
24104.425
 30
0.0
 40
800.0
  1
R78
 50
270.0
  7
ARIAL
 72
         1
 11
29900.001
 21
23055.625
 31
0.0
100
AcDbText
 73
         2
  0
TEXT
  5
F8
100
AcDbEntity
  8
ASSEMBLY_REF_DES_TOP
100
AcDbText
 10
32275.251
 20
55892.175
 30
0.0
 40
800.0
  1
D6
 50
270.0
  7
ARIAL
 72
         1
 11
32691.251
 21
55161.375
 31
0.0
100
AcDbText
 73
         2
  0
TEXT
  5
F9
100
AcDbEntity
  8
ASSEMBLY_REF_DES_TOP
100
AcDbText
 10
34626.001
 20
13439.625
 30
0.0
 40
800.0
  1
L22
  7
ARIAL
 72
         1
 11
35580.001
 21
13855.625
 31
0.0
100
AcDbText
 73
         2
  0
TEXT
  5
FA
100
AcDbEntity
  8
ASSEMBLY_REF_DES_TOP
100
AcDbText
 10
29784.001
 20
37204.425
 30
0.0
 40
800.0
  1
R77
 50
270.0
  7
ARIAL
 72
         1
 11
30200.001
 21
36155.625
 31
0.0
100
AcDbText
 73
         2
  0
TEXT
  5
FB
100
AcDbEntity
  8
ASSEMBLY_REF_DES_TOP
100
AcDbText
 10
39984.001
 20
30022.425
 30
0.0
 40
800.0
  1
C102
 50
270.0
  7
ARIAL
 72
         1
 11
40400.001
 21
28655.625
 31
0.0
100
AcDbText
 73
         2
  0
TEXT
  5
FC
100
AcDbEntity
  8
ASSEMBLY_REF_DES_TOP
100
AcDbText
 10
41584.001
 20
37504.425
 30
0.0
 40
800.0
  1
R88
 50
270.0
  7
ARIAL
 72
         1
 11
42000.001
 21
36455.625
 31
0.0
100
AcDbText
 73
         2
  0
TEXT
  5
FD
100
AcDbEntity
  8
ASSEMBLY_REF_DES_TOP
100
AcDbText
 10
39084.001
 20
23422.425
 30
0.0
 40
800.0
  1
C106
 50
270.0
  7
ARIAL
 72
         1
 11
39500.001
 21
22055.625
 31
0.0
100
AcDbText
 73
         2
  0
TEXT
  5
FE
100
AcDbEntity
  8
ASSEMBLY_REF_DES_TOP
100
AcDbText
 10
25051.201
 20
9839.625
 30
0.0
 40
800.0
  1
D13
  7
ARIAL
 72
         1
 11
26100.001
 21
10255.625
 31
0.0
100
AcDbText
 73
         2
  0
TEXT
  5
FF
100
AcDbEntity
  8
ASSEMBLY_REF_DES_TOP
100
AcDbText
 10
26054.626
 20
23226.8
 30
0.0
 40
800.0
  1
R190
 50
270.0
  7
ARIAL
 72
         1
 11
26470.626
 21
21860.0
 31
0.0
100
AcDbText
 73
         2
  0
TEXT
  5
100
100
AcDbEntity
  8
ASSEMBLY_REF_DES_TOP
100
AcDbText
 10
29075.251
 20
60213.175
 30
0.0
 40
800.0
  1
C73
 50
270.0
  7
ARIAL
 72
         1
 11
29491.251
 21
59164.375
 31
0.0
100
AcDbText
 73
         2
  0
TEXT
  5
101
100
AcDbEntity
  8
ASSEMBLY_REF_DES_TOP
100
AcDbText
 10
40851.201
 20
41539.625
 30
0.0
 40
800.0
  1
R82
  7
ARIAL
 72
         1
 11
41900.001
 21
41955.625
 31
0.0
100
AcDbText
 73
         2
  0
TEXT
  5
102
100
AcDbEntity
  8
ASSEMBLY_REF_DES_TOP
100
AcDbText
 10
25384.001
 20
44518.425
 30
0.0
 40
800.0
  1
Q6
 50
270.0
  7
ARIAL
 72
         1
 11
25800.001
 21
43755.625
 31
0.0
100
AcDbText
 73
         2
  0
TEXT
  5
103
100
AcDbEntity
  8
ASSEMBLY_REF_DES_TOP
100
AcDbText
 10
18775.251
 20
55913.175
 30
0.0
 40
800.0
  1
C77
 50
270.0
  7
ARIAL
 72
         1
 11
19191.251
 21
54864.375
 31
0.0
100
AcDbText
 73
         2
  0
TEXT
  5
104
100
AcDbEntity
  8
ASSEMBLY_REF_DES_TOP
100
AcDbText
 10
41051.201
 20
31239.625
 30
0.0
 40
800.0
  1
R83
  7
ARIAL
 72
         1
 11
42100.001
 21
31655.625
 31
0.0
100
AcDbText
 73
         2
  0
TEXT
  5
105
100
AcDbEntity
  8
ASSEMBLY_REF_DES_TOP
100
AcDbText
 10
29551.201
 20
29239.625
 30
0.0
 40
800.0
  1
U12
  7
ARIAL
 72
         1
 11
30600.001
 21
29655.625
 31
0.0
100
AcDbText
 73
         2
  0
TEXT
  5
106
100
AcDbEntity
  8
ASSEMBLY_REF_DES_TOP
100
AcDbText
 10
25484.001
 20
16918.425
 30
0.0
 40
800.0
  1
Q4
 50
270.0
  7
ARIAL
 72
         1
 11
25900.001
 21
16155.625
 31
0.0
100
AcDbText
 73
         2
  0
TEXT
  5
107
100
AcDbEntity
  8
ASSEMBLY_REF_DES_TOP
100
AcDbText
 10
25075.251
 20
55913.175
 30
0.0
 40
800.0
  1
C78
 50
270.0
  7
ARIAL
 72
         1
 11
25491.251
 21
54864.375
 31
0.0
100
AcDbText
 73
         2
  0
TEXT
  5
108
100
AcDbEntity
  8
ASSEMBLY_REF_DES_TOP
100
AcDbText
 10
24354.626
 20
23226.8
 30
0.0
 40
800.0
  1
R192
 50
270.0
  7
ARIAL
 72
         1
 11
24770.626
 21
21860.0
 31
0.0
100
AcDbText
 73
         2
  0
TEXT
  5
109
100
AcDbEntity
  8
ASSEMBLY_REF_DES_TOP
100
AcDbText
 10
25054.626
 20
39726.8
 30
0.0
 40
800.0
  1
R191
 50
270.0
  7
ARIAL
 72
         1
 11
25470.626
 21
38360.0
 31
0.0
100
AcDbText
 73
         2
  0
TEXT
  5
10A
100
AcDbEntity
  8
ASSEMBLY_REF_DES_TOP
100
AcDbText
 10
25434.004
 20
34504.425
 30
0.0
 40
800.0
  1
C63
 50
270.0
  7
ARIAL
 72
         1
 11
25850.004
 21
33455.625
 31
0.0
100
AcDbText
 73
         2
  0
TEXT
  5
10B
100
AcDbEntity
  8
ASSEMBLY_REF_DES_TOP
100
AcDbText
 10
41684.001
 20
34604.425
 30
0.0
 40
800.0
  1
C99
 50
270.0
  7
ARIAL
 72
         1
 11
42100.001
 21
33555.625
 31
0.0
100
AcDbText
 73
         2
  0
TEXT
  5
10C
100
AcDbEntity
  8
ASSEMBLY_REF_DES_TOP
100
AcDbText
 10
41051.201
 20
27239.625
 30
0.0
 40
800.0
  1
R87
  7
ARIAL
 72
         1
 11
42100.001
 21
27655.625
 31
0.0
100
AcDbText
 73
         2
  0
TEXT
  5
10D
100
AcDbEntity
  8
ASSEMBLY_REF_DES_TOP
100
AcDbText
 10
34384.001
 20
41222.425
 30
0.0
 40
800.0
  1
C104
 50
270.0
  7
ARIAL
 72
         1
 11
34800.001
 21
39855.625
 31
0.0
100
AcDbText
 73
         2
  0
TEXT
  5
10E
100
AcDbEntity
  8
ASSEMBLY_REF_DES_TOP
100
AcDbText
 10
40351.201
 20
45939.625
 30
0.0
 40
800.0
  1
R90
  7
ARIAL
 72
         1
 11
41400.001
 21
46355.625
 31
0.0
100
AcDbText
 73
         2
  0
TEXT
  5
10F
100
AcDbEntity
  8
ASSEMBLY_REF_DES_TOP
100
AcDbText
 10
17251.201
 20
34889.626
 30
0.0
 40
800.0
  1
C80
  7
ARIAL
 72
         1
 11
18300.001
 21
35305.626
 31
0.0
100
AcDbText
 73
         2
  0
TEXT
  5
110
100
AcDbEntity
  8
ASSEMBLY_REF_DES_TOP
100
AcDbText
 10
27184.001
 20
25904.425
 30
0.0
 40
800.0
  1
C83
 50
270.0
  7
ARIAL
 72
         1
 11
27600.001
 21
24855.625
 31
0.0
100
AcDbText
 73
         2
  0
TEXT
  5
111
100
AcDbEntity
  8
ASSEMBLY_REF_DES_TOP
100
AcDbText
 10
26784.001
 20
34204.425
 30
0.0
 40
800.0
  1
R80
 50
270.0
  7
ARIAL
 72
         1
 11
27200.001
 21
33155.625
 31
0.0
100
AcDbText
 73
         2
  0
TEXT
  5
112
100
AcDbEntity
  8
ASSEMBLY_REF_DES_TOP
100
AcDbText
 10
23284.001
 20
27286.425
 30
0.0
 40
800.0
  1
D4
 50
270.0
  7
ARIAL
 72
         1
 11
23700.001
 21
26555.625
 31
0.0
100
AcDbText
 73
         2
  0
TEXT
  5
113
100
AcDbEntity
  8
ASSEMBLY_REF_DES_TOP
100
AcDbText
 10
29226.201
 20
49973.374
 30
0.0
 40
800.0
  1
C72
  7
ARIAL
 72
         1
 11
30275.001
 21
50389.374
 31
0.0
100
AcDbText
 73
         2
  0
TEXT
  5
114
100
AcDbEntity
  8
ASSEMBLY_REF_DES_TOP
100
AcDbText
 10
30684.001
 20
41222.425
 30
0.0
 40
800.0
  1
C103
 50
270.0
  7
ARIAL
 72
         1
 11
31100.001
 21
39855.625
 31
0.0
100
AcDbText
 73
         2
  0
TEXT
  5
115
100
AcDbEntity
  8
ASSEMBLY_REF_DES_TOP
100
AcDbText
 10
35054.626
 20
31126.8
 30
0.0
 40
800.0
  1
R186
 50
270.0
  7
ARIAL
 72
         1
 11
35470.626
 21
29760.0
 31
0.0
100
AcDbText
 73
         2
  0
TEXT
  5
116
100
AcDbEntity
  8
ASSEMBLY_REF_DES_TOP
100
AcDbText
 10
36684.001
 20
24022.425
 30
0.0
 40
800.0
  1
C109
 50
270.0
  7
ARIAL
 72
         1
 11
37100.001
 21
22655.625
 31
0.0
100
AcDbText
 73
         2
  0
TEXT
  5
117
100
AcDbEntity
  8
ASSEMBLY_REF_DES_TOP
100
AcDbText
 10
17251.201
 20
28539.625
 30
0.0
 40
800.0
  1
C76
  7
ARIAL
 72
         1
 11
18300.001
 21
28955.625
 31
0.0
100
AcDbText
 73
         2
  0
TEXT
  5
118
100
AcDbEntity
  8
ASSEMBLY_REF_DES_TOP
100
AcDbText
 10
39884.001
 20
34222.425
 30
0.0
 40
800.0
  1
C101
 50
270.0
  7
ARIAL
 72
         1
 11
40300.001
 21
32855.625
 31
0.0
100
AcDbText
 73
         2
  0
TEXT
  5
119
100
AcDbEntity
  8
ASSEMBLY_REF_DES_TOP
100
AcDbText
 10
23354.626
 20
39726.8
 30
0.0
 40
800.0
  1
R187
 50
270.0
  7
ARIAL
 72
         1
 11
23770.626
 21
38360.0
 31
0.0
100
AcDbText
 73
         2
  0
TEXT
  5
11A
100
AcDbEntity
  8
ASSEMBLY_REF_DES_TOP
100
AcDbText
 10
36351.201
 20
29539.625
 30
0.0
 40
800.0
  1
R85
  7
ARIAL
 72
         1
 11
37400.001
 21
29955.625
 31
0.0
100
AcDbText
 73
         2
  0
TEXT
  5
11B
100
AcDbEntity
  8
ASSEMBLY_REF_DES_TOP
100
AcDbText
 10
18237.201
 20
15839.625
 30
0.0
 40
800.0
  1
Q3
  7
ARIAL
 72
         1
 11
19000.001
 21
16255.625
 31
0.0
100
AcDbText
 73
         2
  0
TEXT
  5
11C
100
AcDbEntity
  8
ASSEMBLY_REF_DES_TOP
100
AcDbText
 10
36884.001
 20
40622.425
 30
0.0
 40
800.0
  1
C110
 50
270.0
  7
ARIAL
 72
         1
 11
37300.001
 21
39255.625
 31
0.0
100
AcDbText
 73
         2
  0
TEXT
  5
11D
100
AcDbEntity
  8
ASSEMBLY_REF_DES_TOP
100
AcDbText
 10
41684.001
 20
26604.425
 30
0.0
 40
800.0
  1
R89
 50
270.0
  7
ARIAL
 72
         1
 11
42100.001
 21
25555.625
 31
0.0
100
AcDbText
 73
         2
  0
TEXT
  5
11E
100
AcDbEntity
  8
ASSEMBLY_REF_DES_TOP
100
AcDbText
 10
19151.201
 20
46939.627
 30
0.0
 40
800.0
  1
C61
  7
ARIAL
 72
         1
 11
20200.001
 21
47355.627
 31
0.0
100
AcDbText
 73
         2
  0
TEXT
  5
11F
100
AcDbEntity
  8
ASSEMBLY_REF_DES_TOP
100
AcDbText
 10
26754.626
 20
39726.8
 30
0.0
 40
800.0
  1
R189
 50
270.0
  7
ARIAL
 72
         1
 11
27170.626
 21
38360.0
 31
0.0
100
AcDbText
 73
         2
  0
TEXT
  5
120
100
AcDbEntity
  8
ASSEMBLY_REF_DES_TOP
100
AcDbText
 10
35851.201
 20
31239.625
 30
0.0
 40
800.0
  1
C85
  7
ARIAL
 72
         1
 11
36900.001
 21
31655.625
 31
0.0
100
AcDbText
 73
         2
  0
TEXT
  5
121
100
AcDbEntity
  8
ASSEMBLY_REF_DES_TOP
100
AcDbText
 10
32146.001
 20
44939.625
 30
0.0
 40
800.0
  1
L21
  7
ARIAL
 72
         1
 11
33100.001
 21
45355.625
 31
0.0
100
AcDbText
 73
         2
  0
TEXT
  5
122
100
AcDbEntity
  8
ASSEMBLY_REF_DES_TOP
100
AcDbText
 10
22654.626
 20
23226.8
 30
0.0
 40
800.0
  1
R188
 50
270.0
  7
ARIAL
 72
         1
 11
23070.626
 21
21860.0
 31
0.0
100
AcDbText
 73
         2
  0
TEXT
  5
123
100
AcDbEntity
  8
ASSEMBLY_REF_DES_TOP
100
AcDbText
 10
19151.201
 20
39139.625
 30
0.0
 40
800.0
  1
C62
  7
ARIAL
 72
         1
 11
20200.001
 21
39555.625
 31
0.0
100
AcDbText
 73
         2
  0
TEXT
  5
124
100
AcDbEntity
  8
ASSEMBLY_REF_DES_TOP
100
AcDbText
 10
40784.001
 20
23422.425
 30
0.0
 40
800.0
  1
C107
 50
270.0
  7
ARIAL
 72
         1
 11
41200.001
 21
22055.625
 31
0.0
100
AcDbText
 73
         2
  0
TEXT
  5
125
100
AcDbEntity
  8
ASSEMBLY_REF_DES_TOP
100
AcDbText
 10
27384.001
 20
36504.425
 30
0.0
 40
800.0
  1
C84
 50
270.0
  7
ARIAL
 72
         1
 11
27800.001
 21
35455.625
 31
0.0
100
AcDbText
 73
         2
  0
TEXT
  5
126
100
AcDbEntity
  8
ASSEMBLY_REF_DES_TOP
100
AcDbText
 10
34551.201
 20
35739.625
 30
0.0
 40
800.0
  1
C81
  7
ARIAL
 72
         1
 11
35600.001
 21
36155.625
 31
0.0
100
AcDbText
 73
         2
  0
TEXT
  5
127
100
AcDbEntity
  8
ASSEMBLY_REF_DES_TOP
100
AcDbText
 10
32484.001
 20
41222.425
 30
0.0
 40
800.0
  1
C105
 50
270.0
  7
ARIAL
 72
         1
 11
32900.001
 21
39855.625
 31
0.0
100
AcDbText
 73
         2
  0
TEXT
  5
128
100
AcDbEntity
  8
ASSEMBLY_REF_DES_TOP
100
AcDbText
 10
6159.0
 20
20749.2
 30
0.0
 40
800.0
  1
X2
 50
270.0
  7
ARIAL
 72
         1
 11
6575.0
 21
20050.0
 31
0.0
100
AcDbText
 73
         2
  0
TEXT
  5
129
100
AcDbEntity
  8
ASSEMBLY_REF_DES_TOP
100
AcDbText
 10
11234.0
 20
19276.8
 30
0.0
 40
800.0
  1
C117
 50
270.0
  7
ARIAL
 72
         1
 11
11650.0
 21
17910.0
 31
0.0
100
AcDbText
 73
         2
  0
TEXT
  5
12A
100
AcDbEntity
  8
ASSEMBLY_REF_DES_TOP
100
AcDbText
 10
16044.0
 20
7426.8
 30
0.0
 40
800.0
  1
C119
 50
270.0
  7
ARIAL
 72
         1
 11
16460.0
 21
6060.0
 31
0.0
100
AcDbText
 73
         2
  0
TEXT
  5
12B
100
AcDbEntity
  8
ASSEMBLY_REF_DES_TOP
100
AcDbText
 10
21430.8
 20
63184.0
 30
0.0
 40
800.0
  1
X1
  7
ARIAL
 72
         1
 11
22130.0
 21
63600.0
 31
0.0
100
AcDbText
 73
         2
  0
TEXT
  5
12C
100
AcDbEntity
  8
ASSEMBLY_REF_DES_TOP
100
AcDbText
 10
2300.8
 20
2584.0
 30
0.0
 40
800.0
  1
X5
  7
ARIAL
 72
         1
 11
3000.0
 21
3000.0
 31
0.0
100
AcDbText
 73
         2
  0
TEXT
  5
12D
100
AcDbEntity
  8
ASSEMBLY_REF_DES_TOP
100
AcDbText
 10
2300.8
 20
68584.0
 30
0.0
 40
800.0
  1
X4
  7
ARIAL
 72
         1
 11
3000.0
 21
69000.0
 31
0.0
100
AcDbText
 73
         2
  0
LWPOLYLINE
  5
12E
100
AcDbEntity
  8
BOARD_OUTLINE
100
AcDbPolyline
 90
        4
 70
         1
 10
0.0
 20
0.0
 10
0.0
 20
72000.0
 10
45000.0
 20
72000.0
 10
45000.0
 20
0.0
  0
CIRCLE
  5
12F
100
AcDbEntity
  8
SOLDERMASK_PADS_BTM
100
AcDbCircle
 10
36128.509
 20
2799.839
 30
0.0
 40
190.0
  0
CIRCLE
  5
130
100
AcDbEntity
  8
SOLDERMASK_PADS_BTM
100
AcDbCircle
 10
18685.0
 20
5570.0
 30
0.0
 40
190.0
  0
CIRCLE
  5
131
100
AcDbEntity
  8
SOLDERMASK_PADS_BTM
100
AcDbCircle
 10
11375.0
 20
10660.0
 30
0.0
 40
190.0
  0
CIRCLE
  5
132
100
AcDbEntity
  8
SOLDERMASK_PADS_BTM
100
AcDbCircle
 10
13545.626
 20
8601.563
 30
0.0
 40
190.0
  0
CIRCLE
  5
133
100
AcDbEntity
  8
SOLDERMASK_PADS_BTM
100
AcDbCircle
 10
21985.0
 20
5580.0
 30
0.0
 40
190.0
  0
CIRCLE
  5
134
100
AcDbEntity
  8
SOLDERMASK_PADS_BTM
100
AcDbCircle
 10
25385.0
 20
5690.0
 30
0.0
 40
190.0
  0
CIRCLE
  5
135
100
AcDbEntity
  8
SOLDERMASK_PADS_BTM
100
AcDbCircle
 10
31842.166
 20
38084.766
 30
0.0
 40
190.0
  0
CIRCLE
  5
136
100
AcDbEntity
  8
SOLDERMASK_PADS_BTM
100
AcDbCircle
 10
24096.847
 20
31555.461
 30
0.0
 40
190.0
  0
CIRCLE
  5
137
100
AcDbEntity
  8
SOLDERMASK_PADS_BTM
100
AcDbCircle
 10
26450.001
 20
25683.422
 30
0.0
 40
190.0
  0
CIRCLE
  5
138
100
AcDbEntity
  8
SOLDERMASK_PADS_BTM
100
AcDbCircle
 10
21834.319
 20
38634.92
 30
0.0
 40
190.0
  0
CIRCLE
  5
139
100
AcDbEntity
  8
SOLDERMASK_PADS_BTM
100
AcDbCircle
 10
10115.416
 20
58568.126
 30
0.0
 40
190.0
  0
CIRCLE
  5
13A
100
AcDbEntity
  8
SOLDERMASK_PADS_BTM
100
AcDbCircle
 10
9215.412
 20
58568.126
 30
0.0
 40
190.0
  0
CIRCLE
  5
13B
100
AcDbEntity
  8
SOLDERMASK_PADS_BTM
100
AcDbCircle
 10
8315.408
 20
58568.126
 30
0.0
 40
190.0
  0
CIRCLE
  5
13C
100
AcDbEntity
  8
SOLDERMASK_PADS_BTM
100
AcDbCircle
 10
7415.404
 20
58568.126
 30
0.0
 40
190.0
  0
CIRCLE
  5
13D
100
AcDbEntity
  8
SOLDERMASK_PADS_BTM
100
AcDbCircle
 10
6728.509
 20
39799.839
 30
0.0
 40
190.0
  0
CIRCLE
  5
13E
100
AcDbEntity
  8
SOLDERMASK_PADS_BTM
100
AcDbCircle
 10
20549.547
 20
59626.42
 30
0.0
 40
190.0
  0
CIRCLE
  5
13F
100
AcDbEntity
  8
SOLDERMASK_PADS_BTM
100
AcDbCircle
 10
19649.543
 20
59626.42
 30
0.0
 40
190.0
  0
CIRCLE
  5
140
100
AcDbEntity
  8
SOLDERMASK_PADS_BTM
100
AcDbCircle
 10
18749.539
 20
59626.42
 30
0.0
 40
190.0
  0
CIRCLE
  5
141
100
AcDbEntity
  8
SOLDERMASK_PADS_BTM
100
AcDbCircle
 10
17849.535
 20
59626.42
 30
0.0
 40
190.0
  0
CIRCLE
  5
142
100
AcDbEntity
  8
SOLDERMASK_PADS_BTM
100
AcDbCircle
 10
26950.806
 20
59610.769
 30
0.0
 40
190.0
  0
CIRCLE
  5
143
100
AcDbEntity
  8
SOLDERMASK_PADS_BTM
100
AcDbCircle
 10
26050.802
 20
59610.769
 30
0.0
 40
190.0
  0
CIRCLE
  5
144
100
AcDbEntity
  8
SOLDERMASK_PADS_BTM
100
AcDbCircle
 10
25150.798
 20
59610.769
 30
0.0
 40
190.0
  0
CIRCLE
  5
145
100
AcDbEntity
  8
SOLDERMASK_PADS_BTM
100
AcDbCircle
 10
24250.794
 20
59610.769
 30
0.0
 40
190.0
  0
CIRCLE
  5
146
100
AcDbEntity
  8
SOLDERMASK_PADS_BTM
100
AcDbCircle
 10
19961.393
 20
24103.244
 30
0.0
 40
190.0
  0
CIRCLE
  5
147
100
AcDbEntity
  8
SOLDERMASK_PADS_BTM
100
AcDbCircle
 10
19961.393
 20
23203.24
 30
0.0
 40
190.0
  0
CIRCLE
  5
148
100
AcDbEntity
  8
SOLDERMASK_PADS_BTM
100
AcDbCircle
 10
19961.393
 20
22303.236
 30
0.0
 40
190.0
  0
CIRCLE
  5
149
100
AcDbEntity
  8
SOLDERMASK_PADS_BTM
100
AcDbCircle
 10
19961.393
 20
21403.232
 30
0.0
 40
190.0
  0
CIRCLE
  5
14A
100
AcDbEntity
  8
SOLDERMASK_PADS_BTM
100
AcDbCircle
 10
19930.091
 20
30301.04
 30
0.0
 40
190.0
  0
CIRCLE
  5
14B
100
AcDbEntity
  8
SOLDERMASK_PADS_BTM
100
AcDbCircle
 10
19930.091
 20
29401.036
 30
0.0
 40
190.0
  0
CIRCLE
  5
14C
100
AcDbEntity
  8
SOLDERMASK_PADS_BTM
100
AcDbCircle
 10
19930.091
 20
28501.032
 30
0.0
 40
190.0
  0
CIRCLE
  5
14D
100
AcDbEntity
  8
SOLDERMASK_PADS_BTM
100
AcDbCircle
 10
19930.091
 20
27601.028
 30
0.0
 40
190.0
  0
CIRCLE
  5
14E
100
AcDbEntity
  8
SOLDERMASK_PADS_BTM
100
AcDbCircle
 10
19852.97
 20
36637.34
 30
0.0
 40
190.0
  0
CIRCLE
  5
14F
100
AcDbEntity
  8
SOLDERMASK_PADS_BTM
100
AcDbCircle
 10
19852.97
 20
35737.336
 30
0.0
 40
190.0
  0
CIRCLE
  5
150
100
AcDbEntity
  8
SOLDERMASK_PADS_BTM
100
AcDbCircle
 10
19852.97
 20
34837.332
 30
0.0
 40
190.0
  0
CIRCLE
  5
151
100
AcDbEntity
  8
SOLDERMASK_PADS_BTM
100
AcDbCircle
 10
19852.97
 20
33937.328
 30
0.0
 40
190.0
  0
CIRCLE
  5
152
100
AcDbEntity
  8
SOLDERMASK_PADS_BTM
100
AcDbCircle
 10
15685.0
 20
6460.0
 30
0.0
 40
190.0
  0
CIRCLE
  5
153
100
AcDbEntity
  8
SOLDERMASK_PADS_BTM
100
AcDbCircle
 10
10848.903
 20
17501.491
 30
0.0
 40
190.0
  0
CIRCLE
  5
154
100
AcDbEntity
  8
SOLDERMASK_PADS_BTM
100
AcDbCircle
 10
40158.509
 20
51557.34
 30
0.0
 40
190.0
  0
CIRCLE
  5
155
100
AcDbEntity
  8
SOLDERMASK_PADS_BTM
100
AcDbCircle
 10
19328.509
 20
8878.903
 30
0.0
 40
190.0
  0
CIRCLE
  5
156
100
AcDbEntity
  8
SOLDERMASK_PADS_BTM
100
AcDbCircle
 10
6428.509
 20
51199.839
 30
0.0
 40
190.0
  0
CIRCLE
  5
157
100
AcDbEntity
  8
SOLDERMASK_PADS_BTM
100
AcDbCircle
 10
27825.001
 20
10255.625
 30
0.0
 40
190.0
  0
CIRCLE
  5
158
100
AcDbEntity
  8
SOLDERMASK_PADS_BTM
100
AcDbCircle
 10
21536.119
 20
48724.212
 30
0.0
 40
190.0
  0
CIRCLE
  5
159
100
AcDbEntity
  8
SOLDERMASK_PADS_BTM
100
AcDbCircle
 10
21104.902
 20
19391.489
 30
0.0
 40
190.0
  0
CIRCLE
  5
15A
100
AcDbEntity
  8
SOLDERMASK_PADS_BTM
100
AcDbCircle
 10
29491.251
 20
60889.375
 30
0.0
 40
190.0
  0
CIRCLE
  5
15B
100
AcDbEntity
  8
SOLDERMASK_PADS_BTM
100
AcDbCircle
 10
34733.476
 20
52754.05
 30
0.0
 40
190.0
  0
CIRCLE
  5
15C
100
AcDbEntity
  8
SOLDERMASK_PADS_BTM
100
AcDbCircle
 10
30896.76
 20
52858.375
 30
0.0
 40
190.0
  0
CIRCLE
  5
15D
100
AcDbEntity
  8
SOLDERMASK_PADS_BTM
100
AcDbCircle
 10
32520.125
 20
51168.977
 30
0.0
 40
190.0
  0
CIRCLE
  5
15E
100
AcDbEntity
  8
SOLDERMASK_PADS_BTM
100
AcDbCircle
 10
31795.225
 20
49327.731
 30
0.0
 40
190.0
  0
CIRCLE
  5
15F
100
AcDbEntity
  8
SOLDERMASK_PADS_BTM
100
AcDbCircle
 10
42894.171
 20
36827.037
 30
0.0
 40
190.0
  0
CIRCLE
  5
160
100
AcDbEntity
  8
SOLDERMASK_PADS_BTM
100
AcDbCircle
 10
40301.868
 20
43286.117
 30
0.0
 40
190.0
  0
CIRCLE
  5
161
100
AcDbEntity
  8
SOLDERMASK_PADS_BTM
100
AcDbCircle
 10
38936.754
 20
31756.253
 30
0.0
 40
190.0
  0
CIRCLE
  5
162
100
AcDbEntity
  8
SOLDERMASK_PADS_BTM
100
AcDbCircle
 10
34333.126
 20
29970.294
 30
0.0
 40
190.0
  0
CIRCLE
  5
163
100
AcDbEntity
  8
SOLDERMASK_PADS_BTM
100
AcDbCircle
 10
26322.633
 20
24138.403
 30
0.0
 40
190.0
  0
CIRCLE
  5
164
100
AcDbEntity
  8
SOLDERMASK_PADS_BTM
100
AcDbCircle
 10
29922.082
 20
25780.014
 30
0.0
 40
190.0
  0
CIRCLE
  5
165
100
AcDbEntity
  8
SOLDERMASK_PADS_BTM
100
AcDbCircle
 10
38810.812
 20
24885.089
 30
0.0
 40
190.0
  0
CIRCLE
  5
166
100
AcDbEntity
  8
SOLDERMASK_PADS_BTM
100
AcDbCircle
 10
39436.852
 20
23789.519
 30
0.0
 40
190.0
  0
CIRCLE
  5
167
100
AcDbEntity
  8
SOLDERMASK_PADS_BTM
100
AcDbCircle
 10
41200.001
 20
23802.218
 30
0.0
 40
190.0
  0
CIRCLE
  5
168
100
AcDbEntity
  8
SOLDERMASK_PADS_BTM
100
AcDbCircle
 10
37501.416
 20
22925.942
 30
0.0
 40
190.0
  0
CIRCLE
  5
169
100
AcDbEntity
  8
SOLDERMASK_PADS_BTM
100
AcDbCircle
 10
36051.416
 20
22865.804
 30
0.0
 40
190.0
  0
CIRCLE
  5
16A
100
AcDbEntity
  8
SOLDERMASK_PADS_BTM
100
AcDbCircle
 10
33521.122
 20
25062.133
 30
0.0
 40
190.0
  0
CIRCLE
  5
16B
100
AcDbEntity
  8
SOLDERMASK_PADS_BTM
100
AcDbCircle
 10
37359.006
 20
25572.474
 30
0.0
 40
190.0
  0
CIRCLE
  5
16C
100
AcDbEntity
  8
SOLDERMASK_PADS_BTM
100
AcDbCircle
 10
38684.055
 20
27455.625
 30
0.0
 40
190.0
  0
CIRCLE
  5
16D
100
AcDbEntity
  8
SOLDERMASK_PADS_BTM
100
AcDbCircle
 10
39126.592
 20
29831.988
 30
0.0
 40
190.0
  0
CIRCLE
  5
16E
100
AcDbEntity
  8
SOLDERMASK_PADS_BTM
100
AcDbCircle
 10
40740.507
 20
38879.748
 30
0.0
 40
190.0
  0
CIRCLE
  5
16F
100
AcDbEntity
  8
SOLDERMASK_PADS_BTM
100
AcDbCircle
 10
38868.262
 20
34058.163
 30
0.0
 40
190.0
  0
CIRCLE
  5
170
100
AcDbEntity
  8
SOLDERMASK_PADS_BTM
100
AcDbCircle
 10
37718.958
 20
36102.855
 30
0.0
 40
190.0
  0
CIRCLE
  5
171
100
AcDbEntity
  8
SOLDERMASK_PADS_BTM
100
AcDbCircle
 10
39128.86
 20
37955.625
 30
0.0
 40
190.0
  0
CIRCLE
  5
172
100
AcDbEntity
  8
SOLDERMASK_PADS_BTM
100
AcDbCircle
 10
34091.285
 20
38015.595
 30
0.0
 40
190.0
  0
CIRCLE
  5
173
100
AcDbEntity
  8
SOLDERMASK_PADS_BTM
100
AcDbCircle
 10
32900.001
 20
38072.358
 30
0.0
 40
190.0
  0
CIRCLE
  5
174
100
AcDbEntity
  8
SOLDERMASK_PADS_BTM
100
AcDbCircle
 10
26643.232
 20
36299.155
 30
0.0
 40
190.0
  0
CIRCLE
  5
175
100
AcDbEntity
  8
SOLDERMASK_PADS_BTM
100
AcDbCircle
 10
30020.678
 20
33896.308
 30
0.0
 40
190.0
  0
CIRCLE
  5
176
100
AcDbEntity
  8
SOLDERMASK_PADS_BTM
100
AcDbCircle
 10
37028.509
 20
2778.903
 30
0.0
 40
190.0
  0
CIRCLE
  5
177
100
AcDbEntity
  8
SOLDERMASK_PADS_BTM
100
AcDbCircle
 10
7628.509
 20
39778.903
 30
0.0
 40
190.0
  0
CIRCLE
  5
178
100
AcDbEntity
  8
SOLDERMASK_PADS_BTM
100
AcDbCircle
 10
37852.756
 20
44102.044
 30
0.0
 40
190.0
  0
CIRCLE
  5
179
100
AcDbEntity
  8
SOLDERMASK_PADS_BTM
100
AcDbCircle
 10
37852.756
 20
43202.04
 30
0.0
 40
190.0
  0
CIRCLE
  5
17A
100
AcDbEntity
  8
SOLDERMASK_PADS_BTM
100
AcDbCircle
 10
37852.756
 20
42302.036
 30
0.0
 40
190.0
  0
CIRCLE
  5
17B
100
AcDbEntity
  8
SOLDERMASK_PADS_BTM
100
AcDbCircle
 10
38752.76
 20
44102.044
 30
0.0
 40
190.0
  0
CIRCLE
  5
17C
100
AcDbEntity
  8
SOLDERMASK_PADS_BTM
100
AcDbCircle
 10
38752.76
 20
43202.04
 30
0.0
 40
190.0
  0
CIRCLE
  5
17D
100
AcDbEntity
  8
SOLDERMASK_PADS_BTM
100
AcDbCircle
 10
38752.76
 20
42302.036
 30
0.0
 40
190.0
  0
CIRCLE
  5
17E
100
AcDbEntity
  8
SOLDERMASK_PADS_BTM
100
AcDbCircle
 10
10869.839
 20
18401.491
 30
0.0
 40
190.0
  0
CIRCLE
  5
17F
100
AcDbEntity
  8
SOLDERMASK_PADS_BTM
100
AcDbCircle
 10
39258.509
 20
51578.276
 30
0.0
 40
190.0
  0
CIRCLE
  5
180
100
AcDbEntity
  8
SOLDERMASK_PADS_BTM
100
AcDbCircle
 10
18428.509
 20
8899.839
 30
0.0
 40
190.0
  0
CIRCLE
  5
181
100
AcDbEntity
  8
SOLDERMASK_PADS_BTM
100
AcDbCircle
 10
7328.509
 20
51178.903
 30
0.0
 40
190.0
  0
CIRCLE
  5
182
100
AcDbEntity
  8
SOLDERMASK_PADS_BTM
100
AcDbCircle
 10
39465.489
 20
46355.625
 30
0.0
 40
190.0
  0
CIRCLE
  5
183
100
AcDbEntity
  8
SOLDERMASK_PADS_BTM
100
AcDbCircle
 10
41500.001
 20
42787.192
 30
0.0
 40
190.0
  0
CIRCLE
  5
184
100
AcDbEntity
  8
SOLDERMASK_PADS_BTM
100
AcDbCircle
 10
32173.477
 20
33874.608
 30
0.0
 40
190.0
  0
CIRCLE
  5
185
100
AcDbEntity
  8
SOLDERMASK_PADS_BTM
100
AcDbCircle
 10
27998.585
 20
33000.427
 30
0.0
 40
190.0
  0
CIRCLE
  5
186
100
AcDbEntity
  8
SOLDERMASK_PADS_BTM
100
AcDbCircle
 10
28052.589
 20
26783.122
 30
0.0
 40
190.0
  0
CIRCLE
  5
187
100
AcDbEntity
  8
SOLDERMASK_PADS_BTM
100
AcDbCircle
 10
23318.305
 20
20071.392
 30
0.0
 40
190.0
  0
CIRCLE
  5
188
100
AcDbEntity
  8
SOLDERMASK_PADS_BTM
100
AcDbCircle
 10
27325.001
 20
31389.363
 30
0.0
 40
190.0
  0
CIRCLE
  5
189
100
AcDbEntity
  8
SOLDERMASK_PADS_BTM
100
AcDbCircle
 10
22607.173
 20
37675.54
 30
0.0
 40
190.0
  0
CIRCLE
  5
18A
100
AcDbEntity
  8
SOLDERMASK_PADS_BTM
100
AcDbCircle
 10
22616.164
 20
39223.528
 30
0.0
 40
190.0
  0
CIRCLE
  5
18B
100
AcDbEntity
  8
SOLDERMASK_PADS_BTM
100
AcDbCircle
 10
21965.483
 20
46404.672
 30
0.0
 40
190.0
  0
CIRCLE
  5
18C
100
AcDbEntity
  8
SOLDERMASK_PADS_BTM
100
AcDbCircle
 10
28673.445
 20
41138.682
 30
0.0
 40
190.0
  0
CIRCLE
  5
18D
100
AcDbEntity
  8
SOLDERMASK_PADS_BTM
100
AcDbCircle
 10
28552.832
 20
38082.389
 30
0.0
 40
190.0
  0
CIRCLE
  5
18E
100
AcDbEntity
  8
SOLDERMASK_PADS_BTM
100
AcDbCircle
 10
39240.365
 20
30731.988
 30
0.0
 40
190.0
  0
CIRCLE
  5
18F
100
AcDbEntity
  8
SOLDERMASK_PADS_BTM
100
AcDbCircle
 10
17705.613
 20
31999.728
 30
0.0
 40
190.0
  0
CIRCLE
  5
190
100
AcDbEntity
  8
SOLDERMASK_PADS_BTM
100
AcDbCircle
 10
23381.994
 20
29629.614
 30
0.0
 40
190.0
  0
CIRCLE
  5
191
100
AcDbEntity
  8
SOLDERMASK_PADS_BTM
100
AcDbCircle
 10
42000.0
 20
3000.0
 30
0.0
 40
2000.0
  0
CIRCLE
  5
192
100
AcDbEntity
  8
SOLDERMASK_PADS_BTM
100
AcDbCircle
 10
42000.0
 20
69000.0
 30
0.0
 40
2000.0
  0
CIRCLE
  5
193
100
AcDbEntity
  8
SOLDERMASK_PADS_BTM
100
AcDbCircle
 10
8400.0
 20
11300.0
 30
0.0
 40
975.0
  0
CIRCLE
  5
194
100
AcDbEntity
  8
SOLDERMASK_PADS_BTM
100
AcDbCircle
 10
8400.0
 20
14800.0
 30
0.0
 40
975.0
  0
CIRCLE
  5
195
100
AcDbEntity
  8
SOLDERMASK_PADS_BTM
100
AcDbCircle
 10
8400.0
 20
18300.0
 30
0.0
 40
975.0
  0
CIRCLE
  5
196
100
AcDbEntity
  8
SOLDERMASK_PADS_BTM
100
AcDbCircle
 10
8400.0
 20
21800.0
 30
0.0
 40
975.0
  0
CIRCLE
  5
197
100
AcDbEntity
  8
SOLDERMASK_PADS_BTM
100
AcDbCircle
 10
8400.0
 20
25300.0
 30
0.0
 40
975.0
  0
CIRCLE
  5
198
100
AcDbEntity
  8
SOLDERMASK_PADS_BTM
100
AcDbCircle
 10
8400.0
 20
28800.0
 30
0.0
 40
975.0
  0
CIRCLE
  5
199
100
AcDbEntity
  8
SOLDERMASK_PADS_BTM
100
AcDbCircle
 10
4750.0
 20
11300.0
 30
0.0
 40
975.0
  0
CIRCLE
  5
19A
100
AcDbEntity
  8
SOLDERMASK_PADS_BTM
100
AcDbCircle
 10
4750.0
 20
14800.0
 30
0.0
 40
975.0
  0
CIRCLE
  5
19B
100
AcDbEntity
  8
SOLDERMASK_PADS_BTM
100
AcDbCircle
 10
4750.0
 20
18300.0
 30
0.0
 40
975.0
  0
CIRCLE
  5
19C
100
AcDbEntity
  8
SOLDERMASK_PADS_BTM
100
AcDbCircle
 10
4750.0
 20
21800.0
 30
0.0
 40
975.0
  0
CIRCLE
  5
19D
100
AcDbEntity
  8
SOLDERMASK_PADS_BTM
100
AcDbCircle
 10
4750.0
 20
25300.0
 30
0.0
 40
975.0
  0
CIRCLE
  5
19E
100
AcDbEntity
  8
SOLDERMASK_PADS_BTM
100
AcDbCircle
 10
4750.0
 20
28800.0
 30
0.0
 40
975.0
  0
CIRCLE
  5
19F
100
AcDbEntity
  8
SOLDERMASK_PADS_BTM
100
AcDbCircle
 10
20380.0
 20
63600.0
 30
0.0
 40
900.0
  0
CIRCLE
  5
1A0
100
AcDbEntity
  8
SOLDERMASK_PADS_BTM
100
AcDbCircle
 10
23880.0
 20
63600.0
 30
0.0
 40
900.0
  0
CIRCLE
  5
1A1
100
AcDbEntity
  8
SOLDERMASK_PADS_BTM
100
AcDbCircle
 10
3000.0
 20
3000.0
 30
0.0
 40
2000.0
  0
CIRCLE
  5
1A2
100
AcDbEntity
  8
SOLDERMASK_PADS_BTM
100
AcDbCircle
 10
3000.0
 20
69000.0
 30
0.0
 40
2000.0
  0
CIRCLE
  5
1A3
100
AcDbEntity
  8
SOLDERMASK_PADS_TOP
100
AcDbCircle
 10
8300.0
 20
3800.0
 30
0.0
 40
800.0
  0
LWPOLYLINE
  5
1A4
100
AcDbEntity
  8
SOLDERMASK_PADS_TOP
100
AcDbPolyline
 90
        4
 70
         1
 10
41500.0
 20
63300.0
 10
41500.0
 20
64900.0
 10
43100.0
 20
64900.0
 10
43100.0
 20
63300.0
  0
CIRCLE
  5
1A5
100
AcDbEntity
  8
SOLDERMASK_PADS_TOP
100
AcDbCircle
 10
36128.509
 20
2799.839
 30
0.0
 40
190.0
  0
CIRCLE
  5
1A6
100
AcDbEntity
  8
SOLDERMASK_PADS_TOP
100
AcDbCircle
 10
18685.0
 20
5570.0
 30
0.0
 40
190.0
  0
CIRCLE
  5
1A7
100
AcDbEntity
  8
SOLDERMASK_PADS_TOP
100
AcDbCircle
 10
11375.0
 20
10660.0
 30
0.0
 40
190.0
  0
CIRCLE
  5
1A8
100
AcDbEntity
  8
SOLDERMASK_PADS_TOP
100
AcDbCircle
 10
13545.626
 20
8601.563
 30
0.0
 40
190.0
  0
CIRCLE
  5
1A9
100
AcDbEntity
  8
SOLDERMASK_PADS_TOP
100
AcDbCircle
 10
21985.0
 20
5580.0
 30
0.0
 40
190.0
  0
CIRCLE
  5
1AA
100
AcDbEntity
  8
SOLDERMASK_PADS_TOP
100
AcDbCircle
 10
25385.0
 20
5690.0
 30
0.0
 40
190.0
  0
CIRCLE
  5
1AB
100
AcDbEntity
  8
SOLDERMASK_PADS_TOP
100
AcDbCircle
 10
31842.166
 20
38084.766
 30
0.0
 40
190.0
  0
CIRCLE
  5
1AC
100
AcDbEntity
  8
SOLDERMASK_PADS_TOP
100
AcDbCircle
 10
24096.847
 20
31555.461
 30
0.0
 40
190.0
  0
CIRCLE
  5
1AD
100
AcDbEntity
  8
SOLDERMASK_PADS_TOP
100
AcDbCircle
 10
26450.001
 20
25683.422
 30
0.0
 40
190.0
  0
CIRCLE
  5
1AE
100
AcDbEntity
  8
SOLDERMASK_PADS_TOP
100
AcDbCircle
 10
21834.319
 20
38634.92
 30
0.0
 40
190.0
  0
CIRCLE
  5
1AF
100
AcDbEntity
  8
SOLDERMASK_PADS_TOP
100
AcDbCircle
 10
10115.416
 20
58568.126
 30
0.0
 40
190.0
  0
CIRCLE
  5
1B0
100
AcDbEntity
  8
SOLDERMASK_PADS_TOP
100
AcDbCircle
 10
9215.412
 20
58568.126
 30
0.0
 40
190.0
  0
CIRCLE
  5
1B1
100
AcDbEntity
  8
SOLDERMASK_PADS_TOP
100
AcDbCircle
 10
8315.408
 20
58568.126
 30
0.0
 40
190.0
  0
CIRCLE
  5
1B2
100
AcDbEntity
  8
SOLDERMASK_PADS_TOP
100
AcDbCircle
 10
7415.404
 20
58568.126
 30
0.0
 40
190.0
  0
CIRCLE
  5
1B3
100
AcDbEntity
  8
SOLDERMASK_PADS_TOP
100
AcDbCircle
 10
6728.509
 20
39799.839
 30
0.0
 40
190.0
  0
CIRCLE
  5
1B4
100
AcDbEntity
  8
SOLDERMASK_PADS_TOP
100
AcDbCircle
 10
20549.547
 20
59626.42
 30
0.0
 40
190.0
  0
CIRCLE
  5
1B5
100
AcDbEntity
  8
SOLDERMASK_PADS_TOP
100
AcDbCircle
 10
19649.543
 20
59626.42
 30
0.0
 40
190.0
  0
CIRCLE
  5
1B6
100
AcDbEntity
  8
SOLDERMASK_PADS_TOP
100
AcDbCircle
 10
18749.539
 20
59626.42
 30
0.0
 40
190.0
  0
CIRCLE
  5
1B7
100
AcDbEntity
  8
SOLDERMASK_PADS_TOP
100
AcDbCircle
 10
17849.535
 20
59626.42
 30
0.0
 40
190.0
  0
CIRCLE
  5
1B8
100
AcDbEntity
  8
SOLDERMASK_PADS_TOP
100
AcDbCircle
 10
26950.806
 20
59610.769
 30
0.0
 40
190.0
  0
CIRCLE
  5
1B9
100
AcDbEntity
  8
SOLDERMASK_PADS_TOP
100
AcDbCircle
 10
26050.802
 20
59610.769
 30
0.0
 40
190.0
  0
CIRCLE
  5
1BA
100
AcDbEntity
  8
SOLDERMASK_PADS_TOP
100
AcDbCircle
 10
25150.798
 20
59610.769
 30
0.0
 40
190.0
  0
CIRCLE
  5
1BB
100
AcDbEntity
  8
SOLDERMASK_PADS_TOP
100
AcDbCircle
 10
24250.794
 20
59610.769
 30
0.0
 40
190.0
  0
CIRCLE
  5
1BC
100
AcDbEntity
  8
SOLDERMASK_PADS_TOP
100
AcDbCircle
 10
19961.393
 20
24103.244
 30
0.0
 40
190.0
  0
CIRCLE
  5
1BD
100
AcDbEntity
  8
SOLDERMASK_PADS_TOP
100
AcDbCircle
 10
19961.393
 20
23203.24
 30
0.0
 40
190.0
  0
CIRCLE
  5
1BE
100
AcDbEntity
  8
SOLDERMASK_PADS_TOP
100
AcDbCircle
 10
19961.393
 20
22303.236
 30
0.0
 40
190.0
  0
CIRCLE
  5
1BF
100
AcDbEntity
  8
SOLDERMASK_PADS_TOP
100
AcDbCircle
 10
19961.393
 20
21403.232
 30
0.0
 40
190.0
  0
CIRCLE
  5
1C0
100
AcDbEntity
  8
SOLDERMASK_PADS_TOP
100
AcDbCircle
 10
19930.091
 20
30301.04
 30
0.0
 40
190.0
  0
CIRCLE
  5
1C1
100
AcDbEntity
  8
SOLDERMASK_PADS_TOP
100
AcDbCircle
 10
19930.091
 20
29401.036
 30
0.0
 40
190.0
  0
CIRCLE
  5
1C2
100
AcDbEntity
  8
SOLDERMASK_PADS_TOP
100
AcDbCircle
 10
19930.091
 20
28501.032
 30
0.0
 40
190.0
  0
CIRCLE
  5
1C3
100
AcDbEntity
  8
SOLDERMASK_PADS_TOP
100
AcDbCircle
 10
19930.091
 20
27601.028
 30
0.0
 40
190.0
  0
CIRCLE
  5
1C4
100
AcDbEntity
  8
SOLDERMASK_PADS_TOP
100
AcDbCircle
 10
19852.97
 20
36637.34
 30
0.0
 40
190.0
  0
CIRCLE
  5
1C5
100
AcDbEntity
  8
SOLDERMASK_PADS_TOP
100
AcDbCircle
 10
19852.97
 20
35737.336
 30
0.0
 40
190.0
  0
CIRCLE
  5
1C6
100
AcDbEntity
  8
SOLDERMASK_PADS_TOP
100
AcDbCircle
 10
19852.97
 20
34837.332
 30
0.0
 40
190.0
  0
CIRCLE
  5
1C7
100
AcDbEntity
  8
SOLDERMASK_PADS_TOP
100
AcDbCircle
 10
19852.97
 20
33937.328
 30
0.0
 40
190.0
  0
CIRCLE
  5
1C8
100
AcDbEntity
  8
SOLDERMASK_PADS_TOP
100
AcDbCircle
 10
15685.0
 20
6460.0
 30
0.0
 40
190.0
  0
CIRCLE
  5
1C9
100
AcDbEntity
  8
SOLDERMASK_PADS_TOP
100
AcDbCircle
 10
10848.903
 20
17501.491
 30
0.0
 40
190.0
  0
CIRCLE
  5
1CA
100
AcDbEntity
  8
SOLDERMASK_PADS_TOP
100
AcDbCircle
 10
40158.509
 20
51557.34
 30
0.0
 40
190.0
  0
CIRCLE
  5
1CB
100
AcDbEntity
  8
SOLDERMASK_PADS_TOP
100
AcDbCircle
 10
19328.509
 20
8878.903
 30
0.0
 40
190.0
  0
CIRCLE
  5
1CC
100
AcDbEntity
  8
SOLDERMASK_PADS_TOP
100
AcDbCircle
 10
6428.509
 20
51199.839
 30
0.0
 40
190.0
  0
CIRCLE
  5
1CD
100
AcDbEntity
  8
SOLDERMASK_PADS_TOP
100
AcDbCircle
 10
27825.001
 20
10255.625
 30
0.0
 40
190.0
  0
CIRCLE
  5
1CE
100
AcDbEntity
  8
SOLDERMASK_PADS_TOP
100
AcDbCircle
 10
21536.119
 20
48724.212
 30
0.0
 40
190.0
  0
CIRCLE
  5
1CF
100
AcDbEntity
  8
SOLDERMASK_PADS_TOP
100
AcDbCircle
 10
21104.902
 20
19391.489
 30
0.0
 40
190.0
  0
CIRCLE
  5
1D0
100
AcDbEntity
  8
SOLDERMASK_PADS_TOP
100
AcDbCircle
 10
29491.251
 20
60889.375
 30
0.0
 40
190.0
  0
CIRCLE
  5
1D1
100
AcDbEntity
  8
SOLDERMASK_PADS_TOP
100
AcDbCircle
 10
34733.476
 20
52754.05
 30
0.0
 40
190.0
  0
CIRCLE
  5
1D2
100
AcDbEntity
  8
SOLDERMASK_PADS_TOP
100
AcDbCircle
 10
30896.76
 20
52858.375
 30
0.0
 40
190.0
  0
CIRCLE
  5
1D3
100
AcDbEntity
  8
SOLDERMASK_PADS_TOP
100
AcDbCircle
 10
32520.125
 20
51168.977
 30
0.0
 40
190.0
  0
CIRCLE
  5
1D4
100
AcDbEntity
  8
SOLDERMASK_PADS_TOP
100
AcDbCircle
 10
31795.225
 20
49327.731
 30
0.0
 40
190.0
  0
CIRCLE
  5
1D5
100
AcDbEntity
  8
SOLDERMASK_PADS_TOP
100
AcDbCircle
 10
42894.171
 20
36827.037
 30
0.0
 40
190.0
  0
CIRCLE
  5
1D6
100
AcDbEntity
  8
SOLDERMASK_PADS_TOP
100
AcDbCircle
 10
40301.868
 20
43286.117
 30
0.0
 40
190.0
  0
CIRCLE
  5
1D7
100
AcDbEntity
  8
SOLDERMASK_PADS_TOP
100
AcDbCircle
 10
38936.754
 20
31756.253
 30
0.0
 40
190.0
  0
CIRCLE
  5
1D8
100
AcDbEntity
  8
SOLDERMASK_PADS_TOP
100
AcDbCircle
 10
34333.126
 20
29970.294
 30
0.0
 40
190.0
  0
CIRCLE
  5
1D9
100
AcDbEntity
  8
SOLDERMASK_PADS_TOP
100
AcDbCircle
 10
26322.633
 20
24138.403
 30
0.0
 40
190.0
  0
CIRCLE
  5
1DA
100
AcDbEntity
  8
SOLDERMASK_PADS_TOP
100
AcDbCircle
 10
29922.082
 20
25780.014
 30
0.0
 40
190.0
  0
CIRCLE
  5
1DB
100
AcDbEntity
  8
SOLDERMASK_PADS_TOP
100
AcDbCircle
 10
38810.812
 20
24885.089
 30
0.0
 40
190.0
  0
CIRCLE
  5
1DC
100
AcDbEntity
  8
SOLDERMASK_PADS_TOP
100
AcDbCircle
 10
39436.852
 20
23789.519
 30
0.0
 40
190.0
  0
CIRCLE
  5
1DD
100
AcDbEntity
  8
SOLDERMASK_PADS_TOP
100
AcDbCircle
 10
41200.001
 20
23802.218
 30
0.0
 40
190.0
  0
CIRCLE
  5
1DE
100
AcDbEntity
  8
SOLDERMASK_PADS_TOP
100
AcDbCircle
 10
37501.416
 20
22925.942
 30
0.0
 40
190.0
  0
CIRCLE
  5
1DF
100
AcDbEntity
  8
SOLDERMASK_PADS_TOP
100
AcDbCircle
 10
36051.416
 20
22865.804
 30
0.0
 40
190.0
  0
CIRCLE
  5
1E0
100
AcDbEntity
  8
SOLDERMASK_PADS_TOP
100
AcDbCircle
 10
33521.122
 20
25062.133
 30
0.0
 40
190.0
  0
CIRCLE
  5
1E1
100
AcDbEntity
  8
SOLDERMASK_PADS_TOP
100
AcDbCircle
 10
37359.006
 20
25572.474
 30
0.0
 40
190.0
  0
CIRCLE
  5
1E2
100
AcDbEntity
  8
SOLDERMASK_PADS_TOP
100
AcDbCircle
 10
38684.055
 20
27455.625
 30
0.0
 40
190.0
  0
CIRCLE
  5
1E3
100
AcDbEntity
  8
SOLDERMASK_PADS_TOP
100
AcDbCircle
 10
39126.592
 20
29831.988
 30
0.0
 40
190.0
  0
CIRCLE
  5
1E4
100
AcDbEntity
  8
SOLDERMASK_PADS_TOP
100
AcDbCircle
 10
40740.507
 20
38879.748
 30
0.0
 40
190.0
  0
CIRCLE
  5
1E5
100
AcDbEntity
  8
SOLDERMASK_PADS_TOP
100
AcDbCircle
 10
38868.262
 20
34058.163
 30
0.0
 40
190.0
  0
CIRCLE
  5
1E6
100
AcDbEntity
  8
SOLDERMASK_PADS_TOP
100
AcDbCircle
 10
37718.958
 20
36102.855
 30
0.0
 40
190.0
  0
CIRCLE
  5
1E7
100
AcDbEntity
  8
SOLDERMASK_PADS_TOP
100
AcDbCircle
 10
39128.86
 20
37955.625
 30
0.0
 40
190.0
  0
CIRCLE
  5
1E8
100
AcDbEntity
  8
SOLDERMASK_PADS_TOP
100
AcDbCircle
 10
34091.285
 20
38015.595
 30
0.0
 40
190.0
  0
CIRCLE
  5
1E9
100
AcDbEntity
  8
SOLDERMASK_PADS_TOP
100
AcDbCircle
 10
32900.001
 20
38072.358
 30
0.0
 40
190.0
  0
CIRCLE
  5
1EA
100
AcDbEntity
  8
SOLDERMASK_PADS_TOP
100
AcDbCircle
 10
26643.232
 20
36299.155
 30
0.0
 40
190.0
  0
CIRCLE
  5
1EB
100
AcDbEntity
  8
SOLDERMASK_PADS_TOP
100
AcDbCircle
 10
30020.678
 20
33896.308
 30
0.0
 40
190.0
  0
CIRCLE
  5
1EC
100
AcDbEntity
  8
SOLDERMASK_PADS_TOP
100
AcDbCircle
 10
37028.509
 20
2778.903
 30
0.0
 40
190.0
  0
CIRCLE
  5
1ED
100
AcDbEntity
  8
SOLDERMASK_PADS_TOP
100
AcDbCircle
 10
7628.509
 20
39778.903
 30
0.0
 40
190.0
  0
CIRCLE
  5
1EE
100
AcDbEntity
  8
SOLDERMASK_PADS_TOP
100
AcDbCircle
 10
37852.756
 20
44102.044
 30
0.0
 40
190.0
  0
CIRCLE
  5
1EF
100
AcDbEntity
  8
SOLDERMASK_PADS_TOP
100
AcDbCircle
 10
37852.756
 20
43202.04
 30
0.0
 40
190.0
  0
CIRCLE
  5
1F0
100
AcDbEntity
  8
SOLDERMASK_PADS_TOP
100
AcDbCircle
 10
37852.756
 20
42302.036
 30
0.0
 40
190.0
  0
CIRCLE
  5
1F1
100
AcDbEntity
  8
SOLDERMASK_PADS_TOP
100
AcDbCircle
 10
38752.76
 20
44102.044
 30
0.0
 40
190.0
  0
CIRCLE
  5
1F2
100
AcDbEntity
  8
SOLDERMASK_PADS_TOP
100
AcDbCircle
 10
38752.76
 20
43202.04
 30
0.0
 40
190.0
  0
CIRCLE
  5
1F3
100
AcDbEntity
  8
SOLDERMASK_PADS_TOP
100
AcDbCircle
 10
38752.76
 20
42302.036
 30
0.0
 40
190.0
  0
CIRCLE
  5
1F4
100
AcDbEntity
  8
SOLDERMASK_PADS_TOP
100
AcDbCircle
 10
10869.839
 20
18401.491
 30
0.0
 40
190.0
  0
CIRCLE
  5
1F5
100
AcDbEntity
  8
SOLDERMASK_PADS_TOP
100
AcDbCircle
 10
39258.509
 20
51578.276
 30
0.0
 40
190.0
  0
CIRCLE
  5
1F6
100
AcDbEntity
  8
SOLDERMASK_PADS_TOP
100
AcDbCircle
 10
18428.509
 20
8899.839
 30
0.0
 40
190.0
  0
CIRCLE
  5
1F7
100
AcDbEntity
  8
SOLDERMASK_PADS_TOP
100
AcDbCircle
 10
7328.509
 20
51178.903
 30
0.0
 40
190.0
  0
CIRCLE
  5
1F8
100
AcDbEntity
  8
SOLDERMASK_PADS_TOP
100
AcDbCircle
 10
39465.489
 20
46355.625
 30
0.0
 40
190.0
  0
CIRCLE
  5
1F9
100
AcDbEntity
  8
SOLDERMASK_PADS_TOP
100
AcDbCircle
 10
41500.001
 20
42787.192
 30
0.0
 40
190.0
  0
CIRCLE
  5
1FA
100
AcDbEntity
  8
SOLDERMASK_PADS_TOP
100
AcDbCircle
 10
32173.477
 20
33874.608
 30
0.0
 40
190.0
  0
CIRCLE
  5
1FB
100
AcDbEntity
  8
SOLDERMASK_PADS_TOP
100
AcDbCircle
 10
27998.585
 20
33000.427
 30
0.0
 40
190.0
  0
CIRCLE
  5
1FC
100
AcDbEntity
  8
SOLDERMASK_PADS_TOP
100
AcDbCircle
 10
28052.589
 20
26783.122
 30
0.0
 40
190.0
  0
CIRCLE
  5
1FD
100
AcDbEntity
  8
SOLDERMASK_PADS_TOP
100
AcDbCircle
 10
23318.305
 20
20071.392
 30
0.0
 40
190.0
  0
CIRCLE
  5
1FE
100
AcDbEntity
  8
SOLDERMASK_PADS_TOP
100
AcDbCircle
 10
27325.001
 20
31389.363
 30
0.0
 40
190.0
  0
CIRCLE
  5
1FF
100
AcDbEntity
  8
SOLDERMASK_PADS_TOP
100
AcDbCircle
 10
22607.173
 20
37675.54
 30
0.0
 40
190.0
  0
CIRCLE
  5
200
100
AcDbEntity
  8
SOLDERMASK_PADS_TOP
100
AcDbCircle
 10
22616.164
 20
39223.528
 30
0.0
 40
190.0
  0
CIRCLE
  5
201
100
AcDbEntity
  8
SOLDERMASK_PADS_TOP
100
AcDbCircle
 10
21965.483
 20
46404.672
 30
0.0
 40
190.0
  0
CIRCLE
  5
202
100
AcDbEntity
  8
SOLDERMASK_PADS_TOP
100
AcDbCircle
 10
28673.445
 20
41138.682
 30
0.0
 40
190.0
  0
CIRCLE
  5
203
100
AcDbEntity
  8
SOLDERMASK_PADS_TOP
100
AcDbCircle
 10
28552.832
 20
38082.389
 30
0.0
 40
190.0
  0
CIRCLE
  5
204
100
AcDbEntity
  8
SOLDERMASK_PADS_TOP
100
AcDbCircle
 10
39240.365
 20
30731.988
 30
0.0
 40
190.0
  0
CIRCLE
  5
205
100
AcDbEntity
  8
SOLDERMASK_PADS_TOP
100
AcDbCircle
 10
17705.613
 20
31999.728
 30
0.0
 40
190.0
  0
CIRCLE
  5
206
100
AcDbEntity
  8
SOLDERMASK_PADS_TOP
100
AcDbCircle
 10
23381.994
 20
29629.614
 30
0.0
 40
190.0
  0
LWPOLYLINE
  5
207
100
AcDbEntity
  8
SOLDERMASK_PADS_TOP
100
AcDbPolyline
 90
        4
 70
         1
 10
36020.0
 20
3330.0
 10
36020.0
 20
3830.0
 10
36420.0
 20
3830.0
 10
36420.0
 20
3330.0
  0
LWPOLYLINE
  5
208
100
AcDbEntity
  8
SOLDERMASK_PADS_TOP
100
AcDbPolyline
 90
        4
 70
         1
 10
36820.0
 20
3330.0
 10
36820.0
 20
3830.0
 10
37220.0
 20
3830.0
 10
37220.0
 20
3330.0
  0
LWPOLYLINE
  5
209
100
AcDbEntity
  8
SOLDERMASK_PADS_TOP
100
AcDbPolyline
 90
        4
 70
         1
 10
19210.0
 20
5370.0
 10
19210.0
 20
5770.0
 10
19710.0
 20
5770.0
 10
19710.0
 20
5370.0
  0
LWPOLYLINE
  5
20A
100
AcDbEntity
  8
SOLDERMASK_PADS_TOP
100
AcDbPolyline
 90
        4
 70
         1
 10
19210.0
 20
4570.0
 10
19210.0
 20
4970.0
 10
19710.0
 20
4970.0
 10
19710.0
 20
4570.0
  0
LWPOLYLINE
  5
20B
100
AcDbEntity
  8
SOLDERMASK_PADS_TOP
100
AcDbPolyline
 90
        4
 70
         1
 10
11900.0
 20
10460.0
 10
11900.0
 20
10860.0
 10
12400.0
 20
10860.0
 10
12400.0
 20
10460.0
  0
LWPOLYLINE
  5
20C
100
AcDbEntity
  8
SOLDERMASK_PADS_TOP
100
AcDbPolyline
 90
        4
 70
         1
 10
11900.0
 20
9660.0
 10
11900.0
 20
10060.0
 10
12400.0
 20
10060.0
 10
12400.0
 20
9660.0
  0
LWPOLYLINE
  5
20D
100
AcDbEntity
  8
SOLDERMASK_PADS_TOP
100
AcDbPolyline
 90
        4
 70
         1
 10
14070.626
 20
8401.563
 10
14070.626
 20
8801.563
 10
14570.626
 20
8801.563
 10
14570.626
 20
8401.563
  0
LWPOLYLINE
  5
20E
100
AcDbEntity
  8
SOLDERMASK_PADS_TOP
100
AcDbPolyline
 90
        4
 70
         1
 10
14070.626
 20
7601.563
 10
14070.626
 20
8001.563
 10
14570.626
 20
8001.563
 10
14570.626
 20
7601.563
  0
LWPOLYLINE
  5
20F
100
AcDbEntity
  8
SOLDERMASK_PADS_TOP
100
AcDbPolyline
 90
        4
 70
         1
 10
22510.0
 20
5380.0
 10
22510.0
 20
5780.0
 10
23010.0
 20
5780.0
 10
23010.0
 20
5380.0
  0
LWPOLYLINE
  5
210
100
AcDbEntity
  8
SOLDERMASK_PADS_TOP
100
AcDbPolyline
 90
        4
 70
         1
 10
22510.0
 20
4580.0
 10
22510.0
 20
4980.0
 10
23010.0
 20
4980.0
 10
23010.0
 20
4580.0
  0
LWPOLYLINE
  5
211
100
AcDbEntity
  8
SOLDERMASK_PADS_TOP
100
AcDbPolyline
 90
        4
 70
         1
 10
25910.0
 20
5490.0
 10
25910.0
 20
5890.0
 10
26410.0
 20
5890.0
 10
26410.0
 20
5490.0
  0
LWPOLYLINE
  5
212
100
AcDbEntity
  8
SOLDERMASK_PADS_TOP
100
AcDbPolyline
 90
        4
 70
         1
 10
25910.0
 20
4690.0
 10
25910.0
 20
5090.0
 10
26410.0
 20
5090.0
 10
26410.0
 20
4690.0
  0
LWPOLYLINE
  5
213
100
AcDbEntity
  8
SOLDERMASK_PADS_TOP
100
AcDbPolyline
 90
        4
 70
         1
 10
24925.004
 20
29355.625
 10
24925.004
 20
30205.625
 10
26175.004
 20
30205.625
 10
26175.004
 20
29355.625
  0
LWPOLYLINE
  5
214
100
AcDbEntity
  8
SOLDERMASK_PADS_TOP
100
AcDbPolyline
 90
        4
 70
         1
 10
24925.004
 20
30905.625
 10
24925.004
 20
31755.625
 10
26175.004
 20
31755.625
 10
26175.004
 20
30905.625
  0
LWPOLYLINE
  5
215
100
AcDbEntity
  8
SOLDERMASK_PADS_TOP
100
AcDbPolyline
 90
        4
 70
         1
 10
23950.001
 20
29655.625
 10
23950.001
 20
30055.625
 10
24450.001
 20
30055.625
 10
24450.001
 20
29655.625
  0
LWPOLYLINE
  5
216
100
AcDbEntity
  8
SOLDERMASK_PADS_TOP
100
AcDbPolyline
 90
        4
 70
         1
 10
23950.001
 20
30455.625
 10
23950.001
 20
30855.625
 10
24450.001
 20
30855.625
 10
24450.001
 20
30455.625
  0
LWPOLYLINE
  5
217
100
AcDbEntity
  8
SOLDERMASK_PADS_TOP
100
AcDbPolyline
 90
        4
 70
         1
 10
22894.375
 20
30400.001
 10
22894.375
 20
30800.001
 10
23394.375
 20
30800.001
 10
23394.375
 20
30400.001
  0
LWPOLYLINE
  5
218
100
AcDbEntity
  8
SOLDERMASK_PADS_TOP
100
AcDbPolyline
 90
        4
 70
         1
 10
22894.375
 20
31200.001
 10
22894.375
 20
31600.001
 10
23394.375
 20
31600.001
 10
23394.375
 20
31200.001
  0
LWPOLYLINE
  5
219
100
AcDbEntity
  8
SOLDERMASK_PADS_TOP
100
AcDbPolyline
 90
        4
 70
         1
 10
25125.004
 20
28025.625
 10
25125.004
 20
28875.625
 10
26375.004
 20
28875.625
 10
26375.004
 20
28025.625
  0
LWPOLYLINE
  5
21A
100
AcDbEntity
  8
SOLDERMASK_PADS_TOP
100
AcDbPolyline
 90
        4
 70
         1
 10
25125.004
 20
26475.625
 10
25125.004
 20
27325.625
 10
26375.004
 20
27325.625
 10
26375.004
 20
26475.625
  0
LWPOLYLINE
  5
21B
100
AcDbEntity
  8
SOLDERMASK_PADS_TOP
100
AcDbPolyline
 90
        4
 70
         1
 10
26950.001
 20
26455.625
 10
26950.001
 20
26855.625
 10
27450.001
 20
26855.625
 10
27450.001
 20
26455.625
  0
LWPOLYLINE
  5
21C
100
AcDbEntity
  8
SOLDERMASK_PADS_TOP
100
AcDbPolyline
 90
        4
 70
         1
 10
26950.001
 20
27255.625
 10
26950.001
 20
27655.625
 10
27450.001
 20
27655.625
 10
27450.001
 20
27255.625
  0
LWPOLYLINE
  5
21D
100
AcDbEntity
  8
SOLDERMASK_PADS_TOP
100
AcDbPolyline
 90
        4
 70
         1
 10
8710.0
 20
64520.0
 10
8710.0
 20
65620.0
 10
12210.0
 20
65620.0
 10
12210.0
 20
64520.0
  0
LWPOLYLINE
  5
21E
100
AcDbEntity
  8
SOLDERMASK_PADS_TOP
100
AcDbPolyline
 90
        4
 70
         1
 10
8710.0
 20
59920.0
 10
8710.0
 20
61020.0
 10
12210.0
 20
61020.0
 10
12210.0
 20
59920.0
  0
LWPOLYLINE
  5
21F
100
AcDbEntity
  8
SOLDERMASK_PADS_TOP
100
AcDbPolyline
 90
        4
 70
         1
 10
5510.0
 20
60030.0
 10
5510.0
 20
61030.0
 10
8010.0
 20
61030.0
 10
8010.0
 20
60030.0
  0
LWPOLYLINE
  5
220
100
AcDbEntity
  8
SOLDERMASK_PADS_TOP
100
AcDbPolyline
 90
        4
 70
         1
 10
5510.0
 20
64730.0
 10
5510.0
 20
65730.0
 10
8010.0
 20
65730.0
 10
8010.0
 20
64730.0
  0
LWPOLYLINE
  5
221
100
AcDbEntity
  8
SOLDERMASK_PADS_TOP
100
AcDbPolyline
 90
        4
 70
         1
 10
6620.0
 20
40330.0
 10
6620.0
 20
40830.0
 10
7020.0
 20
40830.0
 10
7020.0
 20
40330.0
  0
LWPOLYLINE
  5
222
100
AcDbEntity
  8
SOLDERMASK_PADS_TOP
100
AcDbPolyline
 90
        4
 70
         1
 10
7420.0
 20
40330.0
 10
7420.0
 20
40830.0
 10
7820.0
 20
40830.0
 10
7820.0
 20
40330.0
  0
LWPOLYLINE
  5
223
100
AcDbEntity
  8
SOLDERMASK_PADS_TOP
100
AcDbPolyline
 90
        4
 70
         1
 10
39950.0
 20
52108.437
 10
39950.0
 20
52608.437
 10
40350.0
 20
52608.437
 10
40350.0
 20
52108.437
  0
LWPOLYLINE
  5
224
100
AcDbEntity
  8
SOLDERMASK_PADS_TOP
100
AcDbPolyline
 90
        4
 70
         1
 10
39150.0
 20
52108.437
 10
39150.0
 20
52608.437
 10
39550.0
 20
52608.437
 10
39550.0
 20
52108.437
  0
LWPOLYLINE
  5
225
100
AcDbEntity
  8
SOLDERMASK_PADS_TOP
100
AcDbPolyline
 90
        4
 70
         1
 10
19120.0
 20
9430.0
 10
19120.0
 20
9930.0
 10
19520.0
 20
9930.0
 10
19520.0
 20
9430.0
  0
LWPOLYLINE
  5
226
100
AcDbEntity
  8
SOLDERMASK_PADS_TOP
100
AcDbPolyline
 90
        4
 70
         1
 10
18320.0
 20
9430.0
 10
18320.0
 20
9930.0
 10
18720.0
 20
9930.0
 10
18720.0
 20
9430.0
  0
LWPOLYLINE
  5
227
100
AcDbEntity
  8
SOLDERMASK_PADS_TOP
100
AcDbPolyline
 90
        4
 70
         1
 10
6320.0
 20
51730.0
 10
6320.0
 20
52230.0
 10
6720.0
 20
52230.0
 10
6720.0
 20
51730.0
  0
LWPOLYLINE
  5
228
100
AcDbEntity
  8
SOLDERMASK_PADS_TOP
100
AcDbPolyline
 90
        4
 70
         1
 10
7120.0
 20
51730.0
 10
7120.0
 20
52230.0
 10
7520.0
 20
52230.0
 10
7520.0
 20
51730.0
  0
CIRCLE
  5
229
100
AcDbEntity
  8
SOLDERMASK_PADS_TOP
100
AcDbCircle
 10
42000.0
 20
3000.0
 30
0.0
 40
2000.0
  0
CIRCLE
  5
22A
100
AcDbEntity
  8
SOLDERMASK_PADS_TOP
100
AcDbCircle
 10
42000.0
 20
69000.0
 30
0.0
 40
2000.0
  0
LWPOLYLINE
  5
22B
100
AcDbEntity
  8
SOLDERMASK_PADS_TOP
100
AcDbPolyline
 90
        4
 70
         1
 10
34452.187
 20
62025.0
 10
34452.187
 20
65825.0
 10
38652.187
 20
65825.0
 10
38652.187
 20
62025.0
  0
LWPOLYLINE
  5
22C
100
AcDbEntity
  8
SOLDERMASK_PADS_TOP
100
AcDbPolyline
 90
        4
 70
         1
 10
28152.187
 20
62025.0
 10
28152.187
 20
65825.0
 10
32352.187
 20
65825.0
 10
32352.187
 20
62025.0
  0
LWPOLYLINE
  5
22D
100
AcDbEntity
  8
SOLDERMASK_PADS_TOP
100
AcDbPolyline
 90
        4
 70
         1
 10
37325.001
 20
33405.625
 10
37325.001
 20
34905.625
 10
38125.001
 20
34905.625
 10
38125.001
 20
33405.625
  0
LWPOLYLINE
  5
22E
100
AcDbEntity
  8
SOLDERMASK_PADS_TOP
100
AcDbPolyline
 90
        4
 70
         1
 10
34675.001
 20
33405.625
 10
34675.001
 20
34905.625
 10
35475.001
 20
34905.625
 10
35475.001
 20
33405.625
  0
LWPOLYLINE
  5
22F
100
AcDbEntity
  8
SOLDERMASK_PADS_TOP
100
AcDbPolyline
 90
        4
 70
         1
 10
28860.001
 20
5810.625
 10
28860.001
 20
7060.625
 10
29710.001
 20
7060.625
 10
29710.001
 20
5810.625
  0
LWPOLYLINE
  5
230
100
AcDbEntity
  8
SOLDERMASK_PADS_TOP
100
AcDbPolyline
 90
        4
 70
         1
 10
30410.001
 20
5810.625
 10
30410.001
 20
7060.625
 10
31260.001
 20
7060.625
 10
31260.001
 20
5810.625
  0
LWPOLYLINE
  5
231
100
AcDbEntity
  8
SOLDERMASK_PADS_TOP
100
AcDbPolyline
 90
        4
 70
         1
 10
35950.001
 20
24930.625
 10
35950.001
 20
26180.625
 10
36800.001
 20
26180.625
 10
36800.001
 20
24930.625
  0
LWPOLYLINE
  5
232
100
AcDbEntity
  8
SOLDERMASK_PADS_TOP
100
AcDbPolyline
 90
        4
 70
         1
 10
34400.001
 20
24930.625
 10
34400.001
 20
26180.625
 10
35250.001
 20
26180.625
 10
35250.001
 20
24930.625
  0
LWPOLYLINE
  5
233
100
AcDbEntity
  8
SOLDERMASK_PADS_TOP
100
AcDbPolyline
 90
        4
 70
         1
 10
41375.001
 20
38555.625
 10
41375.001
 20
39405.625
 10
42625.001
 20
39405.625
 10
42625.001
 20
38555.625
  0
LWPOLYLINE
  5
234
100
AcDbEntity
  8
SOLDERMASK_PADS_TOP
100
AcDbPolyline
 90
        4
 70
         1
 10
41375.001
 20
40105.625
 10
41375.001
 20
40955.625
 10
42625.001
 20
40955.625
 10
42625.001
 20
40105.625
  0
LWPOLYLINE
  5
235
100
AcDbEntity
  8
SOLDERMASK_PADS_TOP
100
AcDbPolyline
 90
        4
 70
         1
 10
37325.001
 20
26705.625
 10
37325.001
 20
28205.625
 10
38125.001
 20
28205.625
 10
38125.001
 20
26705.625
  0
LWPOLYLINE
  5
236
100
AcDbEntity
  8
SOLDERMASK_PADS_TOP
100
AcDbPolyline
 90
        4
 70
         1
 10
34675.001
 20
26705.625
 10
34675.001
 20
28205.625
 10
35475.001
 20
28205.625
 10
35475.001
 20
26705.625
  0
LWPOLYLINE
  5
237
100
AcDbEntity
  8
SOLDERMASK_PADS_TOP
100
AcDbPolyline
 90
        4
 70
         1
 10
22950.001
 20
35505.625
 10
22950.001
 20
36305.625
 10
24450.001
 20
36305.625
 10
24450.001
 20
35505.625
  0
LWPOLYLINE
  5
238
100
AcDbEntity
  8
SOLDERMASK_PADS_TOP
100
AcDbPolyline
 90
        4
 70
         1
 10
22950.001
 20
32205.625
 10
22950.001
 20
33005.625
 10
24450.001
 20
33005.625
 10
24450.001
 20
32205.625
  0
LWPOLYLINE
  5
239
100
AcDbEntity
  8
SOLDERMASK_PADS_TOP
100
AcDbPolyline
 90
        4
 70
         1
 10
32750.001
 20
23455.625
 10
32750.001
 20
24455.625
 10
35250.001
 20
24455.625
 10
35250.001
 20
23455.625
  0
LWPOLYLINE
  5
23A
100
AcDbEntity
  8
SOLDERMASK_PADS_TOP
100
AcDbPolyline
 90
        4
 70
         1
 10
32750.001
 20
20855.625
 10
32750.001
 20
21855.625
 10
35250.001
 20
21855.625
 10
35250.001
 20
20855.625
  0
LWPOLYLINE
  5
23B
100
AcDbEntity
  8
SOLDERMASK_PADS_TOP
100
AcDbPolyline
 90
        4
 70
         1
 10
41750.001
 20
43830.625
 10
41750.001
 20
45080.625
 10
42600.001
 20
45080.625
 10
42600.001
 20
43830.625
  0
LWPOLYLINE
  5
23C
100
AcDbEntity
  8
SOLDERMASK_PADS_TOP
100
AcDbPolyline
 90
        4
 70
         1
 10
40200.001
 20
43830.625
 10
40200.001
 20
45080.625
 10
41050.001
 20
45080.625
 10
41050.001
 20
43830.625
  0
LWPOLYLINE
  5
23D
100
AcDbEntity
  8
SOLDERMASK_PADS_TOP
100
AcDbPolyline
 90
        4
 70
         1
 10
41475.001
 20
28355.625
 10
41475.001
 20
29205.625
 10
42725.001
 20
29205.625
 10
42725.001
 20
28355.625
  0
LWPOLYLINE
  5
23E
100
AcDbEntity
  8
SOLDERMASK_PADS_TOP
100
AcDbPolyline
 90
        4
 70
         1
 10
41475.001
 20
29905.625
 10
41475.001
 20
30755.625
 10
42725.001
 20
30755.625
 10
42725.001
 20
29905.625
  0
LWPOLYLINE
  5
23F
100
AcDbEntity
  8
SOLDERMASK_PADS_TOP
100
AcDbPolyline
 90
        4
 70
         1
 10
20500.001
 20
20055.624
 10
20500.001
 20
25155.624
 10
21900.001
 20
25155.624
 10
21900.001
 20
20055.624
  0
LWPOLYLINE
  5
240
100
AcDbEntity
  8
SOLDERMASK_PADS_TOP
100
AcDbPolyline
 90
        4
 70
         1
 10
14700.001
 20
20055.624
 10
14700.001
 20
25155.624
 10
16100.001
 20
25155.624
 10
16100.001
 20
20055.624
  0
LWPOLYLINE
  5
241
100
AcDbEntity
  8
SOLDERMASK_PADS_TOP
100
AcDbPolyline
 90
        4
 70
         1
 10
21075.001
 20
44985.625
 10
21075.001
 20
45735.625
 10
22375.001
 20
45735.625
 10
22375.001
 20
44985.625
  0
LWPOLYLINE
  5
242
100
AcDbEntity
  8
SOLDERMASK_PADS_TOP
100
AcDbPolyline
 90
        4
 70
         1
 10
21075.001
 20
41175.625
 10
21075.001
 20
41925.625
 10
22375.001
 20
41925.625
 10
22375.001
 20
41175.625
  0
LWPOLYLINE
  5
243
100
AcDbEntity
  8
SOLDERMASK_PADS_TOP
100
AcDbPolyline
 90
        4
 70
         1
 10
21075.001
 20
43715.625
 10
21075.001
 20
44465.625
 10
22375.001
 20
44465.625
 10
22375.001
 20
43715.625
  0
LWPOLYLINE
  5
244
100
AcDbEntity
  8
SOLDERMASK_PADS_TOP
100
AcDbPolyline
 90
        4
 70
         1
 10
21075.001
 20
42445.625
 10
21075.001
 20
43195.625
 10
22375.001
 20
43195.625
 10
22375.001
 20
42445.625
  0
LWPOLYLINE
  5
245
100
AcDbEntity
  8
SOLDERMASK_PADS_TOP
100
AcDbPolyline
 90
        4
 70
         1
 10
15425.001
 20
43715.625
 10
15425.001
 20
44465.625
 10
16725.001
 20
44465.625
 10
16725.001
 20
43715.625
  0
LWPOLYLINE
  5
246
100
AcDbEntity
  8
SOLDERMASK_PADS_TOP
100
AcDbPolyline
 90
        4
 70
         1
 10
15425.001
 20
41175.625
 10
15425.001
 20
41925.625
 10
16725.001
 20
41925.625
 10
16725.001
 20
41175.625
  0
LWPOLYLINE
  5
247
100
AcDbEntity
  8
SOLDERMASK_PADS_TOP
100
AcDbPolyline
 90
        4
 70
         1
 10
15425.001
 20
44985.625
 10
15425.001
 20
45735.625
 10
16725.001
 20
45735.625
 10
16725.001
 20
44985.625
  0
LWPOLYLINE
  5
248
100
AcDbEntity
  8
SOLDERMASK_PADS_TOP
100
AcDbPolyline
 90
        4
 70
         1
 10
15425.001
 20
42445.625
 10
15425.001
 20
43195.625
 10
16725.001
 20
43195.625
 10
16725.001
 20
42445.625
  0
LWPOLYLINE
  5
249
100
AcDbEntity
  8
SOLDERMASK_PADS_TOP
100
AcDbPolyline
 90
        4
 70
         1
 10
15825.003
 20
41094.58
 10
15825.003
 20
45894.58
 10
20525.003
 20
45894.58
 10
20525.003
 20
41094.58
  0
LWPOLYLINE
  5
24A
100
AcDbEntity
  8
SOLDERMASK_PADS_TOP
100
AcDbPolyline
 90
        4
 70
         1
 10
29150.001
 20
23980.625
 10
29150.001
 20
24780.625
 10
30650.001
 20
24780.625
 10
30650.001
 20
23980.625
  0
LWPOLYLINE
  5
24B
100
AcDbEntity
  8
SOLDERMASK_PADS_TOP
100
AcDbPolyline
 90
        4
 70
         1
 10
29150.001
 20
21330.625
 10
29150.001
 20
22130.625
 10
30650.001
 20
22130.625
 10
30650.001
 20
21330.625
  0
LWPOLYLINE
  5
24C
100
AcDbEntity
  8
SOLDERMASK_PADS_TOP
100
AcDbPolyline
 90
        4
 70
         1
 10
31491.251
 20
52108.375
 10
31491.251
 20
53608.375
 10
33891.251
 20
53608.375
 10
33891.251
 20
52108.375
  0
LWPOLYLINE
  5
24D
100
AcDbEntity
  8
SOLDERMASK_PADS_TOP
100
AcDbPolyline
 90
        4
 70
         1
 10
31491.251
 20
56714.375
 10
31491.251
 20
58214.375
 10
33891.251
 20
58214.375
 10
33891.251
 20
56714.375
  0
LWPOLYLINE
  5
24E
100
AcDbEntity
  8
SOLDERMASK_PADS_TOP
100
AcDbPolyline
 90
        4
 70
         1
 10
29200.001
 20
11255.625
 10
29200.001
 20
16455.625
 10
31800.001
 20
16455.625
 10
31800.001
 20
11255.625
  0
LWPOLYLINE
  5
24F
100
AcDbEntity
  8
SOLDERMASK_PADS_TOP
100
AcDbPolyline
 90
        4
 70
         1
 10
39360.001
 20
11255.625
 10
39360.001
 20
16455.625
 10
41960.001
 20
16455.625
 10
41960.001
 20
11255.625
  0
LWPOLYLINE
  5
250
100
AcDbEntity
  8
SOLDERMASK_PADS_TOP
100
AcDbPolyline
 90
        4
 70
         1
 10
29450.001
 20
34430.625
 10
29450.001
 20
35230.625
 10
30950.001
 20
35230.625
 10
30950.001
 20
34430.625
  0
LWPOLYLINE
  5
251
100
AcDbEntity
  8
SOLDERMASK_PADS_TOP
100
AcDbPolyline
 90
        4
 70
         1
 10
29450.001
 20
37080.625
 10
29450.001
 20
37880.625
 10
30950.001
 20
37880.625
 10
30950.001
 20
37080.625
  0
LWPOLYLINE
  5
252
100
AcDbEntity
  8
SOLDERMASK_PADS_TOP
100
AcDbPolyline
 90
        4
 70
         1
 10
39775.001
 20
27455.625
 10
39775.001
 20
28305.625
 10
41025.001
 20
28305.625
 10
41025.001
 20
27455.625
  0
LWPOLYLINE
  5
253
100
AcDbEntity
  8
SOLDERMASK_PADS_TOP
100
AcDbPolyline
 90
        4
 70
         1
 10
39775.001
 20
29005.625
 10
39775.001
 20
29855.625
 10
41025.001
 20
29855.625
 10
41025.001
 20
29005.625
  0
LWPOLYLINE
  5
254
100
AcDbEntity
  8
SOLDERMASK_PADS_TOP
100
AcDbPolyline
 90
        4
 70
         1
 10
41750.001
 20
35855.625
 10
41750.001
 20
36255.625
 10
42250.001
 20
36255.625
 10
42250.001
 20
35855.625
  0
LWPOLYLINE
  5
255
100
AcDbEntity
  8
SOLDERMASK_PADS_TOP
100
AcDbPolyline
 90
        4
 70
         1
 10
41750.001
 20
36655.625
 10
41750.001
 20
37055.625
 10
42250.001
 20
37055.625
 10
42250.001
 20
36655.625
  0
LWPOLYLINE
  5
256
100
AcDbEntity
  8
SOLDERMASK_PADS_TOP
100
AcDbPolyline
 90
        4
 70
         1
 10
38875.001
 20
22405.625
 10
38875.001
 20
23255.625
 10
40125.001
 20
23255.625
 10
40125.001
 20
22405.625
  0
LWPOLYLINE
  5
257
100
AcDbEntity
  8
SOLDERMASK_PADS_TOP
100
AcDbPolyline
 90
        4
 70
         1
 10
38875.001
 20
20855.625
 10
38875.001
 20
21705.625
 10
40125.001
 20
21705.625
 10
40125.001
 20
20855.625
  0
LWPOLYLINE
  5
258
100
AcDbEntity
  8
SOLDERMASK_PADS_TOP
100
AcDbPolyline
 90
        4
 70
         1
 10
24900.001
 20
9630.625
 10
24900.001
 20
10880.625
 10
25750.001
 20
10880.625
 10
25750.001
 20
9630.625
  0
LWPOLYLINE
  5
259
100
AcDbEntity
  8
SOLDERMASK_PADS_TOP
100
AcDbPolyline
 90
        4
 70
         1
 10
26450.001
 20
9630.625
 10
26450.001
 20
10880.625
 10
27300.001
 20
10880.625
 10
27300.001
 20
9630.625
  0
LWPOLYLINE
  5
25A
100
AcDbEntity
  8
SOLDERMASK_PADS_TOP
100
AcDbPolyline
 90
        4
 70
         1
 10
25845.626
 20
20660.0
 10
25845.626
 20
21510.0
 10
27095.626
 20
21510.0
 10
27095.626
 20
20660.0
  0
LWPOLYLINE
  5
25B
100
AcDbEntity
  8
SOLDERMASK_PADS_TOP
100
AcDbPolyline
 90
        4
 70
         1
 10
25845.626
 20
22210.0
 10
25845.626
 20
23060.0
 10
27095.626
 20
23060.0
 10
27095.626
 20
22210.0
  0
LWPOLYLINE
  5
25C
100
AcDbEntity
  8
SOLDERMASK_PADS_TOP
100
AcDbPolyline
 90
        4
 70
         1
 10
28866.251
 20
59514.375
 10
28866.251
 20
60364.375
 10
30116.251
 20
60364.375
 10
30116.251
 20
59514.375
  0
LWPOLYLINE
  5
25D
100
AcDbEntity
  8
SOLDERMASK_PADS_TOP
100
AcDbPolyline
 90
        4
 70
         1
 10
28866.251
 20
57964.375
 10
28866.251
 20
58814.375
 10
30116.251
 20
58814.375
 10
30116.251
 20
57964.375
  0
LWPOLYLINE
  5
25E
100
AcDbEntity
  8
SOLDERMASK_PADS_TOP
100
AcDbPolyline
 90
        4
 70
         1
 10
41300.001
 20
41705.625
 10
41300.001
 20
42205.625
 10
41700.001
 20
42205.625
 10
41700.001
 20
41705.625
  0
LWPOLYLINE
  5
25F
100
AcDbEntity
  8
SOLDERMASK_PADS_TOP
100
AcDbPolyline
 90
        4
 70
         1
 10
42100.001
 20
41705.625
 10
42100.001
 20
42205.625
 10
42500.001
 20
42205.625
 10
42500.001
 20
41705.625
  0
LWPOLYLINE
  5
260
100
AcDbEntity
  8
SOLDERMASK_PADS_TOP
100
AcDbPolyline
 90
        4
 70
         1
 10
27330.001
 20
40280.625
 10
27330.001
 20
41580.625
 10
28080.001
 20
41580.625
 10
28080.001
 20
40280.625
  0
LWPOLYLINE
  5
261
100
AcDbEntity
  8
SOLDERMASK_PADS_TOP
100
AcDbPolyline
 90
        4
 70
         1
 10
24790.001
 20
45930.625
 10
24790.001
 20
47230.625
 10
25540.001
 20
47230.625
 10
25540.001
 20
45930.625
  0
LWPOLYLINE
  5
262
100
AcDbEntity
  8
SOLDERMASK_PADS_TOP
100
AcDbPolyline
 90
        4
 70
         1
 10
26060.001
 20
45930.625
 10
26060.001
 20
47230.625
 10
26810.001
 20
47230.625
 10
26810.001
 20
45930.625
  0
LWPOLYLINE
  5
263
100
AcDbEntity
  8
SOLDERMASK_PADS_TOP
100
AcDbPolyline
 90
        4
 70
         1
 10
23520.001
 20
45930.625
 10
23520.001
 20
47230.625
 10
24270.001
 20
47230.625
 10
24270.001
 20
45930.625
  0
LWPOLYLINE
  5
264
100
AcDbEntity
  8
SOLDERMASK_PADS_TOP
100
AcDbPolyline
 90
        4
 70
         1
 10
27330.001
 20
45930.625
 10
27330.001
 20
47230.625
 10
28080.001
 20
47230.625
 10
28080.001
 20
45930.625
  0
LWPOLYLINE
  5
265
100
AcDbEntity
  8
SOLDERMASK_PADS_TOP
100
AcDbPolyline
 90
        4
 70
         1
 10
23438.956
 20
42130.623
 10
23438.956
 20
46830.623
 10
28238.956
 20
46830.623
 10
28238.956
 20
42130.623
  0
LWPOLYLINE
  5
266
100
AcDbEntity
  8
SOLDERMASK_PADS_TOP
100
AcDbPolyline
 90
        4
 70
         1
 10
24790.001
 20
40280.625
 10
24790.001
 20
41580.625
 10
25540.001
 20
41580.625
 10
25540.001
 20
40280.625
  0
LWPOLYLINE
  5
267
100
AcDbEntity
  8
SOLDERMASK_PADS_TOP
100
AcDbPolyline
 90
        4
 70
         1
 10
26060.001
 20
40280.625
 10
26060.001
 20
41580.625
 10
26810.001
 20
41580.625
 10
26810.001
 20
40280.625
  0
LWPOLYLINE
  5
268
100
AcDbEntity
  8
SOLDERMASK_PADS_TOP
100
AcDbPolyline
 90
        4
 70
         1
 10
23520.001
 20
40280.625
 10
23520.001
 20
41580.625
 10
24270.001
 20
41580.625
 10
24270.001
 20
40280.625
  0
LWPOLYLINE
  5
269
100
AcDbEntity
  8
SOLDERMASK_PADS_TOP
100
AcDbPolyline
 90
        4
 70
         1
 10
16641.251
 20
57064.375
 10
16641.251
 20
58464.375
 10
21741.251
 20
58464.375
 10
21741.251
 20
57064.375
  0
LWPOLYLINE
  5
26A
100
AcDbEntity
  8
SOLDERMASK_PADS_TOP
100
AcDbPolyline
 90
        4
 70
         1
 10
16641.251
 20
51264.375
 10
16641.251
 20
52664.375
 10
21741.251
 20
52664.375
 10
21741.251
 20
51264.375
  0
LWPOLYLINE
  5
26B
100
AcDbEntity
  8
SOLDERMASK_PADS_TOP
100
AcDbPolyline
 90
        4
 70
         1
 10
41500.001
 20
31405.625
 10
41500.001
 20
31905.625
 10
41900.001
 20
31905.625
 10
41900.001
 20
31405.625
  0
LWPOLYLINE
  5
26C
100
AcDbEntity
  8
SOLDERMASK_PADS_TOP
100
AcDbPolyline
 90
        4
 70
         1
 10
42300.001
 20
31405.625
 10
42300.001
 20
31905.625
 10
42700.001
 20
31905.625
 10
42700.001
 20
31405.625
  0
LWPOLYLINE
  5
26D
100
AcDbEntity
  8
SOLDERMASK_PADS_TOP
100
AcDbPolyline
 90
        4
 70
         1
 10
28700.001
 20
26905.625
 10
28700.001
 20
27505.625
 10
29000.001
 20
27505.625
 10
29000.001
 20
26905.625
  0
LWPOLYLINE
  5
26E
100
AcDbEntity
  8
SOLDERMASK_PADS_TOP
100
AcDbPolyline
 90
        4
 70
         1
 10
29200.001
 20
26905.625
 10
29200.001
 20
27505.625
 10
29500.001
 20
27505.625
 10
29500.001
 20
26905.625
  0
LWPOLYLINE
  5
26F
100
AcDbEntity
  8
SOLDERMASK_PADS_TOP
100
AcDbPolyline
 90
        4
 70
         1
 10
30700.001
 20
26905.625
 10
30700.001
 20
27505.625
 10
31000.001
 20
27505.625
 10
31000.001
 20
26905.625
  0
LWPOLYLINE
  5
270
100
AcDbEntity
  8
SOLDERMASK_PADS_TOP
100
AcDbPolyline
 90
        4
 70
         1
 10
31200.001
 20
26905.625
 10
31200.001
 20
27505.625
 10
31500.001
 20
27505.625
 10
31500.001
 20
26905.625
  0
LWPOLYLINE
  5
271
100
AcDbEntity
  8
SOLDERMASK_PADS_TOP
100
AcDbPolyline
 90
        4
 70
         1
 10
31700.001
 20
26905.625
 10
31700.001
 20
27505.625
 10
32000.001
 20
27505.625
 10
32000.001
 20
26905.625
  0
LWPOLYLINE
  5
272
100
AcDbEntity
  8
SOLDERMASK_PADS_TOP
100
AcDbPolyline
 90
        4
 70
         1
 10
32200.001
 20
26905.625
 10
32200.001
 20
27505.625
 10
32500.001
 20
27505.625
 10
32500.001
 20
26905.625
  0
LWPOLYLINE
  5
273
100
AcDbEntity
  8
SOLDERMASK_PADS_TOP
100
AcDbPolyline
 90
        4
 70
         1
 10
32750.001
 20
27755.625
 10
32750.001
 20
28055.625
 10
33350.001
 20
28055.625
 10
33350.001
 20
27755.625
  0
LWPOLYLINE
  5
274
100
AcDbEntity
  8
SOLDERMASK_PADS_TOP
100
AcDbPolyline
 90
        4
 70
         1
 10
32750.001
 20
28255.625
 10
32750.001
 20
28555.625
 10
33350.001
 20
28555.625
 10
33350.001
 20
28255.625
  0
LWPOLYLINE
  5
275
100
AcDbEntity
  8
SOLDERMASK_PADS_TOP
100
AcDbPolyline
 90
        4
 70
         1
 10
32750.001
 20
28755.625
 10
32750.001
 20
29055.625
 10
33350.001
 20
29055.625
 10
33350.001
 20
28755.625
  0
LWPOLYLINE
  5
276
100
AcDbEntity
  8
SOLDERMASK_PADS_TOP
100
AcDbPolyline
 90
        4
 70
         1
 10
32750.001
 20
29755.625
 10
32750.001
 20
30055.625
 10
33350.001
 20
30055.625
 10
33350.001
 20
29755.625
  0
LWPOLYLINE
  5
277
100
AcDbEntity
  8
SOLDERMASK_PADS_TOP
100
AcDbPolyline
 90
        4
 70
         1
 10
32750.001
 20
30255.625
 10
32750.001
 20
30555.625
 10
33350.001
 20
30555.625
 10
33350.001
 20
30255.625
  0
LWPOLYLINE
  5
278
100
AcDbEntity
  8
SOLDERMASK_PADS_TOP
100
AcDbPolyline
 90
        4
 70
         1
 10
32750.001
 20
30755.625
 10
32750.001
 20
31055.625
 10
33350.001
 20
31055.625
 10
33350.001
 20
30755.625
  0
LWPOLYLINE
  5
279
100
AcDbEntity
  8
SOLDERMASK_PADS_TOP
100
AcDbPolyline
 90
        4
 70
         1
 10
32750.001
 20
31255.625
 10
32750.001
 20
31555.625
 10
33350.001
 20
31555.625
 10
33350.001
 20
31255.625
  0
LWPOLYLINE
  5
27A
100
AcDbEntity
  8
SOLDERMASK_PADS_TOP
100
AcDbPolyline
 90
        4
 70
         1
 10
32200.001
 20
31805.625
 10
32200.001
 20
32405.625
 10
32500.001
 20
32405.625
 10
32500.001
 20
31805.625
  0
LWPOLYLINE
  5
27B
100
AcDbEntity
  8
SOLDERMASK_PADS_TOP
100
AcDbPolyline
 90
        4
 70
         1
 10
31700.001
 20
31805.625
 10
31700.001
 20
32405.625
 10
32000.001
 20
32405.625
 10
32000.001
 20
31805.625
  0
LWPOLYLINE
  5
27C
100
AcDbEntity
  8
SOLDERMASK_PADS_TOP
100
AcDbPolyline
 90
        4
 70
         1
 10
31200.001
 20
31805.625
 10
31200.001
 20
32405.625
 10
31500.001
 20
32405.625
 10
31500.001
 20
31805.625
  0
LWPOLYLINE
  5
27D
100
AcDbEntity
  8
SOLDERMASK_PADS_TOP
100
AcDbPolyline
 90
        4
 70
         1
 10
30700.001
 20
31805.625
 10
30700.001
 20
32405.625
 10
31000.001
 20
32405.625
 10
31000.001
 20
31805.625
  0
LWPOLYLINE
  5
27E
100
AcDbEntity
  8
SOLDERMASK_PADS_TOP
100
AcDbPolyline
 90
        4
 70
         1
 10
29200.001
 20
31805.625
 10
29200.001
 20
32405.625
 10
29500.001
 20
32405.625
 10
29500.001
 20
31805.625
  0
LWPOLYLINE
  5
27F
100
AcDbEntity
  8
SOLDERMASK_PADS_TOP
100
AcDbPolyline
 90
        4
 70
         1
 10
28700.001
 20
31805.625
 10
28700.001
 20
32405.625
 10
29000.001
 20
32405.625
 10
29000.001
 20
31805.625
  0
LWPOLYLINE
  5
280
100
AcDbEntity
  8
SOLDERMASK_PADS_TOP
100
AcDbPolyline
 90
        4
 70
         1
 10
27850.001
 20
31255.625
 10
27850.001
 20
31555.625
 10
28450.001
 20
31555.625
 10
28450.001
 20
31255.625
  0
LWPOLYLINE
  5
281
100
AcDbEntity
  8
SOLDERMASK_PADS_TOP
100
AcDbPolyline
 90
        4
 70
         1
 10
27850.001
 20
30755.625
 10
27850.001
 20
31055.625
 10
28450.001
 20
31055.625
 10
28450.001
 20
30755.625
  0
LWPOLYLINE
  5
282
100
AcDbEntity
  8
SOLDERMASK_PADS_TOP
100
AcDbPolyline
 90
        4
 70
         1
 10
27850.001
 20
30255.625
 10
27850.001
 20
30555.625
 10
28450.001
 20
30555.625
 10
28450.001
 20
30255.625
  0
LWPOLYLINE
  5
283
100
AcDbEntity
  8
SOLDERMASK_PADS_TOP
100
AcDbPolyline
 90
        4
 70
         1
 10
27850.001
 20
29755.625
 10
27850.001
 20
30055.625
 10
28450.001
 20
30055.625
 10
28450.001
 20
29755.625
  0
LWPOLYLINE
  5
284
100
AcDbEntity
  8
SOLDERMASK_PADS_TOP
100
AcDbPolyline
 90
        4
 70
         1
 10
27850.001
 20
29255.625
 10
27850.001
 20
29555.625
 10
28450.001
 20
29555.625
 10
28450.001
 20
29255.625
  0
LWPOLYLINE
  5
285
100
AcDbEntity
  8
SOLDERMASK_PADS_TOP
100
AcDbPolyline
 90
        4
 70
         1
 10
27850.001
 20
28755.625
 10
27850.001
 20
29055.625
 10
28450.001
 20
29055.625
 10
28450.001
 20
28755.625
  0
LWPOLYLINE
  5
286
100
AcDbEntity
  8
SOLDERMASK_PADS_TOP
100
AcDbPolyline
 90
        4
 70
         1
 10
27850.001
 20
28255.625
 10
27850.001
 20
28555.625
 10
28450.001
 20
28555.625
 10
28450.001
 20
28255.625
  0
LWPOLYLINE
  5
287
100
AcDbEntity
  8
SOLDERMASK_PADS_TOP
100
AcDbPolyline
 90
        4
 70
         1
 10
27850.001
 20
27755.625
 10
27850.001
 20
28055.625
 10
28450.001
 20
28055.625
 10
28450.001
 20
27755.625
  0
LWPOLYLINE
  5
288
100
AcDbEntity
  8
SOLDERMASK_PADS_TOP
100
AcDbPolyline
 90
        4
 70
         1
 10
29700.001
 20
26905.625
 10
29700.001
 20
27505.625
 10
30000.001
 20
27505.625
 10
30000.001
 20
26905.625
  0
LWPOLYLINE
  5
289
100
AcDbEntity
  8
SOLDERMASK_PADS_TOP
100
AcDbPolyline
 90
        4
 70
         1
 10
29050.001
 20
28105.625
 10
29050.001
 20
31205.625
 10
32150.001
 20
31205.625
 10
32150.001
 20
28105.625
  0
LWPOLYLINE
  5
28A
100
AcDbEntity
  8
SOLDERMASK_PADS_TOP
100
AcDbPolyline
 90
        4
 70
         1
 10
32750.001
 20
29255.625
 10
32750.001
 20
29555.625
 10
33350.001
 20
29555.625
 10
33350.001
 20
29255.625
  0
LWPOLYLINE
  5
28B
100
AcDbEntity
  8
SOLDERMASK_PADS_TOP
100
AcDbPolyline
 90
        4
 70
         1
 10
30200.001
 20
31805.625
 10
30200.001
 20
32405.625
 10
30500.001
 20
32405.625
 10
30500.001
 20
31805.625
  0
LWPOLYLINE
  5
28C
100
AcDbEntity
  8
SOLDERMASK_PADS_TOP
100
AcDbPolyline
 90
        4
 70
         1
 10
30200.001
 20
26905.625
 10
30200.001
 20
27505.625
 10
30500.001
 20
27505.625
 10
30500.001
 20
26905.625
  0
LWPOLYLINE
  5
28D
100
AcDbEntity
  8
SOLDERMASK_PADS_TOP
100
AcDbPolyline
 90
        4
 70
         1
 10
29700.001
 20
31805.625
 10
29700.001
 20
32405.625
 10
30000.001
 20
32405.625
 10
30000.001
 20
31805.625
  0
LWPOLYLINE
  5
28E
100
AcDbEntity
  8
SOLDERMASK_PADS_TOP
100
AcDbPolyline
 90
        4
 70
         1
 10
23620.001
 20
18330.625
 10
23620.001
 20
19630.625
 10
24370.001
 20
19630.625
 10
24370.001
 20
18330.625
  0
LWPOLYLINE
  5
28F
100
AcDbEntity
  8
SOLDERMASK_PADS_TOP
100
AcDbPolyline
 90
        4
 70
         1
 10
23461.046
 20
13080.627
 10
23461.046
 20
17780.627
 10
28261.046
 20
17780.627
 10
28261.046
 20
13080.627
  0
LWPOLYLINE
  5
290
100
AcDbEntity
  8
SOLDERMASK_PADS_TOP
100
AcDbPolyline
 90
        4
 70
         1
 10
26160.001
 20
12680.625
 10
26160.001
 20
13980.625
 10
26910.001
 20
13980.625
 10
26910.001
 20
12680.625
  0
LWPOLYLINE
  5
291
100
AcDbEntity
  8
SOLDERMASK_PADS_TOP
100
AcDbPolyline
 90
        4
 70
         1
 10
27430.001
 20
12680.625
 10
27430.001
 20
13980.625
 10
28180.001
 20
13980.625
 10
28180.001
 20
12680.625
  0
LWPOLYLINE
  5
292
100
AcDbEntity
  8
SOLDERMASK_PADS_TOP
100
AcDbPolyline
 90
        4
 70
         1
 10
24890.001
 20
12680.625
 10
24890.001
 20
13980.625
 10
25640.001
 20
13980.625
 10
25640.001
 20
12680.625
  0
LWPOLYLINE
  5
293
100
AcDbEntity
  8
SOLDERMASK_PADS_TOP
100
AcDbPolyline
 90
        4
 70
         1
 10
23620.001
 20
12680.625
 10
23620.001
 20
13980.625
 10
24370.001
 20
13980.625
 10
24370.001
 20
12680.625
  0
LWPOLYLINE
  5
294
100
AcDbEntity
  8
SOLDERMASK_PADS_TOP
100
AcDbPolyline
 90
        4
 70
         1
 10
27430.001
 20
18330.625
 10
27430.001
 20
19630.625
 10
28180.001
 20
19630.625
 10
28180.001
 20
18330.625
  0
LWPOLYLINE
  5
295
100
AcDbEntity
  8
SOLDERMASK_PADS_TOP
100
AcDbPolyline
 90
        4
 70
         1
 10
24890.001
 20
18330.625
 10
24890.001
 20
19630.625
 10
25640.001
 20
19630.625
 10
25640.001
 20
18330.625
  0
LWPOLYLINE
  5
296
100
AcDbEntity
  8
SOLDERMASK_PADS_TOP
100
AcDbPolyline
 90
        4
 70
         1
 10
26160.001
 20
18330.625
 10
26160.001
 20
19630.625
 10
26910.001
 20
19630.625
 10
26910.001
 20
18330.625
  0
LWPOLYLINE
  5
297
100
AcDbEntity
  8
SOLDERMASK_PADS_TOP
100
AcDbPolyline
 90
        4
 70
         1
 10
22941.251
 20
57064.375
 10
22941.251
 20
58464.375
 10
28041.251
 20
58464.375
 10
28041.251
 20
57064.375
  0
LWPOLYLINE
  5
298
100
AcDbEntity
  8
SOLDERMASK_PADS_TOP
100
AcDbPolyline
 90
        4
 70
         1
 10
22941.251
 20
51264.375
 10
22941.251
 20
52664.375
 10
28041.251
 20
52664.375
 10
28041.251
 20
51264.375
  0
LWPOLYLINE
  5
299
100
AcDbEntity
  8
SOLDERMASK_PADS_TOP
100
AcDbPolyline
 90
        4
 70
         1
 10
24145.626
 20
20660.0
 10
24145.626
 20
21510.0
 10
25395.626
 20
21510.0
 10
25395.626
 20
20660.0
  0
LWPOLYLINE
  5
29A
100
AcDbEntity
  8
SOLDERMASK_PADS_TOP
100
AcDbPolyline
 90
        4
 70
         1
 10
24145.626
 20
22210.0
 10
24145.626
 20
23060.0
 10
25395.626
 20
23060.0
 10
25395.626
 20
22210.0
  0
LWPOLYLINE
  5
29B
100
AcDbEntity
  8
SOLDERMASK_PADS_TOP
100
AcDbPolyline
 90
        4
 70
         1
 10
24845.626
 20
38710.0
 10
24845.626
 20
39560.0
 10
26095.626
 20
39560.0
 10
26095.626
 20
38710.0
  0
LWPOLYLINE
  5
29C
100
AcDbEntity
  8
SOLDERMASK_PADS_TOP
100
AcDbPolyline
 90
        4
 70
         1
 10
24845.626
 20
37160.0
 10
24845.626
 20
38010.0
 10
26095.626
 20
38010.0
 10
26095.626
 20
37160.0
  0
LWPOLYLINE
  5
29D
100
AcDbEntity
  8
SOLDERMASK_PADS_TOP
100
AcDbPolyline
 90
        4
 70
         1
 10
25225.004
 20
32255.625
 10
25225.004
 20
33105.625
 10
26475.004
 20
33105.625
 10
26475.004
 20
32255.625
  0
LWPOLYLINE
  5
29E
100
AcDbEntity
  8
SOLDERMASK_PADS_TOP
100
AcDbPolyline
 90
        4
 70
         1
 10
25225.004
 20
33805.625
 10
25225.004
 20
34655.625
 10
26475.004
 20
34655.625
 10
26475.004
 20
33805.625
  0
LWPOLYLINE
  5
29F
100
AcDbEntity
  8
SOLDERMASK_PADS_TOP
100
AcDbPolyline
 90
        4
 70
         1
 10
41475.001
 20
32355.625
 10
41475.001
 20
33205.625
 10
42725.001
 20
33205.625
 10
42725.001
 20
32355.625
  0
LWPOLYLINE
  5
2A0
100
AcDbEntity
  8
SOLDERMASK_PADS_TOP
100
AcDbPolyline
 90
        4
 70
         1
 10
41475.001
 20
33905.625
 10
41475.001
 20
34755.625
 10
42725.001
 20
34755.625
 10
42725.001
 20
33905.625
  0
LWPOLYLINE
  5
2A1
100
AcDbEntity
  8
SOLDERMASK_PADS_TOP
100
AcDbPolyline
 90
        4
 70
         1
 10
41500.001
 20
27405.625
 10
41500.001
 20
27905.625
 10
41900.001
 20
27905.625
 10
41900.001
 20
27405.625
  0
LWPOLYLINE
  5
2A2
100
AcDbEntity
  8
SOLDERMASK_PADS_TOP
100
AcDbPolyline
 90
        4
 70
         1
 10
42300.001
 20
27405.625
 10
42300.001
 20
27905.625
 10
42700.001
 20
27905.625
 10
42700.001
 20
27405.625
  0
LWPOLYLINE
  5
2A3
100
AcDbEntity
  8
SOLDERMASK_PADS_TOP
100
AcDbPolyline
 90
        4
 70
         1
 10
34175.001
 20
38655.625
 10
34175.001
 20
39505.625
 10
35425.001
 20
39505.625
 10
35425.001
 20
38655.625
  0
LWPOLYLINE
  5
2A4
100
AcDbEntity
  8
SOLDERMASK_PADS_TOP
100
AcDbPolyline
 90
        4
 70
         1
 10
34175.001
 20
40205.625
 10
34175.001
 20
41055.625
 10
35425.001
 20
41055.625
 10
35425.001
 20
40205.625
  0
LWPOLYLINE
  5
2A5
100
AcDbEntity
  8
SOLDERMASK_PADS_TOP
100
AcDbPolyline
 90
        4
 70
         1
 10
41750.001
 20
45730.625
 10
41750.001
 20
46980.625
 10
42600.001
 20
46980.625
 10
42600.001
 20
45730.625
  0
LWPOLYLINE
  5
2A6
100
AcDbEntity
  8
SOLDERMASK_PADS_TOP
100
AcDbPolyline
 90
        4
 70
         1
 10
40200.001
 20
45730.625
 10
40200.001
 20
46980.625
 10
41050.001
 20
46980.625
 10
41050.001
 20
45730.625
  0
LWPOLYLINE
  5
2A7
100
AcDbEntity
  8
SOLDERMASK_PADS_TOP
100
AcDbPolyline
 90
        4
 70
         1
 10
20500.001
 20
32755.626
 10
20500.001
 20
37855.626
 10
21900.001
 20
37855.626
 10
21900.001
 20
32755.626
  0
LWPOLYLINE
  5
2A8
100
AcDbEntity
  8
SOLDERMASK_PADS_TOP
100
AcDbPolyline
 90
        4
 70
         1
 10
14700.001
 20
32755.626
 10
14700.001
 20
37855.626
 10
16100.001
 20
37855.626
 10
16100.001
 20
32755.626
  0
LWPOLYLINE
  5
2A9
100
AcDbEntity
  8
SOLDERMASK_PADS_TOP
100
AcDbPolyline
 90
        4
 70
         1
 10
26975.001
 20
23655.625
 10
26975.001
 20
24505.625
 10
28225.001
 20
24505.625
 10
28225.001
 20
23655.625
  0
LWPOLYLINE
  5
2AA
100
AcDbEntity
  8
SOLDERMASK_PADS_TOP
100
AcDbPolyline
 90
        4
 70
         1
 10
26975.001
 20
25205.625
 10
26975.001
 20
26055.625
 10
28225.001
 20
26055.625
 10
28225.001
 20
25205.625
  0
LWPOLYLINE
  5
2AB
100
AcDbEntity
  8
SOLDERMASK_PADS_TOP
100
AcDbPolyline
 90
        4
 70
         1
 10
26950.001
 20
33355.625
 10
26950.001
 20
33755.625
 10
27450.001
 20
33755.625
 10
27450.001
 20
33355.625
  0
LWPOLYLINE
  5
2AC
100
AcDbEntity
  8
SOLDERMASK_PADS_TOP
100
AcDbPolyline
 90
        4
 70
         1
 10
26950.001
 20
32555.625
 10
26950.001
 20
32955.625
 10
27450.001
 20
32955.625
 10
27450.001
 20
32555.625
  0
LWPOLYLINE
  5
2AD
100
AcDbEntity
  8
SOLDERMASK_PADS_TOP
100
AcDbPolyline
 90
        4
 70
         1
 10
22950.001
 20
24505.625
 10
22950.001
 20
25305.625
 10
24450.001
 20
25305.625
 10
24450.001
 20
24505.625
  0
LWPOLYLINE
  5
2AE
100
AcDbEntity
  8
SOLDERMASK_PADS_TOP
100
AcDbPolyline
 90
        4
 70
         1
 10
22950.001
 20
27805.625
 10
22950.001
 20
28605.625
 10
24450.001
 20
28605.625
 10
24450.001
 20
27805.625
  0
LWPOLYLINE
  5
2AF
100
AcDbEntity
  8
SOLDERMASK_PADS_TOP
100
AcDbPolyline
 90
        4
 70
         1
 10
30625.001
 20
49764.374
 10
30625.001
 20
51014.374
 10
31475.001
 20
51014.374
 10
31475.001
 20
49764.374
  0
LWPOLYLINE
  5
2B0
100
AcDbEntity
  8
SOLDERMASK_PADS_TOP
100
AcDbPolyline
 90
        4
 70
         1
 10
29075.001
 20
49764.374
 10
29075.001
 20
51014.374
 10
29925.001
 20
51014.374
 10
29925.001
 20
49764.374
  0
LWPOLYLINE
  5
2B1
100
AcDbEntity
  8
SOLDERMASK_PADS_TOP
100
AcDbPolyline
 90
        4
 70
         1
 10
30475.001
 20
38655.625
 10
30475.001
 20
39505.625
 10
31725.001
 20
39505.625
 10
31725.001
 20
38655.625
  0
LWPOLYLINE
  5
2B2
100
AcDbEntity
  8
SOLDERMASK_PADS_TOP
100
AcDbPolyline
 90
        4
 70
         1
 10
30475.001
 20
40205.625
 10
30475.001
 20
41055.625
 10
31725.001
 20
41055.625
 10
31725.001
 20
40205.625
  0
LWPOLYLINE
  5
2B3
100
AcDbEntity
  8
SOLDERMASK_PADS_TOP
100
AcDbPolyline
 90
        4
 70
         1
 10
35220.626
 20
29160.0
 10
35220.626
 20
29560.0
 10
35720.626
 20
29560.0
 10
35720.626
 20
29160.0
  0
LWPOLYLINE
  5
2B4
100
AcDbEntity
  8
SOLDERMASK_PADS_TOP
100
AcDbPolyline
 90
        4
 70
         1
 10
35220.626
 20
29960.0
 10
35220.626
 20
30360.0
 10
35720.626
 20
30360.0
 10
35720.626
 20
29960.0
  0
LWPOLYLINE
  5
2B5
100
AcDbEntity
  8
SOLDERMASK_PADS_TOP
100
AcDbPolyline
 90
        4
 70
         1
 10
35850.001
 20
23455.625
 10
35850.001
 20
24455.625
 10
38350.001
 20
24455.625
 10
38350.001
 20
23455.625
  0
LWPOLYLINE
  5
2B6
100
AcDbEntity
  8
SOLDERMASK_PADS_TOP
100
AcDbPolyline
 90
        4
 70
         1
 10
35850.001
 20
20855.625
 10
35850.001
 20
21855.625
 10
38350.001
 20
21855.625
 10
38350.001
 20
20855.625
  0
LWPOLYLINE
  5
2B7
100
AcDbEntity
  8
SOLDERMASK_PADS_TOP
100
AcDbPolyline
 90
        4
 70
         1
 10
20500.001
 20
26405.625
 10
20500.001
 20
31505.625
 10
21900.001
 20
31505.625
 10
21900.001
 20
26405.625
  0
LWPOLYLINE
  5
2B8
100
AcDbEntity
  8
SOLDERMASK_PADS_TOP
100
AcDbPolyline
 90
        4
 70
         1
 10
14700.001
 20
26405.625
 10
14700.001
 20
31505.625
 10
16100.001
 20
31505.625
 10
16100.001
 20
26405.625
  0
LWPOLYLINE
  5
2B9
100
AcDbEntity
  8
SOLDERMASK_PADS_TOP
100
AcDbPolyline
 90
        4
 70
         1
 10
39675.001
 20
31655.625
 10
39675.001
 20
32505.625
 10
40925.001
 20
32505.625
 10
40925.001
 20
31655.625
  0
LWPOLYLINE
  5
2BA
100
AcDbEntity
  8
SOLDERMASK_PADS_TOP
100
AcDbPolyline
 90
        4
 70
         1
 10
39675.001
 20
33205.625
 10
39675.001
 20
34055.625
 10
40925.001
 20
34055.625
 10
40925.001
 20
33205.625
  0
LWPOLYLINE
  5
2BB
100
AcDbEntity
  8
SOLDERMASK_PADS_TOP
100
AcDbPolyline
 90
        4
 70
         1
 10
23145.626
 20
38710.0
 10
23145.626
 20
39560.0
 10
24395.626
 20
39560.0
 10
24395.626
 20
38710.0
  0
LWPOLYLINE
  5
2BC
100
AcDbEntity
  8
SOLDERMASK_PADS_TOP
100
AcDbPolyline
 90
        4
 70
         1
 10
23145.626
 20
37160.0
 10
23145.626
 20
38010.0
 10
24395.626
 20
38010.0
 10
24395.626
 20
37160.0
  0
LWPOLYLINE
  5
2BD
100
AcDbEntity
  8
SOLDERMASK_PADS_TOP
100
AcDbPolyline
 90
        4
 70
         1
 10
37750.001
 20
29330.625
 10
37750.001
 20
30580.625
 10
38600.001
 20
30580.625
 10
38600.001
 20
29330.625
  0
LWPOLYLINE
  5
2BE
100
AcDbEntity
  8
SOLDERMASK_PADS_TOP
100
AcDbPolyline
 90
        4
 70
         1
 10
36200.001
 20
29330.625
 10
36200.001
 20
30580.625
 10
37050.001
 20
30580.625
 10
37050.001
 20
29330.625
  0
LWPOLYLINE
  5
2BF
100
AcDbEntity
  8
SOLDERMASK_PADS_TOP
100
AcDbPolyline
 90
        4
 70
         1
 10
21175.001
 20
17785.625
 10
21175.001
 20
18535.625
 10
22475.001
 20
18535.625
 10
22475.001
 20
17785.625
  0
LWPOLYLINE
  5
2C0
100
AcDbEntity
  8
SOLDERMASK_PADS_TOP
100
AcDbPolyline
 90
        4
 70
         1
 10
21175.001
 20
13975.625
 10
21175.001
 20
14725.625
 10
22475.001
 20
14725.625
 10
22475.001
 20
13975.625
  0
LWPOLYLINE
  5
2C1
100
AcDbEntity
  8
SOLDERMASK_PADS_TOP
100
AcDbPolyline
 90
        4
 70
         1
 10
21175.001
 20
15245.625
 10
21175.001
 20
15995.625
 10
22475.001
 20
15995.625
 10
22475.001
 20
15245.625
  0
LWPOLYLINE
  5
2C2
100
AcDbEntity
  8
SOLDERMASK_PADS_TOP
100
AcDbPolyline
 90
        4
 70
         1
 10
21175.001
 20
16515.625
 10
21175.001
 20
17265.625
 10
22475.001
 20
17265.625
 10
22475.001
 20
16515.625
  0
LWPOLYLINE
  5
2C3
100
AcDbEntity
  8
SOLDERMASK_PADS_TOP
100
AcDbPolyline
 90
        4
 70
         1
 10
15925.003
 20
13894.58
 10
15925.003
 20
18694.58
 10
20625.003
 20
18694.58
 10
20625.003
 20
13894.58
  0
LWPOLYLINE
  5
2C4
100
AcDbEntity
  8
SOLDERMASK_PADS_TOP
100
AcDbPolyline
 90
        4
 70
         1
 10
15525.001
 20
13975.625
 10
15525.001
 20
14725.625
 10
16825.001
 20
14725.625
 10
16825.001
 20
13975.625
  0
LWPOLYLINE
  5
2C5
100
AcDbEntity
  8
SOLDERMASK_PADS_TOP
100
AcDbPolyline
 90
        4
 70
         1
 10
15525.001
 20
16515.625
 10
15525.001
 20
17265.625
 10
16825.001
 20
17265.625
 10
16825.001
 20
16515.625
  0
LWPOLYLINE
  5
2C6
100
AcDbEntity
  8
SOLDERMASK_PADS_TOP
100
AcDbPolyline
 90
        4
 70
         1
 10
15525.001
 20
17785.625
 10
15525.001
 20
18535.625
 10
16825.001
 20
18535.625
 10
16825.001
 20
17785.625
  0
LWPOLYLINE
  5
2C7
100
AcDbEntity
  8
SOLDERMASK_PADS_TOP
100
AcDbPolyline
 90
        4
 70
         1
 10
15525.001
 20
15245.625
 10
15525.001
 20
15995.625
 10
16825.001
 20
15995.625
 10
16825.001
 20
15245.625
  0
LWPOLYLINE
  5
2C8
100
AcDbEntity
  8
SOLDERMASK_PADS_TOP
100
AcDbPolyline
 90
        4
 70
         1
 10
36050.001
 20
37455.625
 10
36050.001
 20
38455.625
 10
38550.001
 20
38455.625
 10
38550.001
 20
37455.625
  0
LWPOLYLINE
  5
2C9
100
AcDbEntity
  8
SOLDERMASK_PADS_TOP
100
AcDbPolyline
 90
        4
 70
         1
 10
36050.001
 20
40055.625
 10
36050.001
 20
41055.625
 10
38550.001
 20
41055.625
 10
38550.001
 20
40055.625
  0
LWPOLYLINE
  5
2CA
100
AcDbEntity
  8
SOLDERMASK_PADS_TOP
100
AcDbPolyline
 90
        4
 70
         1
 10
41475.001
 20
25905.625
 10
41475.001
 20
26755.625
 10
42725.001
 20
26755.625
 10
42725.001
 20
25905.625
  0
LWPOLYLINE
  5
2CB
100
AcDbEntity
  8
SOLDERMASK_PADS_TOP
100
AcDbPolyline
 90
        4
 70
         1
 10
41475.001
 20
24355.625
 10
41475.001
 20
25205.625
 10
42725.001
 20
25205.625
 10
42725.001
 20
24355.625
  0
LWPOLYLINE
  5
2CC
100
AcDbEntity
  8
SOLDERMASK_PADS_TOP
100
AcDbPolyline
 90
        4
 70
         1
 10
20550.001
 20
46730.627
 10
20550.001
 20
47980.627
 10
21400.001
 20
47980.627
 10
21400.001
 20
46730.627
  0
LWPOLYLINE
  5
2CD
100
AcDbEntity
  8
SOLDERMASK_PADS_TOP
100
AcDbPolyline
 90
        4
 70
         1
 10
19000.001
 20
46730.627
 10
19000.001
 20
47980.627
 10
19850.001
 20
47980.627
 10
19850.001
 20
46730.627
  0
LWPOLYLINE
  5
2CE
100
AcDbEntity
  8
SOLDERMASK_PADS_TOP
100
AcDbPolyline
 90
        4
 70
         1
 10
26545.626
 20
38710.0
 10
26545.626
 20
39560.0
 10
27795.626
 20
39560.0
 10
27795.626
 20
38710.0
  0
LWPOLYLINE
  5
2CF
100
AcDbEntity
  8
SOLDERMASK_PADS_TOP
100
AcDbPolyline
 90
        4
 70
         1
 10
26545.626
 20
37160.0
 10
26545.626
 20
38010.0
 10
27795.626
 20
38010.0
 10
27795.626
 20
37160.0
  0
LWPOLYLINE
  5
2D0
100
AcDbEntity
  8
SOLDERMASK_PADS_TOP
100
AcDbPolyline
 90
        4
 70
         1
 10
37250.001
 20
31030.625
 10
37250.001
 20
32280.625
 10
38100.001
 20
32280.625
 10
38100.001
 20
31030.625
  0
LWPOLYLINE
  5
2D1
100
AcDbEntity
  8
SOLDERMASK_PADS_TOP
100
AcDbPolyline
 90
        4
 70
         1
 10
35700.001
 20
31030.625
 10
35700.001
 20
32280.625
 10
36550.001
 20
32280.625
 10
36550.001
 20
31030.625
  0
LWPOLYLINE
  5
2D2
100
AcDbEntity
  8
SOLDERMASK_PADS_TOP
100
AcDbPolyline
 90
        4
 70
         1
 10
34300.001
 20
44255.625
 10
34300.001
 20
46455.625
 10
37000.001
 20
46455.625
 10
37000.001
 20
44255.625
  0
LWPOLYLINE
  5
2D3
100
AcDbEntity
  8
SOLDERMASK_PADS_TOP
100
AcDbPolyline
 90
        4
 70
         1
 10
29200.001
 20
44255.625
 10
29200.001
 20
46455.625
 10
31900.001
 20
46455.625
 10
31900.001
 20
44255.625
  0
LWPOLYLINE
  5
2D4
100
AcDbEntity
  8
SOLDERMASK_PADS_TOP
100
AcDbPolyline
 90
        4
 70
         1
 10
22445.626
 20
20660.0
 10
22445.626
 20
21510.0
 10
23695.626
 20
21510.0
 10
23695.626
 20
20660.0
  0
LWPOLYLINE
  5
2D5
100
AcDbEntity
  8
SOLDERMASK_PADS_TOP
100
AcDbPolyline
 90
        4
 70
         1
 10
22445.626
 20
22210.0
 10
22445.626
 20
23060.0
 10
23695.626
 20
23060.0
 10
23695.626
 20
22210.0
  0
LWPOLYLINE
  5
2D6
100
AcDbEntity
  8
SOLDERMASK_PADS_TOP
100
AcDbPolyline
 90
        4
 70
         1
 10
20550.001
 20
38930.625
 10
20550.001
 20
40180.625
 10
21400.001
 20
40180.625
 10
21400.001
 20
38930.625
  0
LWPOLYLINE
  5
2D7
100
AcDbEntity
  8
SOLDERMASK_PADS_TOP
100
AcDbPolyline
 90
        4
 70
         1
 10
19000.001
 20
38930.625
 10
19000.001
 20
40180.625
 10
19850.001
 20
40180.625
 10
19850.001
 20
38930.625
  0
LWPOLYLINE
  5
2D8
100
AcDbEntity
  8
SOLDERMASK_PADS_TOP
100
AcDbPolyline
 90
        4
 70
         1
 10
40575.001
 20
22405.625
 10
40575.001
 20
23255.625
 10
41825.001
 20
23255.625
 10
41825.001
 20
22405.625
  0
LWPOLYLINE
  5
2D9
100
AcDbEntity
  8
SOLDERMASK_PADS_TOP
100
AcDbPolyline
 90
        4
 70
         1
 10
40575.001
 20
20855.625
 10
40575.001
 20
21705.625
 10
41825.001
 20
21705.625
 10
41825.001
 20
20855.625
  0
LWPOLYLINE
  5
2DA
100
AcDbEntity
  8
SOLDERMASK_PADS_TOP
100
AcDbPolyline
 90
        4
 70
         1
 10
27175.001
 20
35805.625
 10
27175.001
 20
36655.625
 10
28425.001
 20
36655.625
 10
28425.001
 20
35805.625
  0
LWPOLYLINE
  5
2DB
100
AcDbEntity
  8
SOLDERMASK_PADS_TOP
100
AcDbPolyline
 90
        4
 70
         1
 10
27175.001
 20
34255.625
 10
27175.001
 20
35105.625
 10
28425.001
 20
35105.625
 10
28425.001
 20
34255.625
  0
LWPOLYLINE
  5
2DC
100
AcDbEntity
  8
SOLDERMASK_PADS_TOP
100
AcDbPolyline
 90
        4
 70
         1
 10
35950.001
 20
35530.625
 10
35950.001
 20
36780.625
 10
36800.001
 20
36780.625
 10
36800.001
 20
35530.625
  0
LWPOLYLINE
  5
2DD
100
AcDbEntity
  8
SOLDERMASK_PADS_TOP
100
AcDbPolyline
 90
        4
 70
         1
 10
34400.001
 20
35530.625
 10
34400.001
 20
36780.625
 10
35250.001
 20
36780.625
 10
35250.001
 20
35530.625
  0
LWPOLYLINE
  5
2DE
100
AcDbEntity
  8
SOLDERMASK_PADS_TOP
100
AcDbPolyline
 90
        4
 70
         1
 10
32275.001
 20
38655.625
 10
32275.001
 20
39505.625
 10
33525.001
 20
39505.625
 10
33525.001
 20
38655.625
  0
LWPOLYLINE
  5
2DF
100
AcDbEntity
  8
SOLDERMASK_PADS_TOP
100
AcDbPolyline
 90
        4
 70
         1
 10
32275.001
 20
40205.625
 10
32275.001
 20
41055.625
 10
33525.001
 20
41055.625
 10
33525.001
 20
40205.625
  0
CIRCLE
  5
2E0
100
AcDbEntity
  8
SOLDERMASK_PADS_TOP
100
AcDbCircle
 10
8400.0
 20
11300.0
 30
0.0
 40
975.0
  0
CIRCLE
  5
2E1
100
AcDbEntity
  8
SOLDERMASK_PADS_TOP
100
AcDbCircle
 10
8400.0
 20
14800.0
 30
0.0
 40
975.0
  0
CIRCLE
  5
2E2
100
AcDbEntity
  8
SOLDERMASK_PADS_TOP
100
AcDbCircle
 10
8400.0
 20
18300.0
 30
0.0
 40
975.0
  0
CIRCLE
  5
2E3
100
AcDbEntity
  8
SOLDERMASK_PADS_TOP
100
AcDbCircle
 10
8400.0
 20
21800.0
 30
0.0
 40
975.0
  0
CIRCLE
  5
2E4
100
AcDbEntity
  8
SOLDERMASK_PADS_TOP
100
AcDbCircle
 10
8400.0
 20
25300.0
 30
0.0
 40
975.0
  0
CIRCLE
  5
2E5
100
AcDbEntity
  8
SOLDERMASK_PADS_TOP
100
AcDbCircle
 10
8400.0
 20
28800.0
 30
0.0
 40
975.0
  0
CIRCLE
  5
2E6
100
AcDbEntity
  8
SOLDERMASK_PADS_TOP
100
AcDbCircle
 10
4750.0
 20
11300.0
 30
0.0
 40
975.0
  0
CIRCLE
  5
2E7
100
AcDbEntity
  8
SOLDERMASK_PADS_TOP
100
AcDbCircle
 10
4750.0
 20
14800.0
 30
0.0
 40
975.0
  0
CIRCLE
  5
2E8
100
AcDbEntity
  8
SOLDERMASK_PADS_TOP
100
AcDbCircle
 10
4750.0
 20
18300.0
 30
0.0
 40
975.0
  0
CIRCLE
  5
2E9
100
AcDbEntity
  8
SOLDERMASK_PADS_TOP
100
AcDbCircle
 10
4750.0
 20
21800.0
 30
0.0
 40
975.0
  0
CIRCLE
  5
2EA
100
AcDbEntity
  8
SOLDERMASK_PADS_TOP
100
AcDbCircle
 10
4750.0
 20
25300.0
 30
0.0
 40
975.0
  0
CIRCLE
  5
2EB
100
AcDbEntity
  8
SOLDERMASK_PADS_TOP
100
AcDbCircle
 10
4750.0
 20
28800.0
 30
0.0
 40
975.0
  0
LWPOLYLINE
  5
2EC
100
AcDbEntity
  8
SOLDERMASK_PADS_TOP
100
AcDbPolyline
 90
        4
 70
         1
 10
11400.0
 20
17310.0
 10
11400.0
 20
17710.0
 10
11900.0
 20
17710.0
 10
11900.0
 20
17310.0
  0
LWPOLYLINE
  5
2ED
100
AcDbEntity
  8
SOLDERMASK_PADS_TOP
100
AcDbPolyline
 90
        4
 70
         1
 10
11400.0
 20
18110.0
 10
11400.0
 20
18510.0
 10
11900.0
 20
18510.0
 10
11900.0
 20
18110.0
  0
LWPOLYLINE
  5
2EE
100
AcDbEntity
  8
SOLDERMASK_PADS_TOP
100
AcDbPolyline
 90
        4
 70
         1
 10
16210.0
 20
6260.0
 10
16210.0
 20
6660.0
 10
16710.0
 20
6660.0
 10
16710.0
 20
6260.0
  0
LWPOLYLINE
  5
2EF
100
AcDbEntity
  8
SOLDERMASK_PADS_TOP
100
AcDbPolyline
 90
        4
 70
         1
 10
16210.0
 20
5460.0
 10
16210.0
 20
5860.0
 10
16710.0
 20
5860.0
 10
16710.0
 20
5460.0
  0
CIRCLE
  5
2F0
100
AcDbEntity
  8
SOLDERMASK_PADS_TOP
100
AcDbCircle
 10
20380.0
 20
63600.0
 30
0.0
 40
900.0
  0
CIRCLE
  5
2F1
100
AcDbEntity
  8
SOLDERMASK_PADS_TOP
100
AcDbCircle
 10
23880.0
 20
63600.0
 30
0.0
 40
900.0
  0
CIRCLE
  5
2F2
100
AcDbEntity
  8
SOLDERMASK_PADS_TOP
100
AcDbCircle
 10
3000.0
 20
3000.0
 30
0.0
 40
2000.0
  0
CIRCLE
  5
2F3
100
AcDbEntity
  8
SOLDERMASK_PADS_TOP
100
AcDbCircle
 10
3000.0
 20
69000.0
 30
0.0
 40
2000.0
  0
ENDSEC
  0
SECTION
  2
OBJECTS
  0
DICTIONARY
  5
19
100
AcDbDictionary
  3
ACAD_GROUP
350
1A
  3
ACAD_MLINESTYLE
350
1B
  0
DICTIONARY
  5
1A
102
{ACAD_REACTORS
330
19
102
}
100
AcDbDictionary
  0
DICTIONARY
  5
1B
102
{ACAD_REACTORS
330
19
102
}
100
AcDbDictionary
  3
STANDARD
350
1C
  0
MLINESTYLE
  5
1C
102
{ACAD_REACTORS
330
1B
102
}
100
AcDbMlineStyle
  2
STANDARD
 70
         0
  3

 62
         0
 51
90.0
 52
90.0
 71
         2
 49
0.5
 62
       256
  6
BYLAYER
 49
-0.5
 62
       256
  6
BYLAYER
  0
DICTIONARY
  5
22
102
{ACAD_REACTORS
330
19
102
}
100
AcDbDictionary
  0
ENDSEC
  0
EOF
