  0
SECTION
  2
HEADER
  9
$ACADVER
  1
AC1014
  9
$ACADMAINTVER
 70
         0
  9
$DWGCODEPAGE
  3
ANSI_1252
  9
$INSBASE
 10
0.0
 20
0.0
 30
0.0
  9
$EXTMIN
 10
-8700.0
 20
-75149.6
 30
0.0
  9
$EXTMAX
 10
48149.6
 20
101.6
 30
0.0
  9
$LIMMIN
 10
0.0
 20
0.0
  9
$LIMMAX
 10
0.0
 20
0.0
  9
$ORTHOMODE
 70
         0
  9
$REGENMODE
 70
         1
  9
$FILLMODE
 70
         1
  9
$QTEXTMODE
 70
         0
  9
$MIRRTEXT
 70
         1
  9
$DRAGMODE
 70
         2
  9
$LTSCALE
 40
1.0
  9
$OSMODE
 70
         0
  9
$ATTMODE
 70
         1
  9
$TEXTSIZE
 40
0.2
  9
$TRACEWID
 40
0.05
  9
$TEXTSTYLE
  7
STANDARD
  9
$CLAYER
  8
0
  9
$CELTYPE
  6
CONTINUOUS
  9
$CECOLOR
 62
       256
  9
$CELTSCALE
 40
1.0
  9
$DELOBJ
 70
         1
  9
$DISPSILH
 70
         0
  9
$DIMSCALE
 40
1.0
  9
$DIMASZ
 40
0.18
  9
$DIMEXO
 40
0.0625
  9
$DIMDLI
 40
0.38
  9
$DIMRND
 40
0.0
  9
$DIMDLE
 40
0.0
  9
$DIMEXE
 40
0.18
  9
$DIMTP
 40
0.0
  9
$DIMTM
 40
0.0
  9
$DIMTXT
 40
0.18
  9
$DIMCEN
 40
0.09
  9
$DIMTSZ
 40
0.0
  9
$DIMTOL
 70
         0
  9
$DIMLIM
 70
         0
  9
$DIMTIH
 70
         1
  9
$DIMTOH
 70
         1
  9
$DIMSE1
 70
         0
  9
$DIMSE2
 70
         0
  9
$DIMTAD
 70
         0
  9
$DIMZIN
 70
         0
  9
$DIMBLK
  1

  9
$DIMASO
 70
         1
  9
$DIMSHO
 70
         1
  9
$DIMPOST
  1

  9
$DIMAPOST
  1

  9
$DIMALT
 70
         0
  9
$DIMALTD
 70
         2
  9
$DIMALTF
 40
25.4
  9
$DIMLFAC
 40
1.0
  9
$DIMTOFL
 70
         0
  9
$DIMTVP
 40
0.0
  9
$DIMTIX
 70
         0
  9
$DIMSOXD
 70
         0
  9
$DIMSAH
 70
         0
  9
$DIMBLK1
  1

  9
$DIMBLK2
  1

  9
$DIMSTYLE
  2
STANDARD
  9
$DIMCLRD
 70
         0
  9
$DIMCLRE
 70
         0
  9
$DIMCLRT
 70
         0
  9
$DIMTFAC
 40
1.0
  9
$DIMGAP
 40
0.09
  9
$DIMJUST
 70
         0
  9
$DIMSD1
 70
         0
  9
$DIMSD2
 70
         0
  9
$DIMTOLJ
 70
         1
  9
$DIMTZIN
 70
         0
  9
$DIMALTZ
 70
         0
  9
$DIMALTTZ
 70
         0
  9
$DIMFIT
 70
         3
  9
$DIMUPT
 70
         0
  9
$DIMUNIT
 70
         2
  9
$DIMDEC
 70
         4
  9
$DIMTDEC
 70
         4
  9
$DIMALTU
 70
         2
  9
$DIMALTTD
 70
         2
  9
$DIMTXSTY
  7
STANDARD
  9
$DIMAUNIT
 70
         0
  9
$LUNITS
 70
         2
  9
$LUPREC
 70
         4
  9
$SKETCHINC
 40
0.1
  9
$FILLETRAD
 40
0.0
  9
$AUNITS
 70
         0
  9
$AUPREC
 70
         0
  9
$MENU
  1
acad
  9
$ELEVATION
 40
0.0
  9
$PELEVATION
 40
0.0
  9
$THICKNESS
 40
0.0
  9
$LIMCHECK
 70
         0
  9
$BLIPMODE
 70
         1
  9
$CHAMFERA
 40
0.0
  9
$CHAMFERB
 40
0.0
  9
$CHAMFERC
 40
0.0
  9
$CHAMFERD
 40
0.0
  9
$SKPOLY
 70
         0
  9
$TDCREATE
 40
2456682.427534722
  9
$TDUPDATE
 40
0.000000000
  9
$TDINDWG
 40
0.0000000000
  9
$TDUSRTIMER
 40
0.0000000000
  9
$USRTIMER
 70
         1
  9
$ANGBASE
 50
0.0
  9
$ANGDIR
 70
         0
  9
$PDMODE
 70
         0
  9
$PDSIZE
 40
0.0
  9
$PLINEWID
 40
0.0
  9
$COORDS
 70
         0
  9
$SPLFRAME
 70
         0
  9
$SPLINETYPE
 70
         6
  9
$SPLINESEGS
 70
         8
  9
$ATTDIA
 70
         0
  9
$ATTREQ
 70
         1
  9
$HANDLING
 70
         1
  9
$HANDSEED
  5
25A
  9
$SURFTAB1
 70
         6
  9
$SURFTAB2
 70
         6
  9
$SURFTYPE
 70
         6
  9
$SURFU
 70
         6
  9
$SURFV
 70
         6
  9
$UCSNAME
  2

  9
$UCSORG
 10
0.0
 20
0.0
 30
0.0
  9
$UCSXDIR
 10
-1.0
 20
0.0
 30
0.0
  9
$UCSYDIR
 10
0.0
 20
1.0
 30
0.0
  9
$PUCSNAME
  2

  9
$PUCSORG
 10
0.0
 20
0.0
 30
0.0
  9
$PUCSXDIR
 10
1.0
 20
0.0
 30
0.0
  9
$PUCSYDIR
 10
0.0
 20
1.0
 30
0.0
  9
$USERI1
 70
        -4
  9
$USERI2
 70
         0
  9
$USERI3
 70
         0
  9
$USERI4
 70
         0
  9
$USERI5
 70
         0
  9
$USERR1
 40
0.0
  9
$USERR2
 40
0.0
  9
$USERR3
 40
0.0
  9
$USERR4
 40
0.0
  9
$USERR5
 40
0.0
  9
$WORLDVIEW
 70
         1
  9
$SHADEDGE
 70
         3
  9
$SHADEDIF
 70
        70
  9
$TILEMODE
 70
         1
  9
$MAXACTVP
 70
        16
  9
$PINSBASE
 10
0.0
 20
0.0
 30
0.0
  9
$PLIMCHECK
 70
         0
  9
$PEXTMIN
 10
1.0000000000E+20
 20
1.0000000000E+20
 30
1.0000000000E+20
  9
$PEXTMAX
 10
-1.0000000000E+20
 20
-1.0000000000E+20
 30
-1.0000000000E+20
  9
$PLIMMIN
 10
0.0
 20
0.0
  9
$PLIMMAX
 10
12.0
 20
9.0
  9
$UNITMODE
 70
         0
  9
$VISRETAIN
 70
         0
  9
$PLINEGEN
 70
         1
  9
$PSLTSCALE
 70
         0
  9
$TREEDEPTH
 70
      3020
  9
$PICKSTYLE
 70
         1
  9
$CMLSTYLE
  2
STANDARD
  9
$CMLJUST
 70
         0
  9
$CMLSCALE
 40
1.0
  9
$PROXYGRAPHICS
 70
         0
  9
$MEASUREMENT
 70
         0
  0
ENDSEC
  0
SECTION
  2
CLASSES
  0
CLASS
  1
LWPOLYLINE
  2
AcDbPolyline
  3
"AutoCAD"
 90
        0
280
         0
281
         1
  0
CLASS
  1
IMAGE
  2
AcDbRasterImage
  3
ISM
 90
      127
280
         0
281
         1
  0
CLASS
  1
OLE2FRAME
  2
AcDbOle2Frame
  3
""
 90
        0
280
         0
281
         1
  0
CLASS
  1
HATCH
  2
AcDbHatch
  3
"ACAD_SEDONA"
 90
        0
280
         0
281
         1
  0
CLASS
  1
DICTIONARYVAR
  2
AcDbDictionaryVar
  3
"AutoCAD"
 90
        0
280
         0
281
         0
  0
CLASS
  1
RASTERVARIABLES
  2
AcDbRasterVariables
  3
ISM
 90
        0
280
         0
281
         0
  0
CLASS
  1
IMAGEDEF
  2
AcDbRasterImageDef
  3
ISM
 90
        0
280
         0
281
         0
  0
CLASS
  1
IMAGEDEF_REACTOR
  2
AcDbRasterImageDefReactor
  3
ISM
 90
        1
280
         0
281
         0
  0
CLASS
  1
IDBUFFER
  2
AcDbIdBuffer
  3
"Acad"
 90
        0
280
         0
281
         0
  0
CLASS
  1
SPATIAL_FILTER
  2
AcDbSpatialFilter
  3
"Acad"
 90
        0
280
         0
281
         0
  0
CLASS
  1
XRECORD
  2
AcDbXrecord
  3
"<Built In>"
 90
        0
280
         0
281
         0
  0
CLASS
  1
SORTENTSTABLE
  2
AcDbSortentsTable
  3
"AutoCAD"
 90
        0
280
         0
281
         0
  0
CLASS
  1
LAYER_INDEX
  2
AcDbLayerIndex
  3
"Acad"
 90
        0
280
         0
281
         0
  0
CLASS
  1
SPATIAL_INDEX
  2
AcDbSpatialIndex
  3
"Acad"
 90
        0
280
         0
281
         0
  0
CLASS
  1
OBJECT_PTR
  2
CAseDLPNTableRecord
  3
"ASE-LPNTableRecord"
 90
        1
280
         0
281
         0
  0
CLASS
  1
LAYOUT
  2
AcDbLayout
  3
"AutoCAD 2000"
 90
        0
280
         0
281
         0
  0
CLASS
  1
PLOTSETTINGS
  2
AcDbPlotSettings
  3
"AutoCAD 2000"
 90
        0
280
         0
281
         0
  0
CLASS
  1
ACDBDICTIONARYWDFLT
  2
AcDbDictionaryWithDefault
  3
"AutoCAD 2000"
 90
        0
280
         0
281
         0
  0
CLASS
  1
ACDBPLACEHOLDER
  2
AcDbPlaceHolder
  3
"AutoCAD 2000"
 90
        0
280
         0
281
         0
  0
CLASS
  1
VBA_PROJECT
  2
AcDbVbaProject
  3
"acadvba"
 90
        0
280
         0
281
         0
  0
CLASS
  1
WIPEOUT
  2
AcDbWipeout
  3
WipeOut|AutoCAD Express Tool|expresstools@autodesk.com
 90
      127
280
         0
281
         1
  0
CLASS
  1
WIPEOUTVARIABLES
  2
AcDbWipeoutVariables
  3
WipeOut|AutoCAD Express Tool|expresstools@autodesk.com
 90
        0
280
         0
281
         0
  0
CLASS
  1
RTEXT
  2
RText
  3
RText|AutoCAD Express Tool|expresstools@autodesk.com
 90
        0
280
         0
281
         1
  0
CLASS
  1
ARCALIGNEDTEXT
  2
AcDbArcAlignedText
  3
ATEXT|AutoCAD Express Tool|expresstools@autodesk.com
 90
        0
280
         0
281
         1
  0
ENDSEC
  0
SECTION
  2
TABLES
  0
TABLE
  2
VPORT
  5
7
100
AcDbSymbolTable
 70
         1
  0
VPORT
  5
15
100
AcDbSymbolTableRecord
100
AcDbViewportTableRecord
  2
*ACTIVE
 70
         0
 10
0.0
 20
0.0
 11
1.0
 21
1.0
 12
6.591288
 22
4.579184
 13
0.0
 23
0.0
 14
1.0
 24
1.0
 15
0.0
 25
0.0
 16
0.0
 26
0.0
 36
-1.0
 17
0.0
 27
0.0
 37
0.0
 40
9.158369
 41
0.688564
 42
50.0
 43
0.0
 44
0.0
 50
0.0
 51
0.0
 71
         0
 72
       100
 73
         1
 74
         1
 75
         0
 76
         0
 77
         0
 78
         0
  0
ENDTAB
  0
TABLE
  2
LTYPE
  5
4
100
AcDbSymbolTable
 70
         3
  0
LTYPE
  5
11
100
AcDbSymbolTableRecord
100
AcDbLinetypeTableRecord
  2
BYBLOCK
 70
        64
  3

 72
        65
 73
         0
 40
0.0
  0
LTYPE
  5
12
100
AcDbSymbolTableRecord
100
AcDbLinetypeTableRecord
  2
BYLAYER
 70
        64
  3

 72
        65
 73
         0
 40
0.0
  0
LTYPE
  5
13
100
AcDbSymbolTableRecord
100
AcDbLinetypeTableRecord
  2
CONTINUOUS
 70
        64
  3
Solid line
 72
        65
 73
         0
 40
0.0
  0
ENDTAB
  0
TABLE
  2
LAYER
  5
2
100
AcDbSymbolTable
 70
         6
  0
LAYER
  5
14
100
AcDbSymbolTableRecord
100
AcDbLayerTableRecord
  2
0
 70
         0
 62
         7
  6
CONTINUOUS
  0
LAYER
  5
24
100
AcDbSymbolTableRecord
100
AcDbLayerTableRecord
  2
ASSEMBLY_OUTLINES_TOP
 70
         0
 62
       104
  6
CONTINUOUS
  0
LAYER
  5
25
100
AcDbSymbolTableRecord
100
AcDbLayerTableRecord
  2
ASSEMBLY_REF_DES_TOP
 70
         0
 62
        30
  6
CONTINUOUS
  0
LAYER
  5
26
100
AcDbSymbolTableRecord
100
AcDbLayerTableRecord
  2
BOARD_OUTLINE
 70
         0
 62
        10
  6
CONTINUOUS
  0
LAYER
  5
27
100
AcDbSymbolTableRecord
100
AcDbLayerTableRecord
  2
PART_PADS_SMD_TOP
 70
         0
 62
       170
  6
CONTINUOUS
  0
LAYER
  5
28
100
AcDbSymbolTableRecord
100
AcDbLayerTableRecord
  2
PIN_NUMBERS_TOP
 70
         0
 62
         8
  6
CONTINUOUS
  0
ENDTAB
  0
TABLE
  2
STYLE
  5
3
100
AcDbSymbolTable
 70
         3
  0
STYLE
  5
17
100
AcDbSymbolTableRecord
100
AcDbTextStyleTableRecord
  2
STANDARD
 70
         0
 40
0.0
 41
1.0
 50
0.0
 71
         0
 42
0.0
  3
txt
  4

  0
STYLE
  5
39
100
AcDbSymbolTableRecord
100
AcDbTextStyleTableRecord
  2
ARIAL
 70
         0
 40
0.0
 41
1.0
 50
0.0
 71
         0
 42
0.0
  3
ARIAL.TTF
  4

  0
STYLE
  5
1AB
100
AcDbSymbolTableRecord
100
AcDbTextStyleTableRecord
  2
COURIER_NEW
 70
         0
 40
0.0
 41
1.0
 50
0.0
 71
         0
 42
0.0
  3
COUR.TTF
  4

  0
ENDTAB
  0
TABLE
  2
VIEW
  5
5
100
AcDbSymbolTable
 70
         0
  0
ENDTAB
  0
TABLE
  2
UCS
  5
6
100
AcDbSymbolTable
 70
         0
  0
ENDTAB
  0
TABLE
  2
APPID
  5
8
100
AcDbSymbolTable
 70
         1
  0
APPID
  5
16
100
AcDbSymbolTableRecord
100
AcDbRegAppTableRecord
  2
ACAD
 70
         0
  0
ENDTAB
  0
TABLE
  2
DIMSTYLE
  5
9
100
AcDbSymbolTable
 70
         1
  0
DIMSTYLE
105
18
100
AcDbSymbolTableRecord
100
AcDbDimStyleTableRecord
  2
STANDARD
 70
         0
  3

  4

  5

  6

  7

 40
1.0
 41
0.18
 42
0.0625
 43
0.38
 44
0.18
 45
0.0
 46
0.0
 47
0.0
 48
0.0
 71
         0
 72
         0
 73
         1
 74
         1
 75
         0
 76
         0
 77
         0
 78
         0
140
0.18
141
0.09
142
0.0
143
25.4
144
1.0
145
0.0
146
1.0
147
0.09
170
         0
171
         2
172
         0
173
         0
174
         0
175
         0
176
         0
177
         0
178
         0
270
         2
271
         4
272
         4
273
         2
274
         2
275
         0
280
         0
281
         0
282
         0
283
         1
284
         0
285
         0
286
         0
287
         3
288
         0
340
17
  0
ENDTAB
  0
TABLE
  2
BLOCK_RECORD
  5
1
100
AcDbSymbolTable
 70
         0
  0
BLOCK_RECORD
  5
A
100
AcDbSymbolTableRecord
100
AcDbBlockTableRecord
  2
*MODEL_SPACE
  0
BLOCK_RECORD
  5
B
100
AcDbSymbolTableRecord
100
AcDbBlockTableRecord
  2
*PAPER_SPACE
  0
ENDTAB
  0
ENDSEC
  0
SECTION
  2
BLOCKS
  0
BLOCK
  5
D
100
AcDbEntity
  8
0
100
AcDbBlockBegin
  2
*MODEL_SPACE
 70
         0
 10
0.0
 20
0.0
 30
0.0
  3
*MODEL_SPACE
  1

  0
ENDBLK
  5
E
100
AcDbEntity
  8
0
100
AcDbBlockEnd
  0
BLOCK
  5
F
100
AcDbEntity
 67
         1
  8
0
100
AcDbBlockBegin
  2
*PAPER_SPACE
 70
         0
 10
0.0
 20
0.0
 30
0.0
  3
*PAPER_SPACE
  1

  0
ENDBLK
  5
10
100
AcDbEntity
 67
         1
  8
0
100
AcDbBlockEnd
  0
ENDSEC
  0
SECTION
  2
ENTITIES
  0
LWPOLYLINE
  5
29
100
AcDbEntity
  8
ASSEMBLY_OUTLINES_TOP
100
AcDbPolyline
 90
        3
 70
         1
 10
47540.0
 20
0.0
 10
46968.5
 20
-1143.0
 10
48111.5
 20
-1143.0
  0
HATCH
  5
2A
100
AcDbEntity
  8
ASSEMBLY_OUTLINES_TOP
100
AcDbHatch
 10
0.0
 20
0.0
 30
0.0
210
0.0
220
0.0
230
1.0
  2
SOLID
 70
         1
 71
         1
 91
        1
 92
        2
 72
         0
 73
         1
 93
        3
 10
47540.0
 20
0.0
 10
46968.5
 20
-1143.0
 10
48111.5
 20
-1143.0
 97
        1
330
29
 75
         0
 76
         1
 98
        1
 10
0.0
 20
0.0
  0
LWPOLYLINE
  5
2B
100
AcDbEntity
  8
ASSEMBLY_OUTLINES_TOP
100
AcDbPolyline
 90
        3
 70
         1
 10
47540.0
 20
-72000.0
 10
48111.499
 20
-70857.0
 10
46968.5
 20
-70857.001
  0
HATCH
  5
2C
100
AcDbEntity
  8
ASSEMBLY_OUTLINES_TOP
100
AcDbHatch
 10
0.0
 20
0.0
 30
0.0
210
0.0
220
0.0
230
1.0
  2
SOLID
 70
         1
 71
         1
 91
        1
 92
        2
 72
         0
 73
         1
 93
        3
 10
47540.0
 20
-72000.0
 10
48111.499000000003
 20
-70857.0
 10
46968.5
 20
-70857.001000000004
 97
        1
330
2B
 75
         0
 76
         1
 98
        1
 10
0.0
 20
0.0
  0
LWPOLYLINE
  5
2D
100
AcDbEntity
  8
ASSEMBLY_OUTLINES_TOP
100
AcDbPolyline
 90
        2
 70
         0
 43
203.2
 10
47540.0
 20
-29114.219
 10
47540.0
 20
-571.5
  0
LWPOLYLINE
  5
2E
100
AcDbEntity
  8
ASSEMBLY_OUTLINES_TOP
100
AcDbPolyline
 90
        2
 70
         0
 43
203.2
 10
47540.0
 20
-71428.5
 10
47540.0
 20
-42885.78
  0
LWPOLYLINE
  5
2F
100
AcDbEntity
  8
ASSEMBLY_OUTLINES_TOP
100
AcDbPolyline
 90
        2
 70
         0
 43
203.2
 10
45508.0
 20
0.0
 10
48048.0
 20
0.0
  0
LWPOLYLINE
  5
30
100
AcDbEntity
  8
ASSEMBLY_OUTLINES_TOP
100
AcDbPolyline
 90
        2
 70
         0
 43
203.2
 10
45508.0
 20
-72000.0
 10
48048.0
 20
-72000.0
  0
LWPOLYLINE
  5
31
100
AcDbEntity
  8
ASSEMBLY_OUTLINES_TOP
100
AcDbPolyline
 90
        3
 70
         1
 10
45000.0
 20
-74540.0
 10
43857.0
 20
-73968.501
 10
43857.0
 20
-75111.5
  0
HATCH
  5
32
100
AcDbEntity
  8
ASSEMBLY_OUTLINES_TOP
100
AcDbHatch
 10
0.0
 20
0.0
 30
0.0
210
0.0
220
0.0
230
1.0
  2
SOLID
 70
         1
 71
         1
 91
        1
 92
        2
 72
         0
 73
         1
 93
        3
 10
45000.0
 20
-74540.0
 10
43857.0
 20
-73968.501000000004
 10
43857.0
 20
-75111.5
 97
        1
330
31
 75
         0
 76
         1
 98
        1
 10
0.0
 20
0.0
  0
LWPOLYLINE
  5
33
100
AcDbEntity
  8
ASSEMBLY_OUTLINES_TOP
100
AcDbPolyline
 90
        3
 70
         1
 10
0.0
 20
-74540.0
 10
1143.0
 20
-75111.5
 10
1143.0
 20
-73968.5
  0
HATCH
  5
34
100
AcDbEntity
  8
ASSEMBLY_OUTLINES_TOP
100
AcDbHatch
 10
0.0
 20
0.0
 30
0.0
210
0.0
220
0.0
230
1.0
  2
SOLID
 70
         1
 71
         1
 91
        1
 92
        2
 72
         0
 73
         1
 93
        3
 10
0.0
 20
-74540.0
 10
1143.0
 20
-75111.5
 10
1143.0
 20
-73968.5
 97
        1
330
33
 75
         0
 76
         1
 98
        1
 10
0.0
 20
0.0
  0
LWPOLYLINE
  5
35
100
AcDbEntity
  8
ASSEMBLY_OUTLINES_TOP
100
AcDbPolyline
 90
        2
 70
         0
 43
203.2
 10
29385.781
 20
-74540.0
 10
44428.5
 20
-74540.0
  0
LWPOLYLINE
  5
36
100
AcDbEntity
  8
ASSEMBLY_OUTLINES_TOP
100
AcDbPolyline
 90
        2
 70
         0
 43
203.2
 10
571.5
 20
-74540.0
 10
15614.219
 20
-74540.0
  0
LWPOLYLINE
  5
37
100
AcDbEntity
  8
ASSEMBLY_OUTLINES_TOP
100
AcDbPolyline
 90
        2
 70
         0
 43
203.2
 10
45000.0
 20
-72508.0
 10
45000.0
 20
-75048.0
  0
LWPOLYLINE
  5
38
100
AcDbEntity
  8
ASSEMBLY_OUTLINES_TOP
100
AcDbPolyline
 90
        2
 70
         0
 43
203.2
 10
0.0
 20
-72508.0
 10
0.0
 20
-75048.0
  0
TEXT
  5
3A
100
AcDbEntity
  8
ASSEMBLY_OUTLINES_TOP
100
AcDbText
 10
48200.4
 20
-37107.6
 30
0.0
 40
1270.0
  1
72000um
 50
90.0
  7
ARIAL
 72
         1
 11
47540.0
 21
-33323.0
 31
0.0
100
AcDbText
 73
         2
  0
TEXT
  5
3B
100
AcDbEntity
  8
ASSEMBLY_OUTLINES_TOP
100
AcDbText
 10
47882.9
 20
-38650.491
 30
0.0
 40
1270.0
  1
+
 50
90.0
  7
ARIAL
 72
         1
 11
47222.5
 21
-38120.266
 31
0.0
100
AcDbText
 73
         2
  0
TEXT
  5
3C
100
AcDbEntity
  8
ASSEMBLY_OUTLINES_TOP
100
AcDbText
 10
48517.9
 20
-38183.163
 30
0.0
 40
1270.0
  1
-
 50
90.0
  7
ARIAL
 72
         1
 11
47857.5
 21
-37880.903
 31
0.0
100
AcDbText
 73
         2
  0
TEXT
  5
3D
100
AcDbEntity
  8
ASSEMBLY_OUTLINES_TOP
100
AcDbText
 10
48200.4
 20
-42562.567
 30
0.0
 40
1270.0
  1
0um
 50
90.0
  7
ARIAL
 72
         1
 11
47540.0
 21
-40797.267
 31
0.0
100
AcDbText
 73
         2
  0
TEXT
  5
3E
100
AcDbEntity
  8
ASSEMBLY_OUTLINES_TOP
100
AcDbText
 10
16038.399
 20
-75200.4
 30
0.0
 40
1270.0
  1
45000um
  7
ARIAL
 72
         1
 11
19822.999
 21
-74540.0
 31
0.0
100
AcDbText
 73
         2
  0
TEXT
  5
3F
100
AcDbEntity
  8
ASSEMBLY_OUTLINES_TOP
100
AcDbText
 10
24090.04
 20
-75517.9
 30
0.0
 40
1270.0
  1
+
  7
ARIAL
 72
         1
 11
24620.265
 21
-74857.5
 31
0.0
100
AcDbText
 73
         2
  0
TEXT
  5
40
100
AcDbEntity
  8
ASSEMBLY_OUTLINES_TOP
100
AcDbText
 10
24078.642
 20
-74882.9
 30
0.0
 40
1270.0
  1
-
  7
ARIAL
 72
         1
 11
24380.902
 21
-74222.5
 31
0.0
100
AcDbText
 73
         2
  0
TEXT
  5
41
100
AcDbEntity
  8
ASSEMBLY_OUTLINES_TOP
100
AcDbText
 10
25531.966
 20
-75200.4
 30
0.0
 40
1270.0
  1
0um
  7
ARIAL
 72
         1
 11
27297.266
 21
-74540.0
 31
0.0
100
AcDbText
 73
         2
  0
LWPOLYLINE
  5
42
100
AcDbEntity
  8
ASSEMBLY_OUTLINES_TOP
100
AcDbPolyline
 90
        4
 70
         1
 10
36210.0
 20
-65880.0
 10
36210.0
 20
-59880.0
 10
39110.0
 20
-59880.0
 10
39110.0
 20
-65880.0
  0
LWPOLYLINE
  5
43
100
AcDbEntity
  8
ASSEMBLY_OUTLINES_TOP
100
AcDbPolyline
 90
        4
 70
         1
 43
150.0
 10
36460.0
 20
-64280.0
 10
36460.0
 20
-61480.0
 10
38860.0
 20
-61480.0
 10
38860.0
 20
-64280.0
  0
LWPOLYLINE
  5
44
100
AcDbEntity
  8
ASSEMBLY_OUTLINES_TOP
100
AcDbPolyline
 90
        4
 70
         1
 43
150.0
 10
39610.0
 20
-64270.0
 10
39610.0
 20
-61270.0
 10
43110.0
 20
-61270.0
 10
43110.0
 20
-64270.0
  0
LWPOLYLINE
  5
45
100
AcDbEntity
  8
ASSEMBLY_OUTLINES_TOP
100
AcDbPolyline
 90
        4
 70
         0
 43
250.0
 10
40660.0
 20
-7370.0
 10
40660.0
 20
-7170.0
 10
41060.0
 20
-7170.0
 10
41060.0
 20
-7370.0
  0
LWPOLYLINE
  5
46
100
AcDbEntity
  8
ASSEMBLY_OUTLINES_TOP
100
AcDbPolyline
 90
        4
 70
         0
 43
200.0
 10
34100.0
 20
-60800.0
 10
34100.0
 20
-60400.0
 10
32900.0
 20
-60400.0
 10
32900.0
 20
-60800.0
  0
LWPOLYLINE
  5
47
100
AcDbEntity
  8
ASSEMBLY_OUTLINES_TOP
100
AcDbPolyline
 90
        4
 70
         0
 43
200.0
 10
14055.625
 20
-5639.999
 10
14055.625
 20
-5239.999
 10
12855.625
 20
-5239.999
 10
12855.625
 20
-5639.999
  0
CIRCLE
  5
48
100
AcDbEntity
  8
ASSEMBLY_OUTLINES_TOP
100
AcDbCircle
 10
13455.625
 20
-3689.999
 30
0.0
 40
353.553
  0
HATCH
  5
49
100
AcDbEntity
  8
ASSEMBLY_OUTLINES_TOP
100
AcDbHatch
 10
0.0
 20
0.0
 30
0.0
210
0.0
220
0.0
230
1.0
  2
SOLID
 70
         1
 71
         1
 91
        1
 92
        1
 93
        1
 72
         2
 10
13455.625
 20
-3689.9989999999998
 40
353.553
 50
0.0
 51
360.0
 73
         1
 97
        1
330
48
 75
         0
 76
         1
 98
        1
 10
0.0
 20
0.0
  0
LWPOLYLINE
  5
4A
100
AcDbEntity
  8
ASSEMBLY_OUTLINES_TOP
100
AcDbPolyline
 90
        4
 70
         0
 43
250.0
 10
13264.375
 20
-8560.001
 10
13264.375
 20
-8360.001
 10
13664.375
 20
-8360.001
 10
13664.375
 20
-8560.001
  0
LWPOLYLINE
  5
4B
100
AcDbEntity
  8
ASSEMBLY_OUTLINES_TOP
100
AcDbPolyline
 90
        4
 70
         0
 43
250.0
 10
13255.625
 20
-35399.999
 10
13255.625
 20
-35199.999
 10
13655.625
 20
-35199.999
 10
13655.625
 20
-35399.999
  0
LWPOLYLINE
  5
4C
100
AcDbEntity
  8
ASSEMBLY_OUTLINES_TOP
100
AcDbPolyline
 90
        4
 70
         0
 43
200.0
 10
14044.375
 20
-32500.001
 10
14044.375
 20
-32100.001
 10
12844.375
 20
-32100.001
 10
12844.375
 20
-32500.001
  0
CIRCLE
  5
4D
100
AcDbEntity
  8
ASSEMBLY_OUTLINES_TOP
100
AcDbCircle
 10
13444.375
 20
-30550.001
 30
0.0
 40
353.553
  0
HATCH
  5
4E
100
AcDbEntity
  8
ASSEMBLY_OUTLINES_TOP
100
AcDbHatch
 10
0.0
 20
0.0
 30
0.0
210
0.0
220
0.0
230
1.0
  2
SOLID
 70
         1
 71
         1
 91
        1
 92
        1
 93
        1
 72
         2
 10
13444.375
 20
-30550.001
 40
353.553
 50
0.0
 51
360.0
 73
         1
 97
        1
330
4D
 75
         0
 76
         1
 98
        1
 10
0.0
 20
0.0
  0
LWPOLYLINE
  5
4F
100
AcDbEntity
  8
ASSEMBLY_OUTLINES_TOP
100
AcDbPolyline
 90
        4
 70
         0
 43
250.0
 10
10360.0
 20
-17380.0
 10
10360.0
 20
-17180.0
 10
10760.0
 20
-17180.0
 10
10760.0
 20
-17380.0
  0
LWPOLYLINE
  5
50
100
AcDbEntity
  8
ASSEMBLY_OUTLINES_TOP
100
AcDbPolyline
 90
        2
 70
         0
 43
200.0
 10
37276.25
 20
-11482.5
 10
37276.25
 20
-12117.5
  0
LWPOLYLINE
  5
51
100
AcDbEntity
  8
ASSEMBLY_OUTLINES_TOP
100
AcDbPolyline
 90
        2
 70
         0
 43
200.0
 10
37276.25
 20
-12117.5
 10
36323.75
 20
-12117.5
  0
LWPOLYLINE
  5
52
100
AcDbEntity
  8
ASSEMBLY_OUTLINES_TOP
100
AcDbPolyline
 90
        2
 70
         0
 43
200.0
 10
36323.75
 20
-12117.5
 10
36323.75
 20
-11482.5
  0
LWPOLYLINE
  5
53
100
AcDbEntity
  8
ASSEMBLY_OUTLINES_TOP
100
AcDbPolyline
 90
        2
 70
         0
 43
200.0
 10
38576.25
 20
-11482.5
 10
38576.25
 20
-12117.5
  0
LWPOLYLINE
  5
54
100
AcDbEntity
  8
ASSEMBLY_OUTLINES_TOP
100
AcDbPolyline
 90
        2
 70
         0
 43
200.0
 10
38576.25
 20
-12117.5
 10
37623.75
 20
-12117.5
  0
LWPOLYLINE
  5
55
100
AcDbEntity
  8
ASSEMBLY_OUTLINES_TOP
100
AcDbPolyline
 90
        2
 70
         0
 43
200.0
 10
37623.75
 20
-12117.5
 10
37623.75
 20
-11482.5
  0
LWPOLYLINE
  5
56
100
AcDbEntity
  8
ASSEMBLY_OUTLINES_TOP
100
AcDbPolyline
 90
        4
 70
         0
 43
250.0
 10
36800.0
 20
-9700.0
 10
37000.0
 20
-9700.0
 10
37000.0
 20
-10100.0
 10
36800.0
 20
-10100.0
  0
LWPOLYLINE
  5
57
100
AcDbEntity
  8
ASSEMBLY_OUTLINES_TOP
100
AcDbPolyline
 90
        6
 70
         1
 43
100.0
 10
350.0
 20
-7950.0
 10
350.0
 20
-9450.0
 10
-6150.0
 20
-9450.0
 10
-6150.0
 20
-30450.0
 10
8550.0
 20
-30450.0
 10
8550.0
 20
-7950.0
  0
LWPOLYLINE
  5
58
100
AcDbEntity
  8
ASSEMBLY_OUTLINES_TOP
100
AcDbPolyline
 90
        2
 70
         0
 43
100.0
 10
-6275.0
 20
-27625.0
 10
-8650.0
 20
-27625.0
  0
LWPOLYLINE
  5
59
100
AcDbEntity
  8
ASSEMBLY_OUTLINES_TOP
100
AcDbPolyline
 90
        2
 70
         0
 43
100.0
 10
-6250.0
 20
-27625.0
 10
-6700.0
 20
-28050.0
  0
LWPOLYLINE
  5
5A
100
AcDbEntity
  8
ASSEMBLY_OUTLINES_TOP
100
AcDbPolyline
 90
        2
 70
         0
 43
100.0
 10
-6250.0
 20
-27625.0
 10
-6675.0
 20
-27250.0
  0
LWPOLYLINE
  5
5B
100
AcDbEntity
  8
ASSEMBLY_OUTLINES_TOP
100
AcDbPolyline
 90
        2
 70
         0
 43
100.0
 10
-6275.0
 20
-19900.0
 10
-8650.0
 20
-19900.0
  0
LWPOLYLINE
  5
5C
100
AcDbEntity
  8
ASSEMBLY_OUTLINES_TOP
100
AcDbPolyline
 90
        2
 70
         0
 43
100.0
 10
-6250.0
 20
-19900.0
 10
-6700.0
 20
-20325.0
  0
LWPOLYLINE
  5
5D
100
AcDbEntity
  8
ASSEMBLY_OUTLINES_TOP
100
AcDbPolyline
 90
        2
 70
         0
 43
100.0
 10
-6250.0
 20
-19900.0
 10
-6675.0
 20
-19525.0
  0
LWPOLYLINE
  5
5E
100
AcDbEntity
  8
ASSEMBLY_OUTLINES_TOP
100
AcDbPolyline
 90
        2
 70
         0
 43
100.0
 10
-6275.0
 20
-13250.0
 10
-8650.0
 20
-13250.0
  0
LWPOLYLINE
  5
5F
100
AcDbEntity
  8
ASSEMBLY_OUTLINES_TOP
100
AcDbPolyline
 90
        2
 70
         0
 43
100.0
 10
-6250.0
 20
-13250.0
 10
-6700.0
 20
-13675.0
  0
LWPOLYLINE
  5
60
100
AcDbEntity
  8
ASSEMBLY_OUTLINES_TOP
100
AcDbPolyline
 90
        2
 70
         0
 43
100.0
 10
-6250.0
 20
-13250.0
 10
-6675.0
 20
-12875.0
  0
LWPOLYLINE
  5
61
100
AcDbEntity
  8
ASSEMBLY_OUTLINES_TOP
100
AcDbPolyline
 90
        4
 70
         0
 43
250.0
 10
14420.0
 20
-43680.0
 10
14620.0
 20
-43680.0
 10
14620.0
 20
-44080.0
 10
14420.0
 20
-44080.0
  0
LWPOLYLINE
  5
62
100
AcDbEntity
  8
ASSEMBLY_OUTLINES_TOP
100
AcDbPolyline
 90
        4
 70
         0
 43
250.0
 10
15040.0
 20
-13510.0
 10
15040.0
 20
-13710.0
 10
14640.0
 20
-13710.0
 10
14640.0
 20
-13510.0
  0
LWPOLYLINE
  5
63
100
AcDbEntity
  8
ASSEMBLY_OUTLINES_TOP
100
AcDbPolyline
 90
        4
 70
         0
 43
250.0
 10
11420.626
 20
-17401.563
 10
11420.626
 20
-17201.563
 10
11820.626
 20
-17201.563
 10
11820.626
 20
-17401.563
  0
LWPOLYLINE
  5
64
100
AcDbEntity
  8
ASSEMBLY_OUTLINES_TOP
100
AcDbPolyline
 90
        4
 70
         0
 43
250.0
 10
28950.0
 20
-42890.0
 10
28950.0
 20
-42690.0
 10
29350.0
 20
-42690.0
 10
29350.0
 20
-42890.0
  0
LWPOLYLINE
  5
65
100
AcDbEntity
  8
ASSEMBLY_OUTLINES_TOP
100
AcDbPolyline
 90
        6
 70
         0
 43
150.0
 10
25695.0
 20
-43725.0
 10
25695.0
 20
-42625.0
 10
25895.0
 20
-42425.0
 10
26895.0
 20
-42425.0
 10
27095.0
 20
-42625.0
 10
27095.0
 20
-43725.0
  0
LWPOLYLINE
  5
66
100
AcDbEntity
  8
ASSEMBLY_OUTLINES_TOP
100
AcDbPolyline
 90
        4
 70
         0
 43
250.0
 10
32120.0
 20
-40480.0
 10
31920.0
 20
-40480.0
 10
31920.0
 20
-40080.0
 10
32120.0
 20
-40080.0
  0
LWPOLYLINE
  5
67
100
AcDbEntity
  8
ASSEMBLY_OUTLINES_TOP
100
AcDbPolyline
 90
        4
 70
         0
 43
250.0
 10
37920.0
 20
-22080.0
 10
38120.0
 20
-22080.0
 10
38120.0
 20
-22480.0
 10
37920.0
 20
-22480.0
  0
LWPOLYLINE
  5
68
100
AcDbEntity
  8
ASSEMBLY_OUTLINES_TOP
100
AcDbPolyline
 90
        4
 70
         0
 43
250.0
 10
41750.0
 20
-25358.437
 10
41550.0
 20
-25358.437
 10
41550.0
 20
-24958.437
 10
41750.0
 20
-24958.437
  0
LWPOLYLINE
  5
69
100
AcDbEntity
  8
ASSEMBLY_OUTLINES_TOP
100
AcDbPolyline
 90
        4
 70
         0
 43
200.0
 10
13200.0
 20
-23600.0
 10
12800.0
 20
-23600.0
 10
12800.0
 20
-24800.0
 10
13200.0
 20
-24800.0
  0
LWPOLYLINE
  5
6A
100
AcDbEntity
  8
ASSEMBLY_OUTLINES_TOP
100
AcDbPolyline
 90
        6
 70
         0
 43
150.0
 10
13455.0
 20
-19175.0
 10
13455.0
 20
-18075.0
 10
13655.0
 20
-17875.0
 10
14655.0
 20
-17875.0
 10
14855.0
 20
-18075.0
 10
14855.0
 20
-19175.0
  0
LWPOLYLINE
  5
6B
100
AcDbEntity
  8
ASSEMBLY_OUTLINES_TOP
100
AcDbPolyline
 90
        4
 70
         0
 43
250.0
 10
12080.0
 20
-22220.0
 10
11880.0
 20
-22220.0
 10
11880.0
 20
-21820.0
 10
12080.0
 20
-21820.0
  0
LWPOLYLINE
  5
6C
100
AcDbEntity
  8
ASSEMBLY_OUTLINES_TOP
100
AcDbPolyline
 90
        4
 70
         0
 43
250.0
 10
37640.0
 20
-3860.0
 10
37840.0
 20
-3860.0
 10
37840.0
 20
-4260.0
 10
37640.0
 20
-4260.0
  0
LWPOLYLINE
  5
6D
100
AcDbEntity
  8
ASSEMBLY_OUTLINES_TOP
100
AcDbPolyline
 90
        4
 70
         0
 43
250.0
 10
12250.0
 20
-11640.0
 10
12250.0
 20
-11840.0
 10
11850.0
 20
-11840.0
 10
11850.0
 20
-11640.0
  0
LWPOLYLINE
  5
6E
100
AcDbEntity
  8
ASSEMBLY_OUTLINES_TOP
100
AcDbPolyline
 90
        4
 70
         0
 43
250.0
 10
37400.0
 20
-8400.0
 10
37200.0
 20
-8400.0
 10
37200.0
 20
-8000.0
 10
37400.0
 20
-8000.0
  0
LWPOLYLINE
  5
6F
100
AcDbEntity
  8
ASSEMBLY_OUTLINES_TOP
100
AcDbPolyline
 90
        4
 70
         0
 43
250.0
 10
39700.0
 20
-7400.0
 10
39700.0
 20
-7200.0
 10
40100.0
 20
-7200.0
 10
40100.0
 20
-7400.0
  0
LWPOLYLINE
  5
70
100
AcDbEntity
  8
ASSEMBLY_OUTLINES_TOP
100
AcDbPolyline
 90
        4
 70
         0
 43
250.0
 10
35100.0
 20
-6400.0
 10
35100.0
 20
-6200.0
 10
35500.0
 20
-6200.0
 10
35500.0
 20
-6400.0
  0
LWPOLYLINE
  5
71
100
AcDbEntity
  8
ASSEMBLY_OUTLINES_TOP
100
AcDbPolyline
 90
        4
 70
         0
 43
250.0
 10
37400.0
 20
-6500.0
 10
37200.0
 20
-6500.0
 10
37200.0
 20
-6100.0
 10
37400.0
 20
-6100.0
  0
LWPOLYLINE
  5
72
100
AcDbEntity
  8
ASSEMBLY_OUTLINES_TOP
100
AcDbPolyline
 90
        4
 70
         0
 43
250.0
 10
33845.0
 20
-7325.0
 10
33845.0
 20
-7525.0
 10
33445.0
 20
-7525.0
 10
33445.0
 20
-7325.0
  0
LWPOLYLINE
  5
73
100
AcDbEntity
  8
ASSEMBLY_OUTLINES_TOP
100
AcDbPolyline
 90
        4
 70
         0
 43
250.0
 10
33845.0
 20
-5645.0
 10
33845.0
 20
-5845.0
 10
33445.0
 20
-5845.0
 10
33445.0
 20
-5645.0
  0
LWPOLYLINE
  5
74
100
AcDbEntity
  8
ASSEMBLY_OUTLINES_TOP
100
AcDbPolyline
 90
        4
 70
         0
 43
250.0
 10
31345.0
 20
-7425.0
 10
31345.0
 20
-7625.0
 10
30945.0
 20
-7625.0
 10
30945.0
 20
-7425.0
  0
LWPOLYLINE
  5
75
100
AcDbEntity
  8
ASSEMBLY_OUTLINES_TOP
100
AcDbPolyline
 90
        2
 70
         0
 43
200.0
 10
32876.25
 20
-6282.5
 10
32876.25
 20
-6917.5
  0
LWPOLYLINE
  5
76
100
AcDbEntity
  8
ASSEMBLY_OUTLINES_TOP
100
AcDbPolyline
 90
        2
 70
         0
 43
200.0
 10
32876.25
 20
-6917.5
 10
31923.75
 20
-6917.5
  0
LWPOLYLINE
  5
77
100
AcDbEntity
  8
ASSEMBLY_OUTLINES_TOP
100
AcDbPolyline
 90
        2
 70
         0
 43
200.0
 10
31923.75
 20
-6917.5
 10
31923.75
 20
-6282.5
  0
LWPOLYLINE
  5
78
100
AcDbEntity
  8
ASSEMBLY_OUTLINES_TOP
100
AcDbPolyline
 90
        4
 70
         0
 43
250.0
 10
32095.0
 20
-23725.0
 10
32295.0
 20
-23725.0
 10
32295.0
 20
-24125.0
 10
32095.0
 20
-24125.0
  0
LWPOLYLINE
  5
79
100
AcDbEntity
  8
ASSEMBLY_OUTLINES_TOP
100
AcDbPolyline
 90
        4
 70
         0
 43
250.0
 10
30995.0
 20
-25225.0
 10
30995.0
 20
-25425.0
 10
30595.0
 20
-25425.0
 10
30595.0
 20
-25225.0
  0
LWPOLYLINE
  5
7A
100
AcDbEntity
  8
ASSEMBLY_OUTLINES_TOP
100
AcDbPolyline
 90
        4
 70
         0
 43
250.0
 10
31995.0
 20
-25225.0
 10
31995.0
 20
-25425.0
 10
31595.0
 20
-25425.0
 10
31595.0
 20
-25225.0
  0
LWPOLYLINE
  5
7B
100
AcDbEntity
  8
ASSEMBLY_OUTLINES_TOP
100
AcDbPolyline
 90
        2
 70
         0
 43
200.0
 10
38526.25
 20
-29382.5
 10
38526.25
 20
-30017.5
  0
LWPOLYLINE
  5
7C
100
AcDbEntity
  8
ASSEMBLY_OUTLINES_TOP
100
AcDbPolyline
 90
        2
 70
         0
 43
200.0
 10
38526.25
 20
-30017.5
 10
37573.75
 20
-30017.5
  0
LWPOLYLINE
  5
7D
100
AcDbEntity
  8
ASSEMBLY_OUTLINES_TOP
100
AcDbPolyline
 90
        2
 70
         0
 43
200.0
 10
37573.75
 20
-30017.5
 10
37573.75
 20
-29382.5
  0
LWPOLYLINE
  5
7E
100
AcDbEntity
  8
ASSEMBLY_OUTLINES_TOP
100
AcDbPolyline
 90
        2
 70
         0
 43
200.0
 10
37226.25
 20
-29382.5
 10
37226.25
 20
-30017.5
  0
LWPOLYLINE
  5
7F
100
AcDbEntity
  8
ASSEMBLY_OUTLINES_TOP
100
AcDbPolyline
 90
        2
 70
         0
 43
200.0
 10
37226.25
 20
-30017.5
 10
36273.75
 20
-30017.5
  0
LWPOLYLINE
  5
80
100
AcDbEntity
  8
ASSEMBLY_OUTLINES_TOP
100
AcDbPolyline
 90
        2
 70
         0
 43
200.0
 10
36273.75
 20
-30017.5
 10
36273.75
 20
-29382.5
  0
LWPOLYLINE
  5
81
100
AcDbEntity
  8
ASSEMBLY_OUTLINES_TOP
100
AcDbPolyline
 90
        4
 70
         0
 43
250.0
 10
29500.0
 20
-7100.0
 10
29300.0
 20
-7100.0
 10
29300.0
 20
-6700.0
 10
29500.0
 20
-6700.0
  0
LWPOLYLINE
  5
82
100
AcDbEntity
  8
ASSEMBLY_OUTLINES_TOP
100
AcDbPolyline
 90
        2
 70
         0
 43
150.0
 10
35314.96
 20
-26954.99
 10
35314.96
 20
-26754.99
  0
LWPOLYLINE
  5
83
100
AcDbEntity
  8
ASSEMBLY_OUTLINES_TOP
100
AcDbPolyline
 90
        2
 70
         0
 43
150.0
 10
35314.96
 20
-26754.99
 10
32314.96
 20
-26754.99
  0
LWPOLYLINE
  5
84
100
AcDbEntity
  8
ASSEMBLY_OUTLINES_TOP
100
AcDbPolyline
 90
        2
 70
         0
 43
150.0
 10
32314.96
 20
-26754.99
 10
32314.96
 20
-27054.99
  0
LWPOLYLINE
  5
85
100
AcDbEntity
  8
ASSEMBLY_OUTLINES_TOP
100
AcDbPolyline
 90
        2
 70
         0
 43
150.0
 10
32314.96
 20
-29454.99
 10
32614.96
 20
-29754.99
  0
LWPOLYLINE
  5
86
100
AcDbEntity
  8
ASSEMBLY_OUTLINES_TOP
100
AcDbPolyline
 90
        2
 70
         0
 43
150.0
 10
32614.96
 20
-29754.99
 10
35314.96
 20
-29754.99
  0
LWPOLYLINE
  5
87
100
AcDbEntity
  8
ASSEMBLY_OUTLINES_TOP
100
AcDbPolyline
 90
        2
 70
         0
 43
150.0
 10
35314.96
 20
-29754.99
 10
35314.96
 20
-29454.99
  0
CIRCLE
  5
88
100
AcDbEntity
  8
ASSEMBLY_OUTLINES_TOP
100
AcDbCircle
 10
32614.92
 20
-29654.98
 30
0.0
 40
250.0
  0
HATCH
  5
89
100
AcDbEntity
  8
ASSEMBLY_OUTLINES_TOP
100
AcDbHatch
 10
0.0
 20
0.0
 30
0.0
210
0.0
220
0.0
230
1.0
  2
SOLID
 70
         1
 71
         1
 91
        1
 92
        1
 93
        1
 72
         2
 10
32614.919999999998
 20
-29654.98
 40
250.0
 50
0.0
 51
360.0
 73
         1
 97
        1
330
88
 75
         0
 76
         1
 98
        1
 10
0.0
 20
0.0
  0
LWPOLYLINE
  5
8A
100
AcDbEntity
  8
ASSEMBLY_OUTLINES_TOP
100
AcDbPolyline
 90
        4
 70
         0
 43
250.0
 10
36948.405
 20
-27553.432
 10
37148.405
 20
-27553.432
 10
37148.405
 20
-27953.432
 10
36948.405
 20
-27953.432
  0
LWPOLYLINE
  5
8B
100
AcDbEntity
  8
ASSEMBLY_OUTLINES_TOP
100
AcDbPolyline
 90
        4
 70
         0
 43
250.0
 10
32995.0
 20
-25225.0
 10
32995.0
 20
-25425.0
 10
32595.0
 20
-25425.0
 10
32595.0
 20
-25225.0
  0
LWPOLYLINE
  5
8C
100
AcDbEntity
  8
ASSEMBLY_OUTLINES_TOP
100
AcDbPolyline
 90
        4
 70
         0
 43
250.0
 10
36295.0
 20
-25025.0
 10
36095.0
 20
-25025.0
 10
36095.0
 20
-24625.0
 10
36295.0
 20
-24625.0
  0
LWPOLYLINE
  5
8D
100
AcDbEntity
  8
ASSEMBLY_OUTLINES_TOP
100
AcDbPolyline
 90
        2
 70
         0
 43
200.0
 10
38018.75
 20
-25742.5
 10
38018.75
 20
-25107.5
  0
LWPOLYLINE
  5
8E
100
AcDbEntity
  8
ASSEMBLY_OUTLINES_TOP
100
AcDbPolyline
 90
        2
 70
         0
 43
200.0
 10
38018.75
 20
-25107.5
 10
38971.25
 20
-25107.5
  0
LWPOLYLINE
  5
8F
100
AcDbEntity
  8
ASSEMBLY_OUTLINES_TOP
100
AcDbPolyline
 90
        2
 70
         0
 43
200.0
 10
38971.25
 20
-25107.5
 10
38971.25
 20
-25742.5
  0
LWPOLYLINE
  5
90
100
AcDbEntity
  8
ASSEMBLY_OUTLINES_TOP
100
AcDbPolyline
 90
        4
 70
         0
 43
250.0
 10
36395.0
 20
-26125.0
 10
36195.0
 20
-26125.0
 10
36195.0
 20
-25725.0
 10
36395.0
 20
-25725.0
  0
LWPOLYLINE
  5
91
100
AcDbEntity
  8
ASSEMBLY_OUTLINES_TOP
100
AcDbPolyline
 90
        4
 70
         0
 43
250.0
 10
34195.0
 20
-24725.0
 10
34195.0
 20
-24525.0
 10
34595.0
 20
-24525.0
 10
34595.0
 20
-24725.0
  0
CIRCLE
  5
92
100
AcDbEntity
  8
ASSEMBLY_OUTLINES_TOP
100
AcDbCircle
 10
23495.0
 20
-32825.0
 30
0.0
 40
6800.0
  0
CIRCLE
  5
93
100
AcDbEntity
  8
ASSEMBLY_OUTLINES_TOP
100
AcDbCircle
 10
23745.0
 20
-26075.0
 30
0.0
 40
790.569
  0
HATCH
  5
94
100
AcDbEntity
  8
ASSEMBLY_OUTLINES_TOP
100
AcDbHatch
 10
0.0
 20
0.0
 30
0.0
210
0.0
220
0.0
230
1.0
  2
SOLID
 70
         1
 71
         1
 91
        1
 92
        1
 93
        1
 72
         2
 10
23745.0
 20
-26075.0
 40
790.56899999999996
 50
0.0
 51
360.0
 73
         1
 97
        1
330
93
 75
         0
 76
         1
 98
        1
 10
0.0
 20
0.0
  0
LWPOLYLINE
  5
95
100
AcDbEntity
  8
ASSEMBLY_OUTLINES_TOP
100
AcDbPolyline
 90
        3
 70
         0
 43
200.0
 10
31718.999
 20
-32612.595
 10
31718.999
 20
-31804.595
 10
40295.0
 20
-31825.0
  0
LWPOLYLINE
  5
96
100
AcDbEntity
  8
ASSEMBLY_OUTLINES_TOP
100
AcDbPolyline
 90
        4
 70
         0
 43
200.0
 10
40295.0
 20
-31825.0
 10
40289.0
 20
-38246.0
 10
31746.0
 20
-38246.0
 10
31746.0
 20
-37438.0
  0
LWPOLYLINE
  5
97
100
AcDbEntity
  8
ASSEMBLY_OUTLINES_TOP
100
AcDbPolyline
 90
        6
 70
         0
 43
150.0
 10
41550.0
 20
-30100.0
 10
40450.0
 20
-30100.0
 10
40250.0
 20
-29900.0
 10
40250.0
 20
-28900.0
 10
40450.0
 20
-28700.0
 10
41550.0
 20
-28700.0
  0
LWPOLYLINE
  5
98
100
AcDbEntity
  8
ASSEMBLY_OUTLINES_TOP
100
AcDbPolyline
 90
        2
 70
         0
 43
150.0
 10
35364.96
 20
-9154.99
 10
35364.96
 20
-8954.99
  0
LWPOLYLINE
  5
99
100
AcDbEntity
  8
ASSEMBLY_OUTLINES_TOP
100
AcDbPolyline
 90
        2
 70
         0
 43
150.0
 10
35364.96
 20
-8954.99
 10
32364.96
 20
-8954.99
  0
LWPOLYLINE
  5
9A
100
AcDbEntity
  8
ASSEMBLY_OUTLINES_TOP
100
AcDbPolyline
 90
        2
 70
         0
 43
150.0
 10
32364.96
 20
-8954.99
 10
32364.96
 20
-9254.99
  0
LWPOLYLINE
  5
9B
100
AcDbEntity
  8
ASSEMBLY_OUTLINES_TOP
100
AcDbPolyline
 90
        2
 70
         0
 43
150.0
 10
32364.96
 20
-11654.99
 10
32664.96
 20
-11954.99
  0
LWPOLYLINE
  5
9C
100
AcDbEntity
  8
ASSEMBLY_OUTLINES_TOP
100
AcDbPolyline
 90
        2
 70
         0
 43
150.0
 10
32664.96
 20
-11954.99
 10
35364.96
 20
-11954.99
  0
LWPOLYLINE
  5
9D
100
AcDbEntity
  8
ASSEMBLY_OUTLINES_TOP
100
AcDbPolyline
 90
        2
 70
         0
 43
150.0
 10
35364.96
 20
-11954.99
 10
35364.96
 20
-11654.99
  0
CIRCLE
  5
9E
100
AcDbEntity
  8
ASSEMBLY_OUTLINES_TOP
100
AcDbCircle
 10
32664.92
 20
-11854.98
 30
0.0
 40
250.0
  0
HATCH
  5
9F
100
AcDbEntity
  8
ASSEMBLY_OUTLINES_TOP
100
AcDbHatch
 10
0.0
 20
0.0
 30
0.0
210
0.0
220
0.0
230
1.0
  2
SOLID
 70
         1
 71
         1
 91
        1
 92
        1
 93
        1
 72
         2
 10
32664.919999999998
 20
-11854.98
 40
250.0
 50
0.0
 51
360.0
 73
         1
 97
        1
330
9E
 75
         0
 76
         1
 98
        1
 10
0.0
 20
0.0
  0
CIRCLE
  5
A0
100
AcDbEntity
  8
ASSEMBLY_OUTLINES_TOP
100
AcDbCircle
 10
23545.0
 20
-15025.0
 30
0.0
 40
6800.0
  0
CIRCLE
  5
A1
100
AcDbEntity
  8
ASSEMBLY_OUTLINES_TOP
100
AcDbCircle
 10
23795.0
 20
-8275.0
 30
0.0
 40
790.569
  0
HATCH
  5
A2
100
AcDbEntity
  8
ASSEMBLY_OUTLINES_TOP
100
AcDbHatch
 10
0.0
 20
0.0
 30
0.0
210
0.0
220
0.0
230
1.0
  2
SOLID
 70
         1
 71
         1
 91
        1
 92
        1
 93
        1
 72
         2
 10
23795.0
 20
-8275.0
 40
790.56899999999996
 50
0.0
 51
360.0
 73
         1
 97
        1
330
A1
 75
         0
 76
         1
 98
        1
 10
0.0
 20
0.0
  0
LWPOLYLINE
  5
A3
100
AcDbEntity
  8
ASSEMBLY_OUTLINES_TOP
100
AcDbPolyline
 90
        6
 70
         0
 43
150.0
 10
41500.0
 20
-12200.0
 10
40400.0
 20
-12200.0
 10
40200.0
 20
-12000.0
 10
40200.0
 20
-11000.0
 10
40400.0
 20
-10800.0
 10
41500.0
 20
-10800.0
  0
LWPOLYLINE
  5
A4
100
AcDbEntity
  8
ASSEMBLY_OUTLINES_TOP
100
AcDbPolyline
 90
        3
 70
         0
 43
200.0
 10
31668.999
 20
-14512.595
 10
31668.999
 20
-13704.595
 10
40245.0
 20
-13725.0
  0
LWPOLYLINE
  5
A5
100
AcDbEntity
  8
ASSEMBLY_OUTLINES_TOP
100
AcDbPolyline
 90
        4
 70
         0
 43
200.0
 10
40245.0
 20
-13725.0
 10
40239.0
 20
-20146.0
 10
31696.0
 20
-20146.0
 10
31696.0
 20
-19338.0
  0
LWPOLYLINE
  5
A6
100
AcDbEntity
  8
ASSEMBLY_OUTLINES_TOP
100
AcDbPolyline
 90
        4
 70
         0
 43
200.0
 10
11600.0
 20
-52000.0
 10
11600.0
 20
-51600.0
 10
10400.0
 20
-51600.0
 10
10400.0
 20
-52000.0
  0
LWPOLYLINE
  5
A7
100
AcDbEntity
  8
ASSEMBLY_OUTLINES_TOP
100
AcDbPolyline
 90
        4
 70
         1
 43
100.0
 10
12550.0
 20
-56800.0
 10
12550.0
 20
-46800.0
 10
21250.0
 20
-46800.0
 10
21250.0
 20
-56800.0
  0
LWPOLYLINE
  5
A8
100
AcDbEntity
  8
ASSEMBLY_OUTLINES_TOP
100
AcDbPolyline
 90
        4
 70
         0
 43
200.0
 10
23500.0
 20
-52000.0
 10
23500.0
 20
-51600.0
 10
22300.0
 20
-51600.0
 10
22300.0
 20
-52000.0
  0
LWPOLYLINE
  5
A9
100
AcDbEntity
  8
ASSEMBLY_OUTLINES_TOP
100
AcDbPolyline
 90
        4
 70
         1
 10
4950.0
 20
-65800.0
 10
4950.0
 20
-59800.0
 10
7850.0
 20
-59800.0
 10
7850.0
 20
-65800.0
  0
LWPOLYLINE
  5
AA
100
AcDbEntity
  8
ASSEMBLY_OUTLINES_TOP
100
AcDbPolyline
 90
        4
 70
         1
 43
150.0
 10
5200.0
 20
-64200.0
 10
5200.0
 20
-61400.0
 10
7600.0
 20
-61400.0
 10
7600.0
 20
-64200.0
  0
LWPOLYLINE
  5
AB
100
AcDbEntity
  8
ASSEMBLY_OUTLINES_TOP
100
AcDbPolyline
 90
        4
 70
         1
 43
150.0
 10
8450.0
 20
-64400.0
 10
8450.0
 20
-61400.0
 10
11950.0
 20
-61400.0
 10
11950.0
 20
-64400.0
  0
LWPOLYLINE
  5
AC
100
AcDbEntity
  8
ASSEMBLY_OUTLINES_TOP
100
AcDbPolyline
 90
        4
 70
         0
 43
200.0
 10
19799.999
 20
-45749.996
 10
20199.999
 20
-45749.996
 10
20199.999
 20
-44549.996
 10
19799.999
 20
-44549.996
  0
LWPOLYLINE
  5
AD
100
AcDbEntity
  8
ASSEMBLY_OUTLINES_TOP
100
AcDbPolyline
 90
        4
 70
         0
 43
200.0
 10
23700.0
 20
-47749.996
 10
23300.0
 20
-47749.996
 10
23300.0
 20
-48949.996
 10
23700.0
 20
-48949.996
  0
LWPOLYLINE
  5
AE
100
AcDbEntity
  8
ASSEMBLY_OUTLINES_TOP
100
AcDbPolyline
 90
        6
 70
         0
 43
150.0
 10
24800.0
 20
-47100.0
 10
23700.0
 20
-47100.0
 10
23500.0
 20
-46900.0
 10
23500.0
 20
-45900.0
 10
23700.0
 20
-45700.0
 10
24800.0
 20
-45700.0
  0
LWPOLYLINE
  5
AF
100
AcDbEntity
  8
ASSEMBLY_OUTLINES_TOP
100
AcDbPolyline
 90
        4
 70
         0
 43
200.0
 10
18600.0
 20
-59300.0
 10
18600.0
 20
-58900.0
 10
17400.0
 20
-58900.0
 10
17400.0
 20
-59300.0
  0
LWPOLYLINE
  5
B0
100
AcDbEntity
  8
ASSEMBLY_OUTLINES_TOP
100
AcDbPolyline
 90
        4
 70
         0
 43
200.0
 10
20300.0
 20
-59300.0
 10
20300.0
 20
-58900.0
 10
19100.0
 20
-58900.0
 10
19100.0
 20
-59300.0
  0
LWPOLYLINE
  5
B1
100
AcDbEntity
  8
ASSEMBLY_OUTLINES_TOP
100
AcDbPolyline
 90
        4
 70
         0
 43
200.0
 10
16900.0
 20
-59300.0
 10
16900.0
 20
-58900.0
 10
15700.0
 20
-58900.0
 10
15700.0
 20
-59300.0
  0
LWPOLYLINE
  5
B2
100
AcDbEntity
  8
ASSEMBLY_OUTLINES_TOP
100
AcDbPolyline
 90
        4
 70
         0
 43
200.0
 10
22000.0
 20
-59300.0
 10
22000.0
 20
-58900.0
 10
20800.0
 20
-58900.0
 10
20800.0
 20
-59300.0
  0
LWPOLYLINE
  5
B3
100
AcDbEntity
  8
ASSEMBLY_OUTLINES_TOP
100
AcDbPolyline
 90
        2
 70
         0
 43
150.0
 10
22900.0
 20
-57000.0
 10
26700.0
 20
-57000.0
  0
LWPOLYLINE
  5
B4
100
AcDbEntity
  8
ASSEMBLY_OUTLINES_TOP
100
AcDbPolyline
 90
        4
 70
         0
 43
150.0
 10
26700.0
 20
-59000.0
 10
26700.0
 20
-56400.0
 10
22900.0
 20
-56400.0
 10
22900.0
 20
-59000.0
  0
LWPOLYLINE
  5
B5
100
AcDbEntity
  8
ASSEMBLY_OUTLINES_TOP
100
AcDbPolyline
 90
        2
 70
         1
 43
150.0
 10
24658.58
 20
-56800.0
 42
-1.0
 10
24941.42
 20
-56800.0
 42
-1.0
  0
LWPOLYLINE
  5
B6
100
AcDbEntity
  8
ASSEMBLY_OUTLINES_TOP
100
AcDbPolyline
 90
        2
 70
         1
 43
150.0
 10
24576.39
 20
-56800.0
 42
-1.0
 10
25023.61
 20
-56800.0
 42
-1.0
  0
LWPOLYLINE
  5
B7
100
AcDbEntity
  8
ASSEMBLY_OUTLINES_TOP
100
AcDbPolyline
 90
        2
 70
         1
 43
150.0
 10
24517.16
 20
-56800.0
 42
-1.0
 10
25082.84
 20
-56800.0
 42
-1.0
  0
LWPOLYLINE
  5
B8
100
AcDbEntity
  8
ASSEMBLY_OUTLINES_TOP
100
AcDbPolyline
 90
        2
 70
         1
 43
150.0
 10
24439.44
 20
-56800.0
 42
-1.0
 10
25160.56
 20
-56800.0
 42
-1.0
  0
LWPOLYLINE
  5
B9
100
AcDbEntity
  8
ASSEMBLY_OUTLINES_TOP
100
AcDbPolyline
 90
        2
 70
         0
 43
150.0
 10
28625.0
 20
-56647.813
 10
28225.0
 20
-56647.813
  0
LWPOLYLINE
  5
BA
100
AcDbEntity
  8
ASSEMBLY_OUTLINES_TOP
100
AcDbPolyline
 90
        2
 70
         0
 43
150.0
 10
28225.0
 20
-63647.813
 10
28625.0
 20
-63647.813
  0
LWPOLYLINE
  5
BB
100
AcDbEntity
  8
ASSEMBLY_OUTLINES_TOP
100
AcDbPolyline
 90
        2
 70
         0
 43
150.0
 10
31425.0
 20
-56647.813
 10
31825.0
 20
-56647.813
  0
LWPOLYLINE
  5
BC
100
AcDbEntity
  8
ASSEMBLY_OUTLINES_TOP
100
AcDbPolyline
 90
        2
 70
         0
 43
150.0
 10
31825.0
 20
-63647.813
 10
31425.0
 20
-63647.813
  0
LWPOLYLINE
  5
BD
100
AcDbEntity
  8
ASSEMBLY_OUTLINES_TOP
100
AcDbPolyline
 90
        2
 70
         0
 43
150.0
 10
27525.0
 20
-54947.813
 10
27525.0
 20
-66447.813
  0
LWPOLYLINE
  5
BE
100
AcDbEntity
  8
ASSEMBLY_OUTLINES_TOP
100
AcDbPolyline
 90
        2
 70
         0
 43
150.0
 10
27525.0
 20
-66447.813
 10
32525.0
 20
-66447.813
  0
LWPOLYLINE
  5
BF
100
AcDbEntity
  8
ASSEMBLY_OUTLINES_TOP
100
AcDbPolyline
 90
        2
 70
         0
 43
150.0
 10
32525.0
 20
-66447.813
 10
32525.0
 20
-54947.813
  0
LWPOLYLINE
  5
C0
100
AcDbEntity
  8
ASSEMBLY_OUTLINES_TOP
100
AcDbPolyline
 90
        2
 70
         0
 43
150.0
 10
32525.0
 20
-54947.813
 10
27525.0
 20
-54947.813
  0
LWPOLYLINE
  5
C1
100
AcDbEntity
  8
ASSEMBLY_OUTLINES_TOP
100
AcDbPolyline
 90
        4
 70
         1
 43
100.0
 10
17930.0
 20
-71600.0
 10
17930.0
 20
-62400.0
 10
26330.0
 20
-62400.0
 10
26330.0
 20
-71600.0
  0
LWPOLYLINE
  5
C2
100
AcDbEntity
  8
ASSEMBLY_OUTLINES_TOP
100
AcDbPolyline
 90
        3
 70
         1
 10
22730.0
 20
-72700.0
 10
22130.0
 20
-72000.0
 10
21530.0
 20
-72700.0
  0
HATCH
  5
C3
100
AcDbEntity
  8
ASSEMBLY_OUTLINES_TOP
100
AcDbHatch
 10
0.0
 20
0.0
 30
0.0
210
0.0
220
0.0
230
1.0
  2
SOLID
 70
         1
 71
         1
 91
        1
 92
        2
 72
         0
 73
         1
 93
        3
 10
22730.0
 20
-72700.0
 10
22130.0
 20
-72000.0
 10
21530.0
 20
-72700.0
 97
        1
330
C2
 75
         0
 76
         1
 98
        1
 10
0.0
 20
0.0
  0
SOLID
  5
C4
100
AcDbEntity
  8
ASSEMBLY_OUTLINES_TOP
100
AcDbTrace
 10
21830.0
 20
-73700.0
 30
0.0
 11
22430.0
 21
-73700.0
 31
0.0
 12
21830.0
 22
-72500.0
 32
0.0
 13
22430.0
 23
-72500.0
 33
0.0
  0
TEXT
  5
C5
100
AcDbEntity
  8
ASSEMBLY_REF_DES_TOP
100
AcDbText
 10
37244.0
 20
-62149.2
 30
0.0
 40
800.0
  1
R2
 50
270.0
  7
ARIAL
 72
         1
 11
37660.0
 21
-62880.0
 31
0.0
100
AcDbText
 73
         2
  0
TEXT
  5
C6
100
AcDbEntity
  8
ASSEMBLY_REF_DES_TOP
100
AcDbText
 10
40629.2
 20
-63186.0
 30
0.0
 40
800.0
  1
C2
  7
ARIAL
 72
         1
 11
41360.0
 21
-62770.0
 31
0.0
100
AcDbText
 73
         2
  0
TEXT
  5
C7
100
AcDbEntity
  8
ASSEMBLY_REF_DES_TOP
100
AcDbText
 10
40444.0
 20
-6221.2
 30
0.0
 40
800.0
  1
C28
 50
270.0
  7
ARIAL
 72
         1
 11
40860.0
 21
-7270.0
 31
0.0
100
AcDbText
 73
         2
  0
TEXT
  5
C8
100
AcDbEntity
  8
ASSEMBLY_REF_DES_TOP
100
AcDbText
 10
33110.0
 20
-61760.0
 30
0.0
 40
800.0
  1
R24
 50
270.0
  7
ARIAL
 11
33110.0
 21
-61760.0
 31
0.0
100
AcDbText
 73
         1
  0
TEXT
  5
C9
100
AcDbEntity
  8
ASSEMBLY_REF_DES_TOP
100
AcDbText
 10
13039.625
 20
-4709.199
 30
0.0
 40
800.0
  1
D3
 50
270.0
  7
ARIAL
 72
         1
 11
13455.625
 21
-5439.999
 31
0.0
100
AcDbText
 73
         2
  0
TEXT
  5
CA
100
AcDbEntity
  8
ASSEMBLY_REF_DES_TOP
100
AcDbText
 10
13048.375
 20
-7411.201
 30
0.0
 40
800.0
  1
R20
 50
270.0
  7
ARIAL
 72
         1
 11
13464.375
 21
-8460.001
 31
0.0
100
AcDbText
 73
         2
  0
TEXT
  5
CB
100
AcDbEntity
  8
ASSEMBLY_REF_DES_TOP
100
AcDbText
 10
13039.625
 20
-34569.199
 30
0.0
 40
800.0
  1
R7
 50
270.0
  7
ARIAL
 72
         1
 11
13455.625
 21
-35299.999
 31
0.0
100
AcDbText
 73
         2
  0
TEXT
  5
CC
100
AcDbEntity
  8
ASSEMBLY_REF_DES_TOP
100
AcDbText
 10
13028.375
 20
-31569.201
 30
0.0
 40
800.0
  1
D4
 50
270.0
  7
ARIAL
 72
         1
 11
13444.375
 21
-32300.001
 31
0.0
100
AcDbText
 73
         2
  0
TEXT
  5
CD
100
AcDbEntity
  8
ASSEMBLY_REF_DES_TOP
100
AcDbText
 10
10144.0
 20
-16231.2
 30
0.0
 40
800.0
  1
C24
 50
270.0
  7
ARIAL
 72
         1
 11
10560.0
 21
-17280.0
 31
0.0
100
AcDbText
 73
         2
  0
TEXT
  5
CE
100
AcDbEntity
  8
ASSEMBLY_REF_DES_TOP
100
AcDbText
 10
36384.0
 20
-10751.2
 30
0.0
 40
800.0
  1
C34
 50
270.0
  7
ARIAL
 72
         1
 11
36800.0
 21
-11800.0
 31
0.0
100
AcDbText
 73
         2
  0
TEXT
  5
CF
100
AcDbEntity
  8
ASSEMBLY_REF_DES_TOP
100
AcDbText
 10
37684.0
 20
-10751.2
 30
0.0
 40
800.0
  1
C35
 50
270.0
  7
ARIAL
 72
         1
 11
38100.0
 21
-11800.0
 31
0.0
100
AcDbText
 73
         2
  0
TEXT
  5
D0
100
AcDbEntity
  8
ASSEMBLY_REF_DES_TOP
100
AcDbText
 10
36169.2
 20
-10316.0
 30
0.0
 40
800.0
  1
R6
  7
ARIAL
 72
         1
 11
36900.0
 21
-9900.0
 31
0.0
100
AcDbText
 73
         2
  0
TEXT
  5
D1
100
AcDbEntity
  8
ASSEMBLY_REF_DES_TOP
100
AcDbText
 10
4709.0
 20
-19250.8
 30
0.0
 40
800.0
  1
X2
 50
270.0
  7
ARIAL
 72
         1
 11
5125.0
 21
-19950.0
 31
0.0
100
AcDbText
 73
         2
  0
TEXT
  5
D2
100
AcDbEntity
  8
ASSEMBLY_REF_DES_TOP
100
AcDbText
 10
13471.2
 20
-44296.0
 30
0.0
 40
800.0
  1
C21
  7
ARIAL
 72
         1
 11
14520.0
 21
-43880.0
 31
0.0
100
AcDbText
 73
         2
  0
TEXT
  5
D3
100
AcDbEntity
  8
ASSEMBLY_REF_DES_TOP
100
AcDbText
 10
14424.0
 20
-12561.2
 30
0.0
 40
800.0
  1
C23
 50
270.0
  7
ARIAL
 72
         1
 11
14840.0
 21
-13610.0
 31
0.0
100
AcDbText
 73
         2
  0
TEXT
  5
D4
100
AcDbEntity
  8
ASSEMBLY_REF_DES_TOP
100
AcDbText
 10
11204.626
 20
-16252.763
 30
0.0
 40
800.0
  1
C25
 50
270.0
  7
ARIAL
 72
         1
 11
11620.626
 21
-17301.563
 31
0.0
100
AcDbText
 73
         2
  0
TEXT
  5
D5
100
AcDbEntity
  8
ASSEMBLY_REF_DES_TOP
100
AcDbText
 10
28734.0
 20
-41741.2
 30
0.0
 40
800.0
  1
C17
 50
270.0
  7
ARIAL
 72
         1
 11
29150.0
 21
-42790.0
 31
0.0
100
AcDbText
 73
         2
  0
TEXT
  5
D6
100
AcDbEntity
  8
ASSEMBLY_REF_DES_TOP
100
AcDbText
 10
25979.0
 20
-42294.2
 30
0.0
 40
800.0
  1
C4
 50
270.0
  7
ARIAL
 72
         1
 11
26395.0
 21
-43025.0
 31
0.0
100
AcDbText
 73
         2
  0
TEXT
  5
D7
100
AcDbEntity
  8
ASSEMBLY_REF_DES_TOP
100
AcDbText
 10
30971.2
 20
-40696.0
 30
0.0
 40
800.0
  1
C19
  7
ARIAL
 72
         1
 11
32020.0
 21
-40280.0
 31
0.0
100
AcDbText
 73
         2
  0
TEXT
  5
D8
100
AcDbEntity
  8
ASSEMBLY_REF_DES_TOP
100
AcDbText
 10
36971.2
 20
-22696.0
 30
0.0
 40
800.0
  1
C18
  7
ARIAL
 72
         1
 11
38020.0
 21
-22280.0
 31
0.0
100
AcDbText
 73
         2
  0
TEXT
  5
D9
100
AcDbEntity
  8
ASSEMBLY_REF_DES_TOP
100
AcDbText
 10
40601.2
 20
-25574.437
 30
0.0
 40
800.0
  1
C20
  7
ARIAL
 72
         1
 11
41650.0
 21
-25158.437
 31
0.0
100
AcDbText
 73
         2
  0
TEXT
  5
DA
100
AcDbEntity
  8
ASSEMBLY_REF_DES_TOP
100
AcDbText
 10
11951.2
 20
-24616.0
 30
0.0
 40
800.0
  1
R23
  7
ARIAL
 72
         1
 11
13000.0
 21
-24200.0
 31
0.0
100
AcDbText
 73
         2
  0
TEXT
  5
DB
100
AcDbEntity
  8
ASSEMBLY_REF_DES_TOP
100
AcDbText
 10
13739.0
 20
-17744.2
 30
0.0
 40
800.0
  1
C3
 50
270.0
  7
ARIAL
 72
         1
 11
14155.0
 21
-18475.0
 31
0.0
100
AcDbText
 73
         2
  0
TEXT
  5
DC
100
AcDbEntity
  8
ASSEMBLY_REF_DES_TOP
100
AcDbText
 10
10931.2
 20
-22436.0
 30
0.0
 40
800.0
  1
C27
  7
ARIAL
 72
         1
 11
11980.0
 21
-22020.0
 31
0.0
100
AcDbText
 73
         2
  0
TEXT
  5
DD
100
AcDbEntity
  8
ASSEMBLY_REF_DES_TOP
100
AcDbText
 10
36691.2
 20
-4476.0
 30
0.0
 40
800.0
  1
C22
  7
ARIAL
 72
         1
 11
37740.0
 21
-4060.0
 31
0.0
100
AcDbText
 73
         2
  0
TEXT
  5
DE
100
AcDbEntity
  8
ASSEMBLY_REF_DES_TOP
100
AcDbText
 10
11634.0
 20
-10691.2
 30
0.0
 40
800.0
  1
C26
 50
270.0
  7
ARIAL
 72
         1
 11
12050.0
 21
-11740.0
 31
0.0
100
AcDbText
 73
         2
  0
TEXT
  5
DF
100
AcDbEntity
  8
ASSEMBLY_REF_DES_TOP
100
AcDbText
 10
36569.2
 20
-8616.0
 30
0.0
 40
800.0
  1
R8
  7
ARIAL
 72
         1
 11
37300.0
 21
-8200.0
 31
0.0
100
AcDbText
 73
         2
  0
TEXT
  5
E0
100
AcDbEntity
  8
ASSEMBLY_REF_DES_TOP
100
AcDbText
 10
39484.0
 20
-6569.2
 30
0.0
 40
800.0
  1
C9
 50
270.0
  7
ARIAL
 72
         1
 11
39900.0
 21
-7300.0
 31
0.0
100
AcDbText
 73
         2
  0
TEXT
  5
E1
100
AcDbEntity
  8
ASSEMBLY_REF_DES_TOP
100
AcDbText
 10
34884.0
 20
-5251.2
 30
0.0
 40
800.0
  1
R12
 50
270.0
  7
ARIAL
 72
         1
 11
35300.0
 21
-6300.0
 31
0.0
100
AcDbText
 73
         2
  0
TEXT
  5
E2
100
AcDbEntity
  8
ASSEMBLY_REF_DES_TOP
100
AcDbText
 10
36251.2
 20
-6716.0
 30
0.0
 40
800.0
  1
R11
  7
ARIAL
 72
         1
 11
37300.0
 21
-6300.0
 31
0.0
100
AcDbText
 73
         2
  0
TEXT
  5
E3
100
AcDbEntity
  8
ASSEMBLY_REF_DES_TOP
100
AcDbText
 10
33229.0
 20
-6376.2
 30
0.0
 40
800.0
  1
C10
 50
270.0
  7
ARIAL
 72
         1
 11
33645.0
 21
-7425.0
 31
0.0
100
AcDbText
 73
         2
  0
TEXT
  5
E4
100
AcDbEntity
  8
ASSEMBLY_REF_DES_TOP
100
AcDbText
 10
33229.0
 20
-5014.2
 30
0.0
 40
800.0
  1
R9
 50
270.0
  7
ARIAL
 72
         1
 11
33645.0
 21
-5745.0
 31
0.0
100
AcDbText
 73
         2
  0
TEXT
  5
E5
100
AcDbEntity
  8
ASSEMBLY_REF_DES_TOP
100
AcDbText
 10
30729.0
 20
-6476.2
 30
0.0
 40
800.0
  1
R13
 50
270.0
  7
ARIAL
 72
         1
 11
31145.0
 21
-7525.0
 31
0.0
100
AcDbText
 73
         2
  0
TEXT
  5
E6
100
AcDbEntity
  8
ASSEMBLY_REF_DES_TOP
100
AcDbText
 10
31984.0
 20
-5551.2
 30
0.0
 40
800.0
  1
C12
 50
270.0
  7
ARIAL
 72
         1
 11
32400.0
 21
-6600.0
 31
0.0
100
AcDbText
 73
         2
  0
TEXT
  5
E7
100
AcDbEntity
  8
ASSEMBLY_REF_DES_TOP
100
AcDbText
 10
31146.2
 20
-24341.0
 30
0.0
 40
800.0
  1
R10
  7
ARIAL
 72
         1
 11
32195.0
 21
-23925.0
 31
0.0
100
AcDbText
 73
         2
  0
TEXT
  5
E8
100
AcDbEntity
  8
ASSEMBLY_REF_DES_TOP
100
AcDbText
 10
30379.0
 20
-24276.2
 30
0.0
 40
800.0
  1
R14
 50
270.0
  7
ARIAL
 72
         1
 11
30795.0
 21
-25325.0
 31
0.0
100
AcDbText
 73
         2
  0
TEXT
  5
E9
100
AcDbEntity
  8
ASSEMBLY_REF_DES_TOP
100
AcDbText
 10
31379.0
 20
-24276.2
 30
0.0
 40
800.0
  1
C16
 50
270.0
  7
ARIAL
 72
         1
 11
31795.0
 21
-25325.0
 31
0.0
100
AcDbText
 73
         2
  0
TEXT
  5
EA
100
AcDbEntity
  8
ASSEMBLY_REF_DES_TOP
100
AcDbText
 10
37634.0
 20
-28651.2
 30
0.0
 40
800.0
  1
C33
 50
270.0
  7
ARIAL
 72
         1
 11
38050.0
 21
-29700.0
 31
0.0
100
AcDbText
 73
         2
  0
TEXT
  5
EB
100
AcDbEntity
  8
ASSEMBLY_REF_DES_TOP
100
AcDbText
 10
36334.0
 20
-28651.2
 30
0.0
 40
800.0
  1
C32
 50
270.0
  7
ARIAL
 72
         1
 11
36750.0
 21
-29700.0
 31
0.0
100
AcDbText
 73
         2
  0
TEXT
  5
EC
100
AcDbEntity
  8
ASSEMBLY_REF_DES_TOP
100
AcDbText
 10
28351.2
 20
-7316.0
 30
0.0
 40
800.0
  1
R15
  7
ARIAL
 72
         1
 11
29400.0
 21
-6900.0
 31
0.0
100
AcDbText
 73
         2
  0
TEXT
  5
ED
100
AcDbEntity
  8
ASSEMBLY_REF_DES_TOP
100
AcDbText
 10
33378.96
 20
-27494.19
 30
0.0
 40
800.0
  1
U2
 50
270.0
  7
ARIAL
 72
         1
 11
33794.96
 21
-28224.99
 31
0.0
100
AcDbText
 73
         2
  0
TEXT
  5
EE
100
AcDbEntity
  8
ASSEMBLY_REF_DES_TOP
100
AcDbText
 10
35999.605
 20
-28169.432
 30
0.0
 40
800.0
  1
R18
  7
ARIAL
 72
         1
 11
37048.405
 21
-27753.432
 31
0.0
100
AcDbText
 73
         2
  0
TEXT
  5
EF
100
AcDbEntity
  8
ASSEMBLY_REF_DES_TOP
100
AcDbText
 10
32379.0
 20
-24276.2
 30
0.0
 40
800.0
  1
C11
 50
270.0
  7
ARIAL
 72
         1
 11
32795.0
 21
-25325.0
 31
0.0
100
AcDbText
 73
         2
  0
TEXT
  5
F0
100
AcDbEntity
  8
ASSEMBLY_REF_DES_TOP
100
AcDbText
 10
35146.2
 20
-25241.0
 30
0.0
 40
800.0
  1
R16
  7
ARIAL
 72
         1
 11
36195.0
 21
-24825.0
 31
0.0
100
AcDbText
 73
         2
  0
TEXT
  5
F1
100
AcDbEntity
  8
ASSEMBLY_REF_DES_TOP
100
AcDbText
 10
38079.0
 20
-24376.2
 30
0.0
 40
800.0
  1
C13
 50
270.0
  7
ARIAL
 72
         1
 11
38495.0
 21
-25425.0
 31
0.0
100
AcDbText
 73
         2
  0
TEXT
  5
F2
100
AcDbEntity
  8
ASSEMBLY_REF_DES_TOP
100
AcDbText
 10
35246.2
 20
-26341.0
 30
0.0
 40
800.0
  1
R17
  7
ARIAL
 72
         1
 11
36295.0
 21
-25925.0
 31
0.0
100
AcDbText
 73
         2
  0
TEXT
  5
F3
100
AcDbEntity
  8
ASSEMBLY_REF_DES_TOP
100
AcDbText
 10
33979.0
 20
-23576.2
 30
0.0
 40
800.0
  1
R19
 50
270.0
  7
ARIAL
 72
         1
 11
34395.0
 21
-24625.0
 31
0.0
100
AcDbText
 73
         2
  0
TEXT
  5
F4
100
AcDbEntity
  8
ASSEMBLY_REF_DES_TOP
100
AcDbText
 10
23079.0
 20
-32189.0
 30
0.0
 40
800.0
  1
L2
 50
270.0
  7
ARIAL
 72
         1
 11
23495.0
 21
-32825.0
 31
0.0
100
AcDbText
 73
         2
  0
TEXT
  5
F5
100
AcDbEntity
  8
ASSEMBLY_REF_DES_TOP
100
AcDbText
 10
38279.0
 20
-34294.2
 30
0.0
 40
800.0
  1
D2
 50
270.0
  7
ARIAL
 72
         1
 11
38695.0
 21
-35025.0
 31
0.0
100
AcDbText
 73
         2
  0
TEXT
  5
F6
100
AcDbEntity
  8
ASSEMBLY_REF_DES_TOP
100
AcDbText
 10
39801.2
 20
-29816.0
 30
0.0
 40
800.0
  1
C15
  7
ARIAL
 72
         1
 11
40850.0
 21
-29400.0
 31
0.0
100
AcDbText
 73
         2
  0
TEXT
  5
F7
100
AcDbEntity
  8
ASSEMBLY_REF_DES_TOP
100
AcDbText
 10
33428.96
 20
-9694.19
 30
0.0
 40
800.0
  1
U1
 50
270.0
  7
ARIAL
 72
         1
 11
33844.96
 21
-10424.99
 31
0.0
100
AcDbText
 73
         2
  0
TEXT
  5
F8
100
AcDbEntity
  8
ASSEMBLY_REF_DES_TOP
100
AcDbText
 10
23129.0
 20
-14389.0
 30
0.0
 40
800.0
  1
L1
 50
270.0
  7
ARIAL
 72
         1
 11
23545.0
 21
-15025.0
 31
0.0
100
AcDbText
 73
         2
  0
TEXT
  5
F9
100
AcDbEntity
  8
ASSEMBLY_REF_DES_TOP
100
AcDbText
 10
39751.2
 20
-11916.0
 30
0.0
 40
800.0
  1
C31
  7
ARIAL
 72
         1
 11
40800.0
 21
-11500.0
 31
0.0
100
AcDbText
 73
         2
  0
TEXT
  5
FA
100
AcDbEntity
  8
ASSEMBLY_REF_DES_TOP
100
AcDbText
 10
38229.0
 20
-16194.2
 30
0.0
 40
800.0
  1
D1
 50
270.0
  7
ARIAL
 72
         1
 11
38645.0
 21
-16925.0
 31
0.0
100
AcDbText
 73
         2
  0
TEXT
  5
FB
100
AcDbEntity
  8
ASSEMBLY_REF_DES_TOP
100
AcDbText
 10
10584.0
 20
-50751.2
 30
0.0
 40
800.0
  1
R21
 50
270.0
  7
ARIAL
 72
         1
 11
11000.0
 21
-51800.0
 31
0.0
100
AcDbText
 73
         2
  0
TEXT
  5
FC
100
AcDbEntity
  8
ASSEMBLY_REF_DES_TOP
100
AcDbText
 10
16484.0
 20
-51164.0
 30
0.0
 40
800.0
  1
L3
 50
270.0
  7
ARIAL
 72
         1
 11
16900.0
 21
-51800.0
 31
0.0
100
AcDbText
 73
         2
  0
TEXT
  5
FD
100
AcDbEntity
  8
ASSEMBLY_REF_DES_TOP
100
AcDbText
 10
22484.0
 20
-50751.2
 30
0.0
 40
800.0
  1
R22
 50
270.0
  7
ARIAL
 72
         1
 11
22900.0
 21
-51800.0
 31
0.0
100
AcDbText
 73
         2
  0
TEXT
  5
FE
100
AcDbEntity
  8
ASSEMBLY_REF_DES_TOP
100
AcDbText
 10
5984.0
 20
-62069.2
 30
0.0
 40
800.0
  1
R1
 50
270.0
  7
ARIAL
 72
         1
 11
6400.0
 21
-62800.0
 31
0.0
100
AcDbText
 73
         2
  0
TEXT
  5
FF
100
AcDbEntity
  8
ASSEMBLY_REF_DES_TOP
100
AcDbText
 10
9469.2
 20
-63316.0
 30
0.0
 40
800.0
  1
C1
  7
ARIAL
 72
         1
 11
10200.0
 21
-62900.0
 31
0.0
100
AcDbText
 73
         2
  0
TEXT
  5
100
100
AcDbEntity
  8
ASSEMBLY_REF_DES_TOP
100
AcDbText
 10
19269.199
 20
-45565.996
 30
0.0
 40
800.0
  1
C7
  7
ARIAL
 72
         1
 11
19999.999
 21
-45149.996
 31
0.0
100
AcDbText
 73
         2
  0
TEXT
  5
101
100
AcDbEntity
  8
ASSEMBLY_REF_DES_TOP
100
AcDbText
 10
22769.2
 20
-48765.996
 30
0.0
 40
800.0
  1
C8
  7
ARIAL
 72
         1
 11
23500.0
 21
-48349.996
 31
0.0
100
AcDbText
 73
         2
  0
TEXT
  5
102
100
AcDbEntity
  8
ASSEMBLY_REF_DES_TOP
100
AcDbText
 10
23051.2
 20
-46816.0
 30
0.0
 40
800.0
  1
C14
  7
ARIAL
 72
         1
 11
24100.0
 21
-46400.0
 31
0.0
100
AcDbText
 73
         2
  0
TEXT
  5
103
100
AcDbEntity
  8
ASSEMBLY_REF_DES_TOP
100
AcDbText
 10
17584.0
 20
-58051.2
 30
0.0
 40
800.0
  1
C30
 50
270.0
  7
ARIAL
 72
         1
 11
18000.0
 21
-59100.0
 31
0.0
100
AcDbText
 73
         2
  0
TEXT
  5
104
100
AcDbEntity
  8
ASSEMBLY_REF_DES_TOP
100
AcDbText
 10
19284.0
 20
-58369.2
 30
0.0
 40
800.0
  1
C5
 50
270.0
  7
ARIAL
 72
         1
 11
19700.0
 21
-59100.0
 31
0.0
100
AcDbText
 73
         2
  0
TEXT
  5
105
100
AcDbEntity
  8
ASSEMBLY_REF_DES_TOP
100
AcDbText
 10
15884.0
 20
-58051.2
 30
0.0
 40
800.0
  1
C29
 50
270.0
  7
ARIAL
 72
         1
 11
16300.0
 21
-59100.0
 31
0.0
100
AcDbText
 73
         2
  0
TEXT
  5
106
100
AcDbEntity
  8
ASSEMBLY_REF_DES_TOP
100
AcDbText
 10
20984.0
 20
-58369.2
 30
0.0
 40
800.0
  1
C6
 50
270.0
  7
ARIAL
 72
         1
 11
21400.0
 21
-59100.0
 31
0.0
100
AcDbText
 73
         2
  0
TEXT
  5
107
100
AcDbEntity
  8
ASSEMBLY_REF_DES_TOP
100
AcDbText
 10
24384.0
 20
-56966.2
 30
0.0
 40
800.0
  1
D5
 50
270.0
  7
ARIAL
 72
         1
 11
24800.0
 21
-57697.0
 31
0.0
100
AcDbText
 73
         2
  0
TEXT
  5
108
100
AcDbEntity
  8
ASSEMBLY_REF_DES_TOP
100
AcDbText
 10
29609.0
 20
-59930.613
 30
0.0
 40
800.0
  1
F1
 50
270.0
  7
ARIAL
 72
         1
 11
30025.0
 21
-60597.813
 31
0.0
100
AcDbText
 73
         2
  0
TEXT
  5
109
100
AcDbEntity
  8
ASSEMBLY_REF_DES_TOP
100
AcDbText
 10
41300.8
 20
-3416.0
 30
0.0
 40
800.0
  1
X6
  7
ARIAL
 72
         1
 11
42000.0
 21
-3000.0
 31
0.0
100
AcDbText
 73
         2
  0
TEXT
  5
10A
100
AcDbEntity
  8
ASSEMBLY_REF_DES_TOP
100
AcDbText
 10
41300.8
 20
-69416.0
 30
0.0
 40
800.0
  1
X3
  7
ARIAL
 72
         1
 11
42000.0
 21
-69000.0
 31
0.0
100
AcDbText
 73
         2
  0
TEXT
  5
10B
100
AcDbEntity
  8
ASSEMBLY_REF_DES_TOP
100
AcDbText
 10
21430.8
 20
-64016.0
 30
0.0
 40
800.0
  1
X1
  7
ARIAL
 72
         1
 11
22130.0
 21
-63600.0
 31
0.0
100
AcDbText
 73
         2
  0
TEXT
  5
10C
100
AcDbEntity
  8
ASSEMBLY_REF_DES_TOP
100
AcDbText
 10
2300.8
 20
-3416.0
 30
0.0
 40
800.0
  1
X5
  7
ARIAL
 72
         1
 11
3000.0
 21
-3000.0
 31
0.0
100
AcDbText
 73
         2
  0
TEXT
  5
10D
100
AcDbEntity
  8
ASSEMBLY_REF_DES_TOP
100
AcDbText
 10
2300.8
 20
-69416.0
 30
0.0
 40
800.0
  1
X4
  7
ARIAL
 72
         1
 11
3000.0
 21
-69000.0
 31
0.0
100
AcDbText
 73
         2
  0
LWPOLYLINE
  5
10E
100
AcDbEntity
  8
BOARD_OUTLINE
100
AcDbPolyline
 90
        4
 70
         1
 10
0.0
 20
-72000.0
 10
0.0
 20
0.0
 10
45000.0
 20
0.0
 10
45000.0
 20
-72000.0
  0
LWPOLYLINE
  5
10F
100
AcDbEntity
  8
PART_PADS_SMD_TOP
100
AcDbPolyline
 90
        4
 70
         1
 10
36410.0
 20
-61030.0
 10
36410.0
 20
-60030.0
 10
38910.0
 20
-60030.0
 10
38910.0
 20
-61030.0
  0
LWPOLYLINE
  5
110
100
AcDbEntity
  8
PART_PADS_SMD_TOP
100
AcDbPolyline
 90
        4
 70
         1
 10
36410.0
 20
-65730.0
 10
36410.0
 20
-64730.0
 10
38910.0
 20
-64730.0
 10
38910.0
 20
-65730.0
  0
LWPOLYLINE
  5
111
100
AcDbEntity
  8
PART_PADS_SMD_TOP
100
AcDbPolyline
 90
        4
 70
         1
 10
39610.0
 20
-61020.0
 10
39610.0
 20
-59920.0
 10
43110.0
 20
-59920.0
 10
43110.0
 20
-61020.0
  0
LWPOLYLINE
  5
112
100
AcDbEntity
  8
PART_PADS_SMD_TOP
100
AcDbPolyline
 90
        4
 70
         1
 10
39610.0
 20
-65620.0
 10
39610.0
 20
-64520.0
 10
43110.0
 20
-64520.0
 10
43110.0
 20
-65620.0
  0
LWPOLYLINE
  5
113
100
AcDbEntity
  8
PART_PADS_SMD_TOP
100
AcDbPolyline
 90
        4
 70
         1
 10
40610.0
 20
-7870.0
 10
40610.0
 20
-7470.0
 10
41110.0
 20
-7470.0
 10
41110.0
 20
-7870.0
  0
LWPOLYLINE
  5
114
100
AcDbEntity
  8
PART_PADS_SMD_TOP
100
AcDbPolyline
 90
        4
 70
         1
 10
40610.0
 20
-7070.0
 10
40610.0
 20
-6670.0
 10
41110.0
 20
-6670.0
 10
41110.0
 20
-7070.0
  0
LWPOLYLINE
  5
115
100
AcDbEntity
  8
PART_PADS_SMD_TOP
100
AcDbPolyline
 90
        4
 70
         1
 10
32875.0
 20
-60250.0
 10
32875.0
 20
-59400.0
 10
34125.0
 20
-59400.0
 10
34125.0
 20
-60250.0
  0
LWPOLYLINE
  5
116
100
AcDbEntity
  8
PART_PADS_SMD_TOP
100
AcDbPolyline
 90
        4
 70
         1
 10
32875.0
 20
-61800.0
 10
32875.0
 20
-60950.0
 10
34125.0
 20
-60950.0
 10
34125.0
 20
-61800.0
  0
LWPOLYLINE
  5
117
100
AcDbEntity
  8
PART_PADS_SMD_TOP
100
AcDbPolyline
 90
        4
 70
         1
 10
12830.625
 20
-6639.999
 10
12830.625
 20
-5789.999
 10
14080.625
 20
-5789.999
 10
14080.625
 20
-6639.999
  0
LWPOLYLINE
  5
118
100
AcDbEntity
  8
PART_PADS_SMD_TOP
100
AcDbPolyline
 90
        4
 70
         1
 10
12830.625
 20
-5089.999
 10
12830.625
 20
-4239.999
 10
14080.625
 20
-4239.999
 10
14080.625
 20
-5089.999
  0
LWPOLYLINE
  5
119
100
AcDbEntity
  8
PART_PADS_SMD_TOP
100
AcDbPolyline
 90
        4
 70
         1
 10
13214.375
 20
-9060.001
 10
13214.375
 20
-8660.001
 10
13714.375
 20
-8660.001
 10
13714.375
 20
-9060.001
  0
LWPOLYLINE
  5
11A
100
AcDbEntity
  8
PART_PADS_SMD_TOP
100
AcDbPolyline
 90
        4
 70
         1
 10
13214.375
 20
-8260.001
 10
13214.375
 20
-7860.001
 10
13714.375
 20
-7860.001
 10
13714.375
 20
-8260.001
  0
LWPOLYLINE
  5
11B
100
AcDbEntity
  8
PART_PADS_SMD_TOP
100
AcDbPolyline
 90
        4
 70
         1
 10
13205.625
 20
-35899.999
 10
13205.625
 20
-35499.999
 10
13705.625
 20
-35499.999
 10
13705.625
 20
-35899.999
  0
LWPOLYLINE
  5
11C
100
AcDbEntity
  8
PART_PADS_SMD_TOP
100
AcDbPolyline
 90
        4
 70
         1
 10
13205.625
 20
-35099.999
 10
13205.625
 20
-34699.999
 10
13705.625
 20
-34699.999
 10
13705.625
 20
-35099.999
  0
LWPOLYLINE
  5
11D
100
AcDbEntity
  8
PART_PADS_SMD_TOP
100
AcDbPolyline
 90
        4
 70
         1
 10
12819.375
 20
-33500.001
 10
12819.375
 20
-32650.001
 10
14069.375
 20
-32650.001
 10
14069.375
 20
-33500.001
  0
LWPOLYLINE
  5
11E
100
AcDbEntity
  8
PART_PADS_SMD_TOP
100
AcDbPolyline
 90
        4
 70
         1
 10
12819.375
 20
-31950.001
 10
12819.375
 20
-31100.001
 10
14069.375
 20
-31100.001
 10
14069.375
 20
-31950.001
  0
LWPOLYLINE
  5
11F
100
AcDbEntity
  8
PART_PADS_SMD_TOP
100
AcDbPolyline
 90
        4
 70
         1
 10
10310.0
 20
-17880.0
 10
10310.0
 20
-17480.0
 10
10810.0
 20
-17480.0
 10
10810.0
 20
-17880.0
  0
LWPOLYLINE
  5
120
100
AcDbEntity
  8
PART_PADS_SMD_TOP
100
AcDbPolyline
 90
        4
 70
         1
 10
10310.0
 20
-17080.0
 10
10310.0
 20
-16680.0
 10
10810.0
 20
-16680.0
 10
10810.0
 20
-17080.0
  0
LWPOLYLINE
  5
121
100
AcDbEntity
  8
PART_PADS_SMD_TOP
100
AcDbPolyline
 90
        4
 70
         1
 10
36350.0
 20
-12993.75
 10
36350.0
 20
-12193.75
 10
37250.0
 20
-12193.75
 10
37250.0
 20
-12993.75
  0
LWPOLYLINE
  5
122
100
AcDbEntity
  8
PART_PADS_SMD_TOP
100
AcDbPolyline
 90
        4
 70
         1
 10
36350.0
 20
-11406.25
 10
36350.0
 20
-10606.25
 10
37250.0
 20
-10606.25
 10
37250.0
 20
-11406.25
  0
LWPOLYLINE
  5
123
100
AcDbEntity
  8
PART_PADS_SMD_TOP
100
AcDbPolyline
 90
        4
 70
         1
 10
37650.0
 20
-12993.75
 10
37650.0
 20
-12193.75
 10
38550.0
 20
-12193.75
 10
38550.0
 20
-12993.75
  0
LWPOLYLINE
  5
124
100
AcDbEntity
  8
PART_PADS_SMD_TOP
100
AcDbPolyline
 90
        4
 70
         1
 10
37650.0
 20
-11406.25
 10
37650.0
 20
-10606.25
 10
38550.0
 20
-10606.25
 10
38550.0
 20
-11406.25
  0
LWPOLYLINE
  5
125
100
AcDbEntity
  8
PART_PADS_SMD_TOP
100
AcDbPolyline
 90
        4
 70
         1
 10
36300.0
 20
-10150.0
 10
36300.0
 20
-9650.0
 10
36700.0
 20
-9650.0
 10
36700.0
 20
-10150.0
  0
LWPOLYLINE
  5
126
100
AcDbEntity
  8
PART_PADS_SMD_TOP
100
AcDbPolyline
 90
        4
 70
         1
 10
37100.0
 20
-10150.0
 10
37100.0
 20
-9650.0
 10
37500.0
 20
-9650.0
 10
37500.0
 20
-10150.0
  0
LWPOLYLINE
  5
127
100
AcDbEntity
  8
PART_PADS_SMD_TOP
100
AcDbPolyline
 90
        4
 70
         1
 10
13920.0
 20
-44130.0
 10
13920.0
 20
-43630.0
 10
14320.0
 20
-43630.0
 10
14320.0
 20
-44130.0
  0
LWPOLYLINE
  5
128
100
AcDbEntity
  8
PART_PADS_SMD_TOP
100
AcDbPolyline
 90
        4
 70
         1
 10
14720.0
 20
-44130.0
 10
14720.0
 20
-43630.0
 10
15120.0
 20
-43630.0
 10
15120.0
 20
-44130.0
  0
LWPOLYLINE
  5
129
100
AcDbEntity
  8
PART_PADS_SMD_TOP
100
AcDbPolyline
 90
        4
 70
         1
 10
14590.0
 20
-13410.0
 10
14590.0
 20
-13010.0
 10
15090.0
 20
-13010.0
 10
15090.0
 20
-13410.0
  0
LWPOLYLINE
  5
12A
100
AcDbEntity
  8
PART_PADS_SMD_TOP
100
AcDbPolyline
 90
        4
 70
         1
 10
14590.0
 20
-14210.0
 10
14590.0
 20
-13810.0
 10
15090.0
 20
-13810.0
 10
15090.0
 20
-14210.0
  0
LWPOLYLINE
  5
12B
100
AcDbEntity
  8
PART_PADS_SMD_TOP
100
AcDbPolyline
 90
        4
 70
         1
 10
11370.626
 20
-17901.563
 10
11370.626
 20
-17501.563
 10
11870.626
 20
-17501.563
 10
11870.626
 20
-17901.563
  0
LWPOLYLINE
  5
12C
100
AcDbEntity
  8
PART_PADS_SMD_TOP
100
AcDbPolyline
 90
        4
 70
         1
 10
11370.626
 20
-17101.563
 10
11370.626
 20
-16701.563
 10
11870.626
 20
-16701.563
 10
11870.626
 20
-17101.563
  0
LWPOLYLINE
  5
12D
100
AcDbEntity
  8
PART_PADS_SMD_TOP
100
AcDbPolyline
 90
        4
 70
         1
 10
28900.0
 20
-43390.0
 10
28900.0
 20
-42990.0
 10
29400.0
 20
-42990.0
 10
29400.0
 20
-43390.0
  0
LWPOLYLINE
  5
12E
100
AcDbEntity
  8
PART_PADS_SMD_TOP
100
AcDbPolyline
 90
        4
 70
         1
 10
28900.0
 20
-42590.0
 10
28900.0
 20
-42190.0
 10
29400.0
 20
-42190.0
 10
29400.0
 20
-42590.0
  0
LWPOLYLINE
  5
12F
100
AcDbEntity
  8
PART_PADS_SMD_TOP
100
AcDbPolyline
 90
        4
 70
         1
 10
25645.0
 20
-42100.0
 10
25645.0
 20
-41300.0
 10
27145.0
 20
-41300.0
 10
27145.0
 20
-42100.0
  0
LWPOLYLINE
  5
130
100
AcDbEntity
  8
PART_PADS_SMD_TOP
100
AcDbPolyline
 90
        4
 70
         1
 10
25645.0
 20
-44750.0
 10
25645.0
 20
-43950.0
 10
27145.0
 20
-43950.0
 10
27145.0
 20
-44750.0
  0
LWPOLYLINE
  5
131
100
AcDbEntity
  8
PART_PADS_SMD_TOP
100
AcDbPolyline
 90
        4
 70
         1
 10
32220.0
 20
-40530.0
 10
32220.0
 20
-40030.0
 10
32620.0
 20
-40030.0
 10
32620.0
 20
-40530.0
  0
LWPOLYLINE
  5
132
100
AcDbEntity
  8
PART_PADS_SMD_TOP
100
AcDbPolyline
 90
        4
 70
         1
 10
31420.0
 20
-40530.0
 10
31420.0
 20
-40030.0
 10
31820.0
 20
-40030.0
 10
31820.0
 20
-40530.0
  0
LWPOLYLINE
  5
133
100
AcDbEntity
  8
PART_PADS_SMD_TOP
100
AcDbPolyline
 90
        4
 70
         1
 10
37420.0
 20
-22530.0
 10
37420.0
 20
-22030.0
 10
37820.0
 20
-22030.0
 10
37820.0
 20
-22530.0
  0
LWPOLYLINE
  5
134
100
AcDbEntity
  8
PART_PADS_SMD_TOP
100
AcDbPolyline
 90
        4
 70
         1
 10
38220.0
 20
-22530.0
 10
38220.0
 20
-22030.0
 10
38620.0
 20
-22030.0
 10
38620.0
 20
-22530.0
  0
LWPOLYLINE
  5
135
100
AcDbEntity
  8
PART_PADS_SMD_TOP
100
AcDbPolyline
 90
        4
 70
         1
 10
41850.0
 20
-25408.437
 10
41850.0
 20
-24908.437
 10
42250.0
 20
-24908.437
 10
42250.0
 20
-25408.437
  0
LWPOLYLINE
  5
136
100
AcDbEntity
  8
PART_PADS_SMD_TOP
100
AcDbPolyline
 90
        4
 70
         1
 10
41050.0
 20
-25408.437
 10
41050.0
 20
-24908.437
 10
41450.0
 20
-24908.437
 10
41450.0
 20
-25408.437
  0
LWPOLYLINE
  5
137
100
AcDbEntity
  8
PART_PADS_SMD_TOP
100
AcDbPolyline
 90
        4
 70
         1
 10
11800.0
 20
-24825.0
 10
11800.0
 20
-23575.0
 10
12650.0
 20
-23575.0
 10
12650.0
 20
-24825.0
  0
LWPOLYLINE
  5
138
100
AcDbEntity
  8
PART_PADS_SMD_TOP
100
AcDbPolyline
 90
        4
 70
         1
 10
13350.0
 20
-24825.0
 10
13350.0
 20
-23575.0
 10
14200.0
 20
-23575.0
 10
14200.0
 20
-24825.0
  0
LWPOLYLINE
  5
139
100
AcDbEntity
  8
PART_PADS_SMD_TOP
100
AcDbPolyline
 90
        4
 70
         1
 10
13405.0
 20
-17550.0
 10
13405.0
 20
-16750.0
 10
14905.0
 20
-16750.0
 10
14905.0
 20
-17550.0
  0
LWPOLYLINE
  5
13A
100
AcDbEntity
  8
PART_PADS_SMD_TOP
100
AcDbPolyline
 90
        4
 70
         1
 10
13405.0
 20
-20200.0
 10
13405.0
 20
-19400.0
 10
14905.0
 20
-19400.0
 10
14905.0
 20
-20200.0
  0
LWPOLYLINE
  5
13B
100
AcDbEntity
  8
PART_PADS_SMD_TOP
100
AcDbPolyline
 90
        4
 70
         1
 10
12180.0
 20
-22270.0
 10
12180.0
 20
-21770.0
 10
12580.0
 20
-21770.0
 10
12580.0
 20
-22270.0
  0
LWPOLYLINE
  5
13C
100
AcDbEntity
  8
PART_PADS_SMD_TOP
100
AcDbPolyline
 90
        4
 70
         1
 10
11380.0
 20
-22270.0
 10
11380.0
 20
-21770.0
 10
11780.0
 20
-21770.0
 10
11780.0
 20
-22270.0
  0
LWPOLYLINE
  5
13D
100
AcDbEntity
  8
PART_PADS_SMD_TOP
100
AcDbPolyline
 90
        4
 70
         1
 10
37140.0
 20
-4310.0
 10
37140.0
 20
-3810.0
 10
37540.0
 20
-3810.0
 10
37540.0
 20
-4310.0
  0
LWPOLYLINE
  5
13E
100
AcDbEntity
  8
PART_PADS_SMD_TOP
100
AcDbPolyline
 90
        4
 70
         1
 10
37940.0
 20
-4310.0
 10
37940.0
 20
-3810.0
 10
38340.0
 20
-3810.0
 10
38340.0
 20
-4310.0
  0
LWPOLYLINE
  5
13F
100
AcDbEntity
  8
PART_PADS_SMD_TOP
100
AcDbPolyline
 90
        4
 70
         1
 10
11800.0
 20
-11540.0
 10
11800.0
 20
-11140.0
 10
12300.0
 20
-11140.0
 10
12300.0
 20
-11540.0
  0
LWPOLYLINE
  5
140
100
AcDbEntity
  8
PART_PADS_SMD_TOP
100
AcDbPolyline
 90
        4
 70
         1
 10
11800.0
 20
-12340.0
 10
11800.0
 20
-11940.0
 10
12300.0
 20
-11940.0
 10
12300.0
 20
-12340.0
  0
LWPOLYLINE
  5
141
100
AcDbEntity
  8
PART_PADS_SMD_TOP
100
AcDbPolyline
 90
        4
 70
         1
 10
37500.0
 20
-8450.0
 10
37500.0
 20
-7950.0
 10
37900.0
 20
-7950.0
 10
37900.0
 20
-8450.0
  0
LWPOLYLINE
  5
142
100
AcDbEntity
  8
PART_PADS_SMD_TOP
100
AcDbPolyline
 90
        4
 70
         1
 10
36700.0
 20
-8450.0
 10
36700.0
 20
-7950.0
 10
37100.0
 20
-7950.0
 10
37100.0
 20
-8450.0
  0
LWPOLYLINE
  5
143
100
AcDbEntity
  8
PART_PADS_SMD_TOP
100
AcDbPolyline
 90
        4
 70
         1
 10
39650.0
 20
-7900.0
 10
39650.0
 20
-7500.0
 10
40150.0
 20
-7500.0
 10
40150.0
 20
-7900.0
  0
LWPOLYLINE
  5
144
100
AcDbEntity
  8
PART_PADS_SMD_TOP
100
AcDbPolyline
 90
        4
 70
         1
 10
39650.0
 20
-7100.0
 10
39650.0
 20
-6700.0
 10
40150.0
 20
-6700.0
 10
40150.0
 20
-7100.0
  0
LWPOLYLINE
  5
145
100
AcDbEntity
  8
PART_PADS_SMD_TOP
100
AcDbPolyline
 90
        4
 70
         1
 10
35050.0
 20
-6900.0
 10
35050.0
 20
-6500.0
 10
35550.0
 20
-6500.0
 10
35550.0
 20
-6900.0
  0
LWPOLYLINE
  5
146
100
AcDbEntity
  8
PART_PADS_SMD_TOP
100
AcDbPolyline
 90
        4
 70
         1
 10
35050.0
 20
-6100.0
 10
35050.0
 20
-5700.0
 10
35550.0
 20
-5700.0
 10
35550.0
 20
-6100.0
  0
LWPOLYLINE
  5
147
100
AcDbEntity
  8
PART_PADS_SMD_TOP
100
AcDbPolyline
 90
        4
 70
         1
 10
37500.0
 20
-6550.0
 10
37500.0
 20
-6050.0
 10
37900.0
 20
-6050.0
 10
37900.0
 20
-6550.0
  0
LWPOLYLINE
  5
148
100
AcDbEntity
  8
PART_PADS_SMD_TOP
100
AcDbPolyline
 90
        4
 70
         1
 10
36700.0
 20
-6550.0
 10
36700.0
 20
-6050.0
 10
37100.0
 20
-6050.0
 10
37100.0
 20
-6550.0
  0
LWPOLYLINE
  5
149
100
AcDbEntity
  8
PART_PADS_SMD_TOP
100
AcDbPolyline
 90
        4
 70
         1
 10
33395.0
 20
-7225.0
 10
33395.0
 20
-6825.0
 10
33895.0
 20
-6825.0
 10
33895.0
 20
-7225.0
  0
LWPOLYLINE
  5
14A
100
AcDbEntity
  8
PART_PADS_SMD_TOP
100
AcDbPolyline
 90
        4
 70
         1
 10
33395.0
 20
-8025.0
 10
33395.0
 20
-7625.0
 10
33895.0
 20
-7625.0
 10
33895.0
 20
-8025.0
  0
LWPOLYLINE
  5
14B
100
AcDbEntity
  8
PART_PADS_SMD_TOP
100
AcDbPolyline
 90
        4
 70
         1
 10
33395.0
 20
-5545.0
 10
33395.0
 20
-5145.0
 10
33895.0
 20
-5145.0
 10
33895.0
 20
-5545.0
  0
LWPOLYLINE
  5
14C
100
AcDbEntity
  8
PART_PADS_SMD_TOP
100
AcDbPolyline
 90
        4
 70
         1
 10
33395.0
 20
-6345.0
 10
33395.0
 20
-5945.0
 10
33895.0
 20
-5945.0
 10
33895.0
 20
-6345.0
  0
LWPOLYLINE
  5
14D
100
AcDbEntity
  8
PART_PADS_SMD_TOP
100
AcDbPolyline
 90
        4
 70
         1
 10
30895.0
 20
-7325.0
 10
30895.0
 20
-6925.0
 10
31395.0
 20
-6925.0
 10
31395.0
 20
-7325.0
  0
LWPOLYLINE
  5
14E
100
AcDbEntity
  8
PART_PADS_SMD_TOP
100
AcDbPolyline
 90
        4
 70
         1
 10
30895.0
 20
-8125.0
 10
30895.0
 20
-7725.0
 10
31395.0
 20
-7725.0
 10
31395.0
 20
-8125.0
  0
LWPOLYLINE
  5
14F
100
AcDbEntity
  8
PART_PADS_SMD_TOP
100
AcDbPolyline
 90
        4
 70
         1
 10
31950.0
 20
-7793.75
 10
31950.0
 20
-6993.75
 10
32850.0
 20
-6993.75
 10
32850.0
 20
-7793.75
  0
LWPOLYLINE
  5
150
100
AcDbEntity
  8
PART_PADS_SMD_TOP
100
AcDbPolyline
 90
        4
 70
         1
 10
31950.0
 20
-6206.25
 10
31950.0
 20
-5406.25
 10
32850.0
 20
-5406.25
 10
32850.0
 20
-6206.25
  0
LWPOLYLINE
  5
151
100
AcDbEntity
  8
PART_PADS_SMD_TOP
100
AcDbPolyline
 90
        4
 70
         1
 10
31595.0
 20
-24175.0
 10
31595.0
 20
-23675.0
 10
31995.0
 20
-23675.0
 10
31995.0
 20
-24175.0
  0
LWPOLYLINE
  5
152
100
AcDbEntity
  8
PART_PADS_SMD_TOP
100
AcDbPolyline
 90
        4
 70
         1
 10
32395.0
 20
-24175.0
 10
32395.0
 20
-23675.0
 10
32795.0
 20
-23675.0
 10
32795.0
 20
-24175.0
  0
LWPOLYLINE
  5
153
100
AcDbEntity
  8
PART_PADS_SMD_TOP
100
AcDbPolyline
 90
        4
 70
         1
 10
30545.0
 20
-25125.0
 10
30545.0
 20
-24725.0
 10
31045.0
 20
-24725.0
 10
31045.0
 20
-25125.0
  0
LWPOLYLINE
  5
154
100
AcDbEntity
  8
PART_PADS_SMD_TOP
100
AcDbPolyline
 90
        4
 70
         1
 10
30545.0
 20
-25925.0
 10
30545.0
 20
-25525.0
 10
31045.0
 20
-25525.0
 10
31045.0
 20
-25925.0
  0
LWPOLYLINE
  5
155
100
AcDbEntity
  8
PART_PADS_SMD_TOP
100
AcDbPolyline
 90
        4
 70
         1
 10
31545.0
 20
-25125.0
 10
31545.0
 20
-24725.0
 10
32045.0
 20
-24725.0
 10
32045.0
 20
-25125.0
  0
LWPOLYLINE
  5
156
100
AcDbEntity
  8
PART_PADS_SMD_TOP
100
AcDbPolyline
 90
        4
 70
         1
 10
31545.0
 20
-25925.0
 10
31545.0
 20
-25525.0
 10
32045.0
 20
-25525.0
 10
32045.0
 20
-25925.0
  0
LWPOLYLINE
  5
157
100
AcDbEntity
  8
PART_PADS_SMD_TOP
100
AcDbPolyline
 90
        4
 70
         1
 10
37600.0
 20
-30893.75
 10
37600.0
 20
-30093.75
 10
38500.0
 20
-30093.75
 10
38500.0
 20
-30893.75
  0
LWPOLYLINE
  5
158
100
AcDbEntity
  8
PART_PADS_SMD_TOP
100
AcDbPolyline
 90
        4
 70
         1
 10
37600.0
 20
-29306.25
 10
37600.0
 20
-28506.25
 10
38500.0
 20
-28506.25
 10
38500.0
 20
-29306.25
  0
LWPOLYLINE
  5
159
100
AcDbEntity
  8
PART_PADS_SMD_TOP
100
AcDbPolyline
 90
        4
 70
         1
 10
36300.0
 20
-30893.75
 10
36300.0
 20
-30093.75
 10
37200.0
 20
-30093.75
 10
37200.0
 20
-30893.75
  0
LWPOLYLINE
  5
15A
100
AcDbEntity
  8
PART_PADS_SMD_TOP
100
AcDbPolyline
 90
        4
 70
         1
 10
36300.0
 20
-29306.25
 10
36300.0
 20
-28506.25
 10
37200.0
 20
-28506.25
 10
37200.0
 20
-29306.25
  0
LWPOLYLINE
  5
15B
100
AcDbEntity
  8
PART_PADS_SMD_TOP
100
AcDbPolyline
 90
        4
 70
         1
 10
29600.0
 20
-7150.0
 10
29600.0
 20
-6650.0
 10
30000.0
 20
-6650.0
 10
30000.0
 20
-7150.0
  0
LWPOLYLINE
  5
15C
100
AcDbEntity
  8
PART_PADS_SMD_TOP
100
AcDbPolyline
 90
        4
 70
         1
 10
28800.0
 20
-7150.0
 10
28800.0
 20
-6650.0
 10
29200.0
 20
-6650.0
 10
29200.0
 20
-7150.0
  0
LWPOLYLINE
  5
15D
100
AcDbEntity
  8
PART_PADS_SMD_TOP
100
AcDbPolyline
 90
        4
 70
         1
 10
32609.96
 20
-29364.99
 42
1.0
 10
32609.96
 20
-29084.99
 10
31899.96
 20
-29084.99
 10
31899.96
 20
-29364.99
  0
LWPOLYLINE
  5
15E
100
AcDbEntity
  8
PART_PADS_SMD_TOP
100
AcDbPolyline
 90
        4
 70
         1
 10
32609.96
 20
-28864.99
 42
1.0
 10
32609.96
 20
-28584.99
 10
31899.96
 20
-28584.99
 10
31899.96
 20
-28864.99
  0
LWPOLYLINE
  5
15F
100
AcDbEntity
  8
PART_PADS_SMD_TOP
100
AcDbPolyline
 90
        4
 70
         1
 10
32609.96
 20
-28364.99
 42
1.0
 10
32609.96
 20
-28084.99
 10
31899.96
 20
-28084.99
 10
31899.96
 20
-28364.99
  0
LWPOLYLINE
  5
160
100
AcDbEntity
  8
PART_PADS_SMD_TOP
100
AcDbPolyline
 90
        4
 70
         1
 10
32609.96
 20
-27864.99
 42
1.0
 10
32609.96
 20
-27584.99
 10
31899.96
 20
-27584.99
 10
31899.96
 20
-27864.99
  0
LWPOLYLINE
  5
161
100
AcDbEntity
  8
PART_PADS_SMD_TOP
100
AcDbPolyline
 90
        4
 70
         1
 10
32609.96
 20
-27364.99
 42
1.0
 10
32609.96
 20
-27084.99
 10
31899.96
 20
-27084.99
 10
31899.96
 20
-27364.99
  0
LWPOLYLINE
  5
162
100
AcDbEntity
  8
PART_PADS_SMD_TOP
100
AcDbPolyline
 90
        4
 70
         1
 10
34979.96
 20
-27084.99
 42
1.0
 10
34979.96
 20
-27364.99
 10
35689.96
 20
-27364.99
 10
35689.96
 20
-27084.99
  0
LWPOLYLINE
  5
163
100
AcDbEntity
  8
PART_PADS_SMD_TOP
100
AcDbPolyline
 90
        4
 70
         1
 10
34979.96
 20
-27584.99
 42
1.0
 10
34979.96
 20
-27864.99
 10
35689.96
 20
-27864.99
 10
35689.96
 20
-27584.99
  0
LWPOLYLINE
  5
164
100
AcDbEntity
  8
PART_PADS_SMD_TOP
100
AcDbPolyline
 90
        4
 70
         1
 10
34979.96
 20
-28084.99
 42
1.0
 10
34979.96
 20
-28364.99
 10
35689.96
 20
-28364.99
 10
35689.96
 20
-28084.99
  0
LWPOLYLINE
  5
165
100
AcDbEntity
  8
PART_PADS_SMD_TOP
100
AcDbPolyline
 90
        4
 70
         1
 10
34979.96
 20
-28584.99
 42
1.0
 10
34979.96
 20
-28864.99
 10
35689.96
 20
-28864.99
 10
35689.96
 20
-28584.99
  0
LWPOLYLINE
  5
166
100
AcDbEntity
  8
PART_PADS_SMD_TOP
100
AcDbPolyline
 90
        4
 70
         1
 10
34979.96
 20
-29084.99
 42
1.0
 10
34979.96
 20
-29364.99
 10
35689.96
 20
-29364.99
 10
35689.96
 20
-29084.99
  0
LWPOLYLINE
  5
167
100
AcDbEntity
  8
PART_PADS_SMD_TOP
100
AcDbPolyline
 90
       21
 70
         1
 10
32964.92
 20
-29424.98
 10
33424.92
 20
-29424.98
 10
33424.92
 20
-30124.98
 10
33664.92
 20
-30124.98
 10
33664.92
 20
-29424.98
 10
33924.92
 20
-29424.98
 10
33924.92
 20
-30124.98
 10
34044.92
 20
-30124.98
 10
34164.92
 20
-30124.98
 10
34164.92
 20
-29424.98
 10
34614.92
 20
-29424.98
 10
34614.92
 20
-27024.98
 10
34169.92
 20
-27024.98
 10
34169.92
 20
-26321.949
 10
33919.92
 20
-26321.949
 10
33919.92
 20
-27024.98
 10
33669.92
 20
-27024.98
 10
33669.92
 20
-26324.98
 10
33419.92
 20
-26324.98
 10
33419.92
 20
-27024.98
 10
32964.92
 20
-27024.98
  0
LWPOLYLINE
  5
168
100
AcDbEntity
  8
PART_PADS_SMD_TOP
100
AcDbPolyline
 90
        4
 70
         1
 10
36448.405
 20
-28003.432
 10
36448.405
 20
-27503.432
 10
36848.405
 20
-27503.432
 10
36848.405
 20
-28003.432
  0
LWPOLYLINE
  5
169
100
AcDbEntity
  8
PART_PADS_SMD_TOP
100
AcDbPolyline
 90
        4
 70
         1
 10
37248.405
 20
-28003.432
 10
37248.405
 20
-27503.432
 10
37648.405
 20
-27503.432
 10
37648.405
 20
-28003.432
  0
LWPOLYLINE
  5
16A
100
AcDbEntity
  8
PART_PADS_SMD_TOP
100
AcDbPolyline
 90
        4
 70
         1
 10
32545.0
 20
-25125.0
 10
32545.0
 20
-24725.0
 10
33045.0
 20
-24725.0
 10
33045.0
 20
-25125.0
  0
LWPOLYLINE
  5
16B
100
AcDbEntity
  8
PART_PADS_SMD_TOP
100
AcDbPolyline
 90
        4
 70
         1
 10
32545.0
 20
-25925.0
 10
32545.0
 20
-25525.0
 10
33045.0
 20
-25525.0
 10
33045.0
 20
-25925.0
  0
LWPOLYLINE
  5
16C
100
AcDbEntity
  8
PART_PADS_SMD_TOP
100
AcDbPolyline
 90
        4
 70
         1
 10
36395.0
 20
-25075.0
 10
36395.0
 20
-24575.0
 10
36795.0
 20
-24575.0
 10
36795.0
 20
-25075.0
  0
LWPOLYLINE
  5
16D
100
AcDbEntity
  8
PART_PADS_SMD_TOP
100
AcDbPolyline
 90
        4
 70
         1
 10
35595.0
 20
-25075.0
 10
35595.0
 20
-24575.0
 10
35995.0
 20
-24575.0
 10
35995.0
 20
-25075.0
  0
LWPOLYLINE
  5
16E
100
AcDbEntity
  8
PART_PADS_SMD_TOP
100
AcDbPolyline
 90
        4
 70
         1
 10
38045.0
 20
-25031.25
 10
38045.0
 20
-24231.25
 10
38945.0
 20
-24231.25
 10
38945.0
 20
-25031.25
  0
LWPOLYLINE
  5
16F
100
AcDbEntity
  8
PART_PADS_SMD_TOP
100
AcDbPolyline
 90
        4
 70
         1
 10
38045.0
 20
-26618.75
 10
38045.0
 20
-25818.75
 10
38945.0
 20
-25818.75
 10
38945.0
 20
-26618.75
  0
LWPOLYLINE
  5
170
100
AcDbEntity
  8
PART_PADS_SMD_TOP
100
AcDbPolyline
 90
        4
 70
         1
 10
36495.0
 20
-26175.0
 10
36495.0
 20
-25675.0
 10
36895.0
 20
-25675.0
 10
36895.0
 20
-26175.0
  0
LWPOLYLINE
  5
171
100
AcDbEntity
  8
PART_PADS_SMD_TOP
100
AcDbPolyline
 90
        4
 70
         1
 10
35695.0
 20
-26175.0
 10
35695.0
 20
-25675.0
 10
36095.0
 20
-25675.0
 10
36095.0
 20
-26175.0
  0
LWPOLYLINE
  5
172
100
AcDbEntity
  8
PART_PADS_SMD_TOP
100
AcDbPolyline
 90
        4
 70
         1
 10
34145.0
 20
-25225.0
 10
34145.0
 20
-24825.0
 10
34645.0
 20
-24825.0
 10
34645.0
 20
-25225.0
  0
LWPOLYLINE
  5
173
100
AcDbEntity
  8
PART_PADS_SMD_TOP
100
AcDbPolyline
 90
        4
 70
         1
 10
34145.0
 20
-24425.0
 10
34145.0
 20
-24025.0
 10
34645.0
 20
-24025.0
 10
34645.0
 20
-24425.0
  0
LWPOLYLINE
  5
174
100
AcDbEntity
  8
PART_PADS_SMD_TOP
100
AcDbPolyline
 90
        6
 70
         1
 10
30295.0
 20
-37625.0
 10
30295.0
 20
-35025.0
 10
16695.0
 20
-35025.0
 10
16695.0
 20
-37625.0
 42
0.4142135624
 10
18695.0
 20
-39625.0
 10
28295.0
 20
-39625.0
 42
0.4142135624
  0
LWPOLYLINE
  5
175
100
AcDbEntity
  8
PART_PADS_SMD_TOP
100
AcDbPolyline
 90
        6
 70
         1
 10
16695.0
 20
-28025.0
 10
16695.0
 20
-30625.0
 10
30295.0
 20
-30625.0
 10
30295.0
 20
-28025.0
 42
0.4142135624
 10
28295.0
 20
-26025.0
 10
18695.0
 20
-26025.0
 42
0.4142135624
  0
LWPOLYLINE
  5
176
100
AcDbEntity
  8
PART_PADS_SMD_TOP
100
AcDbPolyline
 90
        4
 70
         1
 10
41195.0
 20
-33275.0
 10
41195.0
 20
-32175.0
 10
43195.0
 20
-32175.0
 10
43195.0
 20
-33275.0
  0
LWPOLYLINE
  5
177
100
AcDbEntity
  8
PART_PADS_SMD_TOP
100
AcDbPolyline
 90
        4
 70
         1
 10
41195.0
 20
-37875.0
 10
41195.0
 20
-36775.0
 10
43195.0
 20
-36775.0
 10
43195.0
 20
-37875.0
  0
LWPOLYLINE
  5
178
100
AcDbEntity
  8
PART_PADS_SMD_TOP
100
AcDbPolyline
 90
        4
 70
         1
 10
32095.0
 20
-37775.0
 10
32095.0
 20
-32275.0
 10
38295.0
 20
-32275.0
 10
38295.0
 20
-37775.0
  0
LWPOLYLINE
  5
179
100
AcDbEntity
  8
PART_PADS_SMD_TOP
100
AcDbPolyline
 90
        4
 70
         1
 10
39125.0
 20
-30150.0
 10
39125.0
 20
-28650.0
 10
39925.0
 20
-28650.0
 10
39925.0
 20
-30150.0
  0
LWPOLYLINE
  5
17A
100
AcDbEntity
  8
PART_PADS_SMD_TOP
100
AcDbPolyline
 90
        4
 70
         1
 10
41775.0
 20
-30150.0
 10
41775.0
 20
-28650.0
 10
42575.0
 20
-28650.0
 10
42575.0
 20
-30150.0
  0
LWPOLYLINE
  5
17B
100
AcDbEntity
  8
PART_PADS_SMD_TOP
100
AcDbPolyline
 90
        4
 70
         1
 10
32659.96
 20
-11564.99
 42
1.0
 10
32659.96
 20
-11284.99
 10
31949.96
 20
-11284.99
 10
31949.96
 20
-11564.99
  0
LWPOLYLINE
  5
17C
100
AcDbEntity
  8
PART_PADS_SMD_TOP
100
AcDbPolyline
 90
        4
 70
         1
 10
32659.96
 20
-11064.99
 42
1.0
 10
32659.96
 20
-10784.99
 10
31949.96
 20
-10784.99
 10
31949.96
 20
-11064.99
  0
LWPOLYLINE
  5
17D
100
AcDbEntity
  8
PART_PADS_SMD_TOP
100
AcDbPolyline
 90
        4
 70
         1
 10
32659.96
 20
-10564.99
 42
1.0
 10
32659.96
 20
-10284.99
 10
31949.96
 20
-10284.99
 10
31949.96
 20
-10564.99
  0
LWPOLYLINE
  5
17E
100
AcDbEntity
  8
PART_PADS_SMD_TOP
100
AcDbPolyline
 90
        4
 70
         1
 10
32659.96
 20
-10064.99
 42
1.0
 10
32659.96
 20
-9784.99
 10
31949.96
 20
-9784.99
 10
31949.96
 20
-10064.99
  0
LWPOLYLINE
  5
17F
100
AcDbEntity
  8
PART_PADS_SMD_TOP
100
AcDbPolyline
 90
        4
 70
         1
 10
32659.96
 20
-9564.99
 42
1.0
 10
32659.96
 20
-9284.99
 10
31949.96
 20
-9284.99
 10
31949.96
 20
-9564.99
  0
LWPOLYLINE
  5
180
100
AcDbEntity
  8
PART_PADS_SMD_TOP
100
AcDbPolyline
 90
        4
 70
         1
 10
35029.96
 20
-9284.99
 42
1.0
 10
35029.96
 20
-9564.99
 10
35739.96
 20
-9564.99
 10
35739.96
 20
-9284.99
  0
LWPOLYLINE
  5
181
100
AcDbEntity
  8
PART_PADS_SMD_TOP
100
AcDbPolyline
 90
        4
 70
         1
 10
35029.96
 20
-9784.99
 42
1.0
 10
35029.96
 20
-10064.99
 10
35739.96
 20
-10064.99
 10
35739.96
 20
-9784.99
  0
LWPOLYLINE
  5
182
100
AcDbEntity
  8
PART_PADS_SMD_TOP
100
AcDbPolyline
 90
        4
 70
         1
 10
35029.96
 20
-10284.99
 42
1.0
 10
35029.96
 20
-10564.99
 10
35739.96
 20
-10564.99
 10
35739.96
 20
-10284.99
  0
LWPOLYLINE
  5
183
100
AcDbEntity
  8
PART_PADS_SMD_TOP
100
AcDbPolyline
 90
        4
 70
         1
 10
35029.96
 20
-11284.99
 42
1.0
 10
35029.96
 20
-11564.99
 10
35739.96
 20
-11564.99
 10
35739.96
 20
-11284.99
  0
LWPOLYLINE
  5
184
100
AcDbEntity
  8
PART_PADS_SMD_TOP
100
AcDbPolyline
 90
       21
 70
         1
 10
33014.92
 20
-11624.98
 10
33474.92
 20
-11624.98
 10
33474.92
 20
-12324.98
 10
33714.92
 20
-12324.98
 10
33714.92
 20
-11624.98
 10
33974.92
 20
-11624.98
 10
33974.92
 20
-12324.98
 10
34094.92
 20
-12324.98
 10
34214.92
 20
-12324.98
 10
34214.92
 20
-11624.98
 10
34664.92
 20
-11624.98
 10
34664.92
 20
-9224.98
 10
34219.92
 20
-9224.98
 10
34219.92
 20
-8521.949
 10
33969.92
 20
-8521.949
 10
33969.92
 20
-9224.98
 10
33719.92
 20
-9224.98
 10
33719.92
 20
-8524.98
 10
33469.92
 20
-8524.98
 10
33469.92
 20
-9224.98
 10
33014.92
 20
-9224.98
  0
LWPOLYLINE
  5
185
100
AcDbEntity
  8
PART_PADS_SMD_TOP
100
AcDbPolyline
 90
        4
 70
         1
 10
35029.96
 20
-10784.99
 42
1.0
 10
35029.96
 20
-11064.99
 10
35739.96
 20
-11064.99
 10
35739.96
 20
-10784.99
  0
LWPOLYLINE
  5
186
100
AcDbEntity
  8
PART_PADS_SMD_TOP
100
AcDbPolyline
 90
        6
 70
         1
 10
30345.0
 20
-19825.0
 10
30345.0
 20
-17225.0
 10
16745.0
 20
-17225.0
 10
16745.0
 20
-19825.0
 42
0.4142135624
 10
18745.0
 20
-21825.0
 10
28345.0
 20
-21825.0
 42
0.4142135624
  0
LWPOLYLINE
  5
187
100
AcDbEntity
  8
PART_PADS_SMD_TOP
100
AcDbPolyline
 90
        6
 70
         1
 10
16745.0
 20
-10225.0
 10
16745.0
 20
-12825.0
 10
30345.0
 20
-12825.0
 10
30345.0
 20
-10225.0
 42
0.4142135624
 10
28345.0
 20
-8225.0
 10
18745.0
 20
-8225.0
 42
0.4142135624
  0
LWPOLYLINE
  5
188
100
AcDbEntity
  8
PART_PADS_SMD_TOP
100
AcDbPolyline
 90
        4
 70
         1
 10
39075.0
 20
-12250.0
 10
39075.0
 20
-10750.0
 10
39875.0
 20
-10750.0
 10
39875.0
 20
-12250.0
  0
LWPOLYLINE
  5
189
100
AcDbEntity
  8
PART_PADS_SMD_TOP
100
AcDbPolyline
 90
        4
 70
         1
 10
41725.0
 20
-12250.0
 10
41725.0
 20
-10750.0
 10
42525.0
 20
-10750.0
 10
42525.0
 20
-12250.0
  0
LWPOLYLINE
  5
18A
100
AcDbEntity
  8
PART_PADS_SMD_TOP
100
AcDbPolyline
 90
        4
 70
         1
 10
41145.0
 20
-15175.0
 10
41145.0
 20
-14075.0
 10
43145.0
 20
-14075.0
 10
43145.0
 20
-15175.0
  0
LWPOLYLINE
  5
18B
100
AcDbEntity
  8
PART_PADS_SMD_TOP
100
AcDbPolyline
 90
        4
 70
         1
 10
41145.0
 20
-19775.0
 10
41145.0
 20
-18675.0
 10
43145.0
 20
-18675.0
 10
43145.0
 20
-19775.0
  0
LWPOLYLINE
  5
18C
100
AcDbEntity
  8
PART_PADS_SMD_TOP
100
AcDbPolyline
 90
        4
 70
         1
 10
32045.0
 20
-19675.0
 10
32045.0
 20
-14175.0
 10
38245.0
 20
-14175.0
 10
38245.0
 20
-19675.0
  0
LWPOLYLINE
  5
18D
100
AcDbEntity
  8
PART_PADS_SMD_TOP
100
AcDbPolyline
 90
        4
 70
         1
 10
10375.0
 20
-51450.0
 10
10375.0
 20
-50600.0
 10
11625.0
 20
-50600.0
 10
11625.0
 20
-51450.0
  0
LWPOLYLINE
  5
18E
100
AcDbEntity
  8
PART_PADS_SMD_TOP
100
AcDbPolyline
 90
        4
 70
         1
 10
10375.0
 20
-53000.0
 10
10375.0
 20
-52150.0
 10
11625.0
 20
-52150.0
 10
11625.0
 20
-53000.0
  0
LWPOLYLINE
  5
18F
100
AcDbEntity
  8
PART_PADS_SMD_TOP
100
AcDbPolyline
 90
        4
 70
         1
 10
12440.0
 20
-49340.0
 10
12440.0
 20
-46640.0
 10
15140.0
 20
-46640.0
 10
15140.0
 20
-49340.0
  0
LWPOLYLINE
  5
190
100
AcDbEntity
  8
PART_PADS_SMD_TOP
100
AcDbPolyline
 90
        4
 70
         1
 10
18660.0
 20
-56960.0
 10
18660.0
 20
-54260.0
 10
21360.0
 20
-54260.0
 10
21360.0
 20
-56960.0
  0
LWPOLYLINE
  5
191
100
AcDbEntity
  8
PART_PADS_SMD_TOP
100
AcDbPolyline
 90
        4
 70
         1
 10
12440.0
 20
-56960.0
 10
12440.0
 20
-54260.0
 10
15140.0
 20
-54260.0
 10
15140.0
 20
-56960.0
  0
LWPOLYLINE
  5
192
100
AcDbEntity
  8
PART_PADS_SMD_TOP
100
AcDbPolyline
 90
        4
 70
         1
 10
18660.0
 20
-49340.0
 10
18660.0
 20
-46640.0
 10
21360.0
 20
-46640.0
 10
21360.0
 20
-49340.0
  0
LWPOLYLINE
  5
193
100
AcDbEntity
  8
PART_PADS_SMD_TOP
100
AcDbPolyline
 90
        4
 70
         1
 10
22275.0
 20
-51450.0
 10
22275.0
 20
-50600.0
 10
23525.0
 20
-50600.0
 10
23525.0
 20
-51450.0
  0
LWPOLYLINE
  5
194
100
AcDbEntity
  8
PART_PADS_SMD_TOP
100
AcDbPolyline
 90
        4
 70
         1
 10
22275.0
 20
-53000.0
 10
22275.0
 20
-52150.0
 10
23525.0
 20
-52150.0
 10
23525.0
 20
-53000.0
  0
LWPOLYLINE
  5
195
100
AcDbEntity
  8
PART_PADS_SMD_TOP
100
AcDbPolyline
 90
        4
 70
         1
 10
5150.0
 20
-65650.0
 10
5150.0
 20
-64650.0
 10
7650.0
 20
-64650.0
 10
7650.0
 20
-65650.0
  0
LWPOLYLINE
  5
196
100
AcDbEntity
  8
PART_PADS_SMD_TOP
100
AcDbPolyline
 90
        4
 70
         1
 10
5150.0
 20
-60950.0
 10
5150.0
 20
-59950.0
 10
7650.0
 20
-59950.0
 10
7650.0
 20
-60950.0
  0
LWPOLYLINE
  5
197
100
AcDbEntity
  8
PART_PADS_SMD_TOP
100
AcDbPolyline
 90
        4
 70
         1
 10
8450.0
 20
-65750.0
 10
8450.0
 20
-64650.0
 10
11950.0
 20
-64650.0
 10
11950.0
 20
-65750.0
  0
LWPOLYLINE
  5
198
100
AcDbEntity
  8
PART_PADS_SMD_TOP
100
AcDbPolyline
 90
        4
 70
         1
 10
8450.0
 20
-61150.0
 10
8450.0
 20
-60050.0
 10
11950.0
 20
-60050.0
 10
11950.0
 20
-61150.0
  0
LWPOLYLINE
  5
199
100
AcDbEntity
  8
PART_PADS_SMD_TOP
100
AcDbPolyline
 90
        4
 70
         1
 10
18799.999
 20
-45774.996
 10
18799.999
 20
-44524.996
 10
19649.999
 20
-44524.996
 10
19649.999
 20
-45774.996
  0
LWPOLYLINE
  5
19A
100
AcDbEntity
  8
PART_PADS_SMD_TOP
100
AcDbPolyline
 90
        4
 70
         1
 10
20349.999
 20
-45774.996
 10
20349.999
 20
-44524.996
 10
21199.999
 20
-44524.996
 10
21199.999
 20
-45774.996
  0
LWPOLYLINE
  5
19B
100
AcDbEntity
  8
PART_PADS_SMD_TOP
100
AcDbPolyline
 90
        4
 70
         1
 10
22300.0
 20
-48974.996
 10
22300.0
 20
-47724.996
 10
23150.0
 20
-47724.996
 10
23150.0
 20
-48974.996
  0
LWPOLYLINE
  5
19C
100
AcDbEntity
  8
PART_PADS_SMD_TOP
100
AcDbPolyline
 90
        4
 70
         1
 10
23850.0
 20
-48974.996
 10
23850.0
 20
-47724.996
 10
24700.0
 20
-47724.996
 10
24700.0
 20
-48974.996
  0
LWPOLYLINE
  5
19D
100
AcDbEntity
  8
PART_PADS_SMD_TOP
100
AcDbPolyline
 90
        4
 70
         1
 10
22375.0
 20
-47150.0
 10
22375.0
 20
-45650.0
 10
23175.0
 20
-45650.0
 10
23175.0
 20
-47150.0
  0
LWPOLYLINE
  5
19E
100
AcDbEntity
  8
PART_PADS_SMD_TOP
100
AcDbPolyline
 90
        4
 70
         1
 10
25025.0
 20
-47150.0
 10
25025.0
 20
-45650.0
 10
25825.0
 20
-45650.0
 10
25825.0
 20
-47150.0
  0
LWPOLYLINE
  5
19F
100
AcDbEntity
  8
PART_PADS_SMD_TOP
100
AcDbPolyline
 90
        4
 70
         1
 10
17375.0
 20
-58750.0
 10
17375.0
 20
-57900.0
 10
18625.0
 20
-57900.0
 10
18625.0
 20
-58750.0
  0
LWPOLYLINE
  5
1A0
100
AcDbEntity
  8
PART_PADS_SMD_TOP
100
AcDbPolyline
 90
        4
 70
         1
 10
17375.0
 20
-60300.0
 10
17375.0
 20
-59450.0
 10
18625.0
 20
-59450.0
 10
18625.0
 20
-60300.0
  0
LWPOLYLINE
  5
1A1
100
AcDbEntity
  8
PART_PADS_SMD_TOP
100
AcDbPolyline
 90
        4
 70
         1
 10
19075.0
 20
-58750.0
 10
19075.0
 20
-57900.0
 10
20325.0
 20
-57900.0
 10
20325.0
 20
-58750.0
  0
LWPOLYLINE
  5
1A2
100
AcDbEntity
  8
PART_PADS_SMD_TOP
100
AcDbPolyline
 90
        4
 70
         1
 10
19075.0
 20
-60300.0
 10
19075.0
 20
-59450.0
 10
20325.0
 20
-59450.0
 10
20325.0
 20
-60300.0
  0
LWPOLYLINE
  5
1A3
100
AcDbEntity
  8
PART_PADS_SMD_TOP
100
AcDbPolyline
 90
        4
 70
         1
 10
15675.0
 20
-58750.0
 10
15675.0
 20
-57900.0
 10
16925.0
 20
-57900.0
 10
16925.0
 20
-58750.0
  0
LWPOLYLINE
  5
1A4
100
AcDbEntity
  8
PART_PADS_SMD_TOP
100
AcDbPolyline
 90
        4
 70
         1
 10
15675.0
 20
-60300.0
 10
15675.0
 20
-59450.0
 10
16925.0
 20
-59450.0
 10
16925.0
 20
-60300.0
  0
LWPOLYLINE
  5
1A5
100
AcDbEntity
  8
PART_PADS_SMD_TOP
100
AcDbPolyline
 90
        4
 70
         1
 10
20775.0
 20
-58750.0
 10
20775.0
 20
-57900.0
 10
22025.0
 20
-57900.0
 10
22025.0
 20
-58750.0
  0
LWPOLYLINE
  5
1A6
100
AcDbEntity
  8
PART_PADS_SMD_TOP
100
AcDbPolyline
 90
        4
 70
         1
 10
20775.0
 20
-60300.0
 10
20775.0
 20
-59450.0
 10
22025.0
 20
-59450.0
 10
22025.0
 20
-60300.0
  0
LWPOLYLINE
  5
1A7
100
AcDbEntity
  8
PART_PADS_SMD_TOP
100
AcDbPolyline
 90
        4
 70
         1
 10
23600.0
 20
-56144.0
 10
23600.0
 20
-54644.0
 10
26000.0
 20
-54644.0
 10
26000.0
 20
-56144.0
  0
LWPOLYLINE
  5
1A8
100
AcDbEntity
  8
PART_PADS_SMD_TOP
100
AcDbPolyline
 90
        4
 70
         1
 10
23600.0
 20
-60750.0
 10
23600.0
 20
-59250.0
 10
26000.0
 20
-59250.0
 10
26000.0
 20
-60750.0
  0
LWPOLYLINE
  5
1A9
100
AcDbEntity
  8
PART_PADS_SMD_TOP
100
AcDbPolyline
 90
        4
 70
         1
 10
28125.0
 20
-65847.813
 10
28125.0
 20
-61647.813
 10
31925.0
 20
-61647.813
 10
31925.0
 20
-65847.813
  0
LWPOLYLINE
  5
1AA
100
AcDbEntity
  8
PART_PADS_SMD_TOP
100
AcDbPolyline
 90
        4
 70
         1
 10
28125.0
 20
-59547.813
 10
28125.0
 20
-55347.813
 10
31925.0
 20
-55347.813
 10
31925.0
 20
-59547.813
  0
TEXT
  5
1AC
100
AcDbEntity
  8
PIN_NUMBERS_TOP
100
AcDbText
 10
37442.068
 20
-60752.504
 30
0.0
 40
508.0
  1
1
  7
COURIER_NEW
 72
         1
 11
37660.0
 21
-60530.0
 31
0.0
100
AcDbText
 73
         2
  0
TEXT
  5
1AD
100
AcDbEntity
  8
PIN_NUMBERS_TOP
100
AcDbText
 10
37442.068
 20
-65452.504
 30
0.0
 40
508.0
  1
2
  7
COURIER_NEW
 72
         1
 11
37660.0
 21
-65230.0
 31
0.0
100
AcDbText
 73
         2
  0
TEXT
  5
1AE
100
AcDbEntity
  8
PIN_NUMBERS_TOP
100
AcDbText
 10
41142.068
 20
-60692.504
 30
0.0
 40
508.0
  1
2
  7
COURIER_NEW
 72
         1
 11
41360.0
 21
-60470.0
 31
0.0
100
AcDbText
 73
         2
  0
TEXT
  5
1AF
100
AcDbEntity
  8
PIN_NUMBERS_TOP
100
AcDbText
 10
41142.068
 20
-65292.504
 30
0.0
 40
508.0
  1
1
  7
COURIER_NEW
 72
         1
 11
41360.0
 21
-65070.0
 31
0.0
100
AcDbText
 73
         2
  0
TEXT
  5
1B0
100
AcDbEntity
  8
PIN_NUMBERS_TOP
100
AcDbText
 10
40642.068
 20
-7892.504
 30
0.0
 40
508.0
  1
2
  7
COURIER_NEW
 72
         1
 11
40860.0
 21
-7670.0
 31
0.0
100
AcDbText
 73
         2
  0
TEXT
  5
1B1
100
AcDbEntity
  8
PIN_NUMBERS_TOP
100
AcDbText
 10
40642.068
 20
-7092.504
 30
0.0
 40
508.0
  1
1
  7
COURIER_NEW
 72
         1
 11
40860.0
 21
-6870.0
 31
0.0
100
AcDbText
 73
         2
  0
TEXT
  5
1B2
100
AcDbEntity
  8
PIN_NUMBERS_TOP
100
AcDbText
 10
33282.068
 20
-60047.504
 30
0.0
 40
508.0
  1
1
  7
COURIER_NEW
 72
         1
 11
33500.0
 21
-59825.0
 31
0.0
100
AcDbText
 73
         2
  0
TEXT
  5
1B3
100
AcDbEntity
  8
PIN_NUMBERS_TOP
100
AcDbText
 10
33282.068
 20
-61597.504
 30
0.0
 40
508.0
  1
2
  7
COURIER_NEW
 72
         1
 11
33500.0
 21
-61375.0
 31
0.0
100
AcDbText
 73
         2
  0
TEXT
  5
1B4
100
AcDbEntity
  8
PIN_NUMBERS_TOP
100
AcDbText
 10
13237.693
 20
-6437.503
 30
0.0
 40
508.0
  1
1
  7
COURIER_NEW
 72
         1
 11
13455.625
 21
-6214.999
 31
0.0
100
AcDbText
 73
         2
  0
TEXT
  5
1B5
100
AcDbEntity
  8
PIN_NUMBERS_TOP
100
AcDbText
 10
13237.693
 20
-4887.503
 30
0.0
 40
508.0
  1
2
  7
COURIER_NEW
 72
         1
 11
13455.625
 21
-4664.999
 31
0.0
100
AcDbText
 73
         2
  0
TEXT
  5
1B6
100
AcDbEntity
  8
PIN_NUMBERS_TOP
100
AcDbText
 10
13246.443
 20
-9082.505
 30
0.0
 40
508.0
  1
2
  7
COURIER_NEW
 72
         1
 11
13464.375
 21
-8860.001
 31
0.0
100
AcDbText
 73
         2
  0
TEXT
  5
1B7
100
AcDbEntity
  8
PIN_NUMBERS_TOP
100
AcDbText
 10
13246.443
 20
-8282.505
 30
0.0
 40
508.0
  1
1
  7
COURIER_NEW
 72
         1
 11
13464.375
 21
-8060.001
 31
0.0
100
AcDbText
 73
         2
  0
TEXT
  5
1B8
100
AcDbEntity
  8
PIN_NUMBERS_TOP
100
AcDbText
 10
13237.693
 20
-35922.503
 30
0.0
 40
508.0
  1
2
  7
COURIER_NEW
 72
         1
 11
13455.625
 21
-35699.999
 31
0.0
100
AcDbText
 73
         2
  0
TEXT
  5
1B9
100
AcDbEntity
  8
PIN_NUMBERS_TOP
100
AcDbText
 10
13237.693
 20
-35122.503
 30
0.0
 40
508.0
  1
1
  7
COURIER_NEW
 72
         1
 11
13455.625
 21
-34899.999
 31
0.0
100
AcDbText
 73
         2
  0
TEXT
  5
1BA
100
AcDbEntity
  8
PIN_NUMBERS_TOP
100
AcDbText
 10
13226.443
 20
-33297.505
 30
0.0
 40
508.0
  1
1
  7
COURIER_NEW
 72
         1
 11
13444.375
 21
-33075.001
 31
0.0
100
AcDbText
 73
         2
  0
TEXT
  5
1BB
100
AcDbEntity
  8
PIN_NUMBERS_TOP
100
AcDbText
 10
13226.443
 20
-31747.505
 30
0.0
 40
508.0
  1
2
  7
COURIER_NEW
 72
         1
 11
13444.375
 21
-31525.001
 31
0.0
100
AcDbText
 73
         2
  0
TEXT
  5
1BC
100
AcDbEntity
  8
PIN_NUMBERS_TOP
100
AcDbText
 10
10342.068
 20
-17902.504
 30
0.0
 40
508.0
  1
2
  7
COURIER_NEW
 72
         1
 11
10560.0
 21
-17680.0
 31
0.0
100
AcDbText
 73
         2
  0
TEXT
  5
1BD
100
AcDbEntity
  8
PIN_NUMBERS_TOP
100
AcDbText
 10
10342.068
 20
-17102.504
 30
0.0
 40
508.0
  1
1
  7
COURIER_NEW
 72
         1
 11
10560.0
 21
-16880.0
 31
0.0
100
AcDbText
 73
         2
  0
TEXT
  5
1BE
100
AcDbEntity
  8
PIN_NUMBERS_TOP
100
AcDbText
 10
36582.068
 20
-12816.254
 30
0.0
 40
508.0
  1
1
  7
COURIER_NEW
 72
         1
 11
36800.0
 21
-12593.75
 31
0.0
100
AcDbText
 73
         2
  0
TEXT
  5
1BF
100
AcDbEntity
  8
PIN_NUMBERS_TOP
100
AcDbText
 10
36582.068
 20
-11228.754
 30
0.0
 40
508.0
  1
2
  7
COURIER_NEW
 72
         1
 11
36800.0
 21
-11006.25
 31
0.0
100
AcDbText
 73
         2
  0
TEXT
  5
1C0
100
AcDbEntity
  8
PIN_NUMBERS_TOP
100
AcDbText
 10
37882.068
 20
-12816.254
 30
0.0
 40
508.0
  1
1
  7
COURIER_NEW
 72
         1
 11
38100.0
 21
-12593.75
 31
0.0
100
AcDbText
 73
         2
  0
TEXT
  5
1C1
100
AcDbEntity
  8
PIN_NUMBERS_TOP
100
AcDbText
 10
37882.068
 20
-11228.754
 30
0.0
 40
508.0
  1
2
  7
COURIER_NEW
 72
         1
 11
38100.0
 21
-11006.25
 31
0.0
100
AcDbText
 73
         2
  0
TEXT
  5
1C2
100
AcDbEntity
  8
PIN_NUMBERS_TOP
100
AcDbText
 10
36282.068
 20
-10122.504
 30
0.0
 40
508.0
  1
2
  7
COURIER_NEW
 72
         1
 11
36500.0
 21
-9900.0
 31
0.0
100
AcDbText
 73
         2
  0
TEXT
  5
1C3
100
AcDbEntity
  8
PIN_NUMBERS_TOP
100
AcDbText
 10
37082.068
 20
-10122.504
 30
0.0
 40
508.0
  1
1
  7
COURIER_NEW
 72
         1
 11
37300.0
 21
-9900.0
 31
0.0
100
AcDbText
 73
         2
  0
TEXT
  5
1C4
100
AcDbEntity
  8
PIN_NUMBERS_TOP
100
AcDbText
 10
6732.068
 20
-11422.504
 30
0.0
 40
508.0
  1
1
  7
COURIER_NEW
 72
         1
 11
6950.0
 21
-11200.0
 31
0.0
100
AcDbText
 73
         2
  0
TEXT
  5
1C5
100
AcDbEntity
  8
PIN_NUMBERS_TOP
100
AcDbText
 10
6732.068
 20
-14922.504
 30
0.0
 40
508.0
  1
2
  7
COURIER_NEW
 72
         1
 11
6950.0
 21
-14700.0
 31
0.0
100
AcDbText
 73
         2
  0
TEXT
  5
1C6
100
AcDbEntity
  8
PIN_NUMBERS_TOP
100
AcDbText
 10
6732.068
 20
-18422.504
 30
0.0
 40
508.0
  1
3
  7
COURIER_NEW
 72
         1
 11
6950.0
 21
-18200.0
 31
0.0
100
AcDbText
 73
         2
  0
TEXT
  5
1C7
100
AcDbEntity
  8
PIN_NUMBERS_TOP
100
AcDbText
 10
6732.068
 20
-21922.504
 30
0.0
 40
508.0
  1
4
  7
COURIER_NEW
 72
         1
 11
6950.0
 21
-21700.0
 31
0.0
100
AcDbText
 73
         2
  0
TEXT
  5
1C8
100
AcDbEntity
  8
PIN_NUMBERS_TOP
100
AcDbText
 10
6732.068
 20
-25422.504
 30
0.0
 40
508.0
  1
5
  7
COURIER_NEW
 72
         1
 11
6950.0
 21
-25200.0
 31
0.0
100
AcDbText
 73
         2
  0
TEXT
  5
1C9
100
AcDbEntity
  8
PIN_NUMBERS_TOP
100
AcDbText
 10
6732.068
 20
-28922.504
 30
0.0
 40
508.0
  1
6
  7
COURIER_NEW
 72
         1
 11
6950.0
 21
-28700.0
 31
0.0
100
AcDbText
 73
         2
  0
TEXT
  5
1CA
100
AcDbEntity
  8
PIN_NUMBERS_TOP
100
AcDbText
 10
3082.068
 20
-11422.504
 30
0.0
 40
508.0
  1
1
  7
COURIER_NEW
 72
         1
 11
3300.0
 21
-11200.0
 31
0.0
100
AcDbText
 73
         2
  0
TEXT
  5
1CB
100
AcDbEntity
  8
PIN_NUMBERS_TOP
100
AcDbText
 10
3082.068
 20
-14922.504
 30
0.0
 40
508.0
  1
2
  7
COURIER_NEW
 72
         1
 11
3300.0
 21
-14700.0
 31
0.0
100
AcDbText
 73
         2
  0
TEXT
  5
1CC
100
AcDbEntity
  8
PIN_NUMBERS_TOP
100
AcDbText
 10
3082.068
 20
-18422.504
 30
0.0
 40
508.0
  1
3
  7
COURIER_NEW
 72
         1
 11
3300.0
 21
-18200.0
 31
0.0
100
AcDbText
 73
         2
  0
TEXT
  5
1CD
100
AcDbEntity
  8
PIN_NUMBERS_TOP
100
AcDbText
 10
3082.068
 20
-21922.504
 30
0.0
 40
508.0
  1
4
  7
COURIER_NEW
 72
         1
 11
3300.0
 21
-21700.0
 31
0.0
100
AcDbText
 73
         2
  0
TEXT
  5
1CE
100
AcDbEntity
  8
PIN_NUMBERS_TOP
100
AcDbText
 10
3082.068
 20
-25422.504
 30
0.0
 40
508.0
  1
5
  7
COURIER_NEW
 72
         1
 11
3300.0
 21
-25200.0
 31
0.0
100
AcDbText
 73
         2
  0
TEXT
  5
1CF
100
AcDbEntity
  8
PIN_NUMBERS_TOP
100
AcDbText
 10
3082.068
 20
-28922.504
 30
0.0
 40
508.0
  1
6
  7
COURIER_NEW
 72
         1
 11
3300.0
 21
-28700.0
 31
0.0
100
AcDbText
 73
         2
  0
TEXT
  5
1D0
100
AcDbEntity
  8
PIN_NUMBERS_TOP
100
AcDbText
 10
13902.068
 20
-44102.504
 30
0.0
 40
508.0
  1
2
  7
COURIER_NEW
 72
         1
 11
14120.0
 21
-43880.0
 31
0.0
100
AcDbText
 73
         2
  0
TEXT
  5
1D1
100
AcDbEntity
  8
PIN_NUMBERS_TOP
100
AcDbText
 10
14702.068
 20
-44102.504
 30
0.0
 40
508.0
  1
1
  7
COURIER_NEW
 72
         1
 11
14920.0
 21
-43880.0
 31
0.0
100
AcDbText
 73
         2
  0
TEXT
  5
1D2
100
AcDbEntity
  8
PIN_NUMBERS_TOP
100
AcDbText
 10
14622.068
 20
-13432.504
 30
0.0
 40
508.0
  1
2
  7
COURIER_NEW
 72
         1
 11
14840.0
 21
-13210.0
 31
0.0
100
AcDbText
 73
         2
  0
TEXT
  5
1D3
100
AcDbEntity
  8
PIN_NUMBERS_TOP
100
AcDbText
 10
14622.068
 20
-14232.504
 30
0.0
 40
508.0
  1
1
  7
COURIER_NEW
 72
         1
 11
14840.0
 21
-14010.0
 31
0.0
100
AcDbText
 73
         2
  0
TEXT
  5
1D4
100
AcDbEntity
  8
PIN_NUMBERS_TOP
100
AcDbText
 10
11402.694
 20
-17924.067
 30
0.0
 40
508.0
  1
2
  7
COURIER_NEW
 72
         1
 11
11620.626
 21
-17701.563
 31
0.0
100
AcDbText
 73
         2
  0
TEXT
  5
1D5
100
AcDbEntity
  8
PIN_NUMBERS_TOP
100
AcDbText
 10
11402.694
 20
-17124.067
 30
0.0
 40
508.0
  1
1
  7
COURIER_NEW
 72
         1
 11
11620.626
 21
-16901.563
 31
0.0
100
AcDbText
 73
         2
  0
TEXT
  5
1D6
100
AcDbEntity
  8
PIN_NUMBERS_TOP
100
AcDbText
 10
28932.068
 20
-43412.504
 30
0.0
 40
508.0
  1
2
  7
COURIER_NEW
 72
         1
 11
29150.0
 21
-43190.0
 31
0.0
100
AcDbText
 73
         2
  0
TEXT
  5
1D7
100
AcDbEntity
  8
PIN_NUMBERS_TOP
100
AcDbText
 10
28932.068
 20
-42612.504
 30
0.0
 40
508.0
  1
1
  7
COURIER_NEW
 72
         1
 11
29150.0
 21
-42390.0
 31
0.0
100
AcDbText
 73
         2
  0
TEXT
  5
1D8
100
AcDbEntity
  8
PIN_NUMBERS_TOP
100
AcDbText
 10
26177.068
 20
-41922.504
 30
0.0
 40
508.0
  1
1
  7
COURIER_NEW
 72
         1
 11
26395.0
 21
-41700.0
 31
0.0
100
AcDbText
 73
         2
  0
TEXT
  5
1D9
100
AcDbEntity
  8
PIN_NUMBERS_TOP
100
AcDbText
 10
26177.068
 20
-44572.504
 30
0.0
 40
508.0
  1
2
  7
COURIER_NEW
 72
         1
 11
26395.0
 21
-44350.0
 31
0.0
100
AcDbText
 73
         2
  0
TEXT
  5
1DA
100
AcDbEntity
  8
PIN_NUMBERS_TOP
100
AcDbText
 10
32202.068
 20
-40502.504
 30
0.0
 40
508.0
  1
2
  7
COURIER_NEW
 72
         1
 11
32420.0
 21
-40280.0
 31
0.0
100
AcDbText
 73
         2
  0
TEXT
  5
1DB
100
AcDbEntity
  8
PIN_NUMBERS_TOP
100
AcDbText
 10
31402.068
 20
-40502.504
 30
0.0
 40
508.0
  1
1
  7
COURIER_NEW
 72
         1
 11
31620.0
 21
-40280.0
 31
0.0
100
AcDbText
 73
         2
  0
TEXT
  5
1DC
100
AcDbEntity
  8
PIN_NUMBERS_TOP
100
AcDbText
 10
37402.068
 20
-22502.504
 30
0.0
 40
508.0
  1
2
  7
COURIER_NEW
 72
         1
 11
37620.0
 21
-22280.0
 31
0.0
100
AcDbText
 73
         2
  0
TEXT
  5
1DD
100
AcDbEntity
  8
PIN_NUMBERS_TOP
100
AcDbText
 10
38202.068
 20
-22502.504
 30
0.0
 40
508.0
  1
1
  7
COURIER_NEW
 72
         1
 11
38420.0
 21
-22280.0
 31
0.0
100
AcDbText
 73
         2
  0
TEXT
  5
1DE
100
AcDbEntity
  8
PIN_NUMBERS_TOP
100
AcDbText
 10
41832.068
 20
-25380.941
 30
0.0
 40
508.0
  1
2
  7
COURIER_NEW
 72
         1
 11
42050.0
 21
-25158.437
 31
0.0
100
AcDbText
 73
         2
  0
TEXT
  5
1DF
100
AcDbEntity
  8
PIN_NUMBERS_TOP
100
AcDbText
 10
41032.068
 20
-25380.941
 30
0.0
 40
508.0
  1
1
  7
COURIER_NEW
 72
         1
 11
41250.0
 21
-25158.437
 31
0.0
100
AcDbText
 73
         2
  0
TEXT
  5
1E0
100
AcDbEntity
  8
PIN_NUMBERS_TOP
100
AcDbText
 10
12007.068
 20
-24422.504
 30
0.0
 40
508.0
  1
1
  7
COURIER_NEW
 72
         1
 11
12225.0
 21
-24200.0
 31
0.0
100
AcDbText
 73
         2
  0
TEXT
  5
1E1
100
AcDbEntity
  8
PIN_NUMBERS_TOP
100
AcDbText
 10
13557.068
 20
-24422.504
 30
0.0
 40
508.0
  1
2
  7
COURIER_NEW
 72
         1
 11
13775.0
 21
-24200.0
 31
0.0
100
AcDbText
 73
         2
  0
TEXT
  5
1E2
100
AcDbEntity
  8
PIN_NUMBERS_TOP
100
AcDbText
 10
13937.068
 20
-17372.504
 30
0.0
 40
508.0
  1
1
  7
COURIER_NEW
 72
         1
 11
14155.0
 21
-17150.0
 31
0.0
100
AcDbText
 73
         2
  0
TEXT
  5
1E3
100
AcDbEntity
  8
PIN_NUMBERS_TOP
100
AcDbText
 10
13937.068
 20
-20022.504
 30
0.0
 40
508.0
  1
2
  7
COURIER_NEW
 72
         1
 11
14155.0
 21
-19800.0
 31
0.0
100
AcDbText
 73
         2
  0
TEXT
  5
1E4
100
AcDbEntity
  8
PIN_NUMBERS_TOP
100
AcDbText
 10
12162.068
 20
-22242.504
 30
0.0
 40
508.0
  1
2
  7
COURIER_NEW
 72
         1
 11
12380.0
 21
-22020.0
 31
0.0
100
AcDbText
 73
         2
  0
TEXT
  5
1E5
100
AcDbEntity
  8
PIN_NUMBERS_TOP
100
AcDbText
 10
11362.068
 20
-22242.504
 30
0.0
 40
508.0
  1
1
  7
COURIER_NEW
 72
         1
 11
11580.0
 21
-22020.0
 31
0.0
100
AcDbText
 73
         2
  0
TEXT
  5
1E6
100
AcDbEntity
  8
PIN_NUMBERS_TOP
100
AcDbText
 10
37122.068
 20
-4282.504
 30
0.0
 40
508.0
  1
2
  7
COURIER_NEW
 72
         1
 11
37340.0
 21
-4060.0
 31
0.0
100
AcDbText
 73
         2
  0
TEXT
  5
1E7
100
AcDbEntity
  8
PIN_NUMBERS_TOP
100
AcDbText
 10
37922.068
 20
-4282.504
 30
0.0
 40
508.0
  1
1
  7
COURIER_NEW
 72
         1
 11
38140.0
 21
-4060.0
 31
0.0
100
AcDbText
 73
         2
  0
TEXT
  5
1E8
100
AcDbEntity
  8
PIN_NUMBERS_TOP
100
AcDbText
 10
11832.068
 20
-11562.504
 30
0.0
 40
508.0
  1
2
  7
COURIER_NEW
 72
         1
 11
12050.0
 21
-11340.0
 31
0.0
100
AcDbText
 73
         2
  0
TEXT
  5
1E9
100
AcDbEntity
  8
PIN_NUMBERS_TOP
100
AcDbText
 10
11832.068
 20
-12362.504
 30
0.0
 40
508.0
  1
1
  7
COURIER_NEW
 72
         1
 11
12050.0
 21
-12140.0
 31
0.0
100
AcDbText
 73
         2
  0
TEXT
  5
1EA
100
AcDbEntity
  8
PIN_NUMBERS_TOP
100
AcDbText
 10
37482.068
 20
-8422.504
 30
0.0
 40
508.0
  1
2
  7
COURIER_NEW
 72
         1
 11
37700.0
 21
-8200.0
 31
0.0
100
AcDbText
 73
         2
  0
TEXT
  5
1EB
100
AcDbEntity
  8
PIN_NUMBERS_TOP
100
AcDbText
 10
36682.068
 20
-8422.504
 30
0.0
 40
508.0
  1
1
  7
COURIER_NEW
 72
         1
 11
36900.0
 21
-8200.0
 31
0.0
100
AcDbText
 73
         2
  0
TEXT
  5
1EC
100
AcDbEntity
  8
PIN_NUMBERS_TOP
100
AcDbText
 10
39682.068
 20
-7922.504
 30
0.0
 40
508.0
  1
2
  7
COURIER_NEW
 72
         1
 11
39900.0
 21
-7700.0
 31
0.0
100
AcDbText
 73
         2
  0
TEXT
  5
1ED
100
AcDbEntity
  8
PIN_NUMBERS_TOP
100
AcDbText
 10
39682.068
 20
-7122.504
 30
0.0
 40
508.0
  1
1
  7
COURIER_NEW
 72
         1
 11
39900.0
 21
-6900.0
 31
0.0
100
AcDbText
 73
         2
  0
TEXT
  5
1EE
100
AcDbEntity
  8
PIN_NUMBERS_TOP
100
AcDbText
 10
35082.068
 20
-6922.504
 30
0.0
 40
508.0
  1
2
  7
COURIER_NEW
 72
         1
 11
35300.0
 21
-6700.0
 31
0.0
100
AcDbText
 73
         2
  0
TEXT
  5
1EF
100
AcDbEntity
  8
PIN_NUMBERS_TOP
100
AcDbText
 10
35082.068
 20
-6122.504
 30
0.0
 40
508.0
  1
1
  7
COURIER_NEW
 72
         1
 11
35300.0
 21
-5900.0
 31
0.0
100
AcDbText
 73
         2
  0
TEXT
  5
1F0
100
AcDbEntity
  8
PIN_NUMBERS_TOP
100
AcDbText
 10
37482.068
 20
-6522.504
 30
0.0
 40
508.0
  1
2
  7
COURIER_NEW
 72
         1
 11
37700.0
 21
-6300.0
 31
0.0
100
AcDbText
 73
         2
  0
TEXT
  5
1F1
100
AcDbEntity
  8
PIN_NUMBERS_TOP
100
AcDbText
 10
36682.068
 20
-6522.504
 30
0.0
 40
508.0
  1
1
  7
COURIER_NEW
 72
         1
 11
36900.0
 21
-6300.0
 31
0.0
100
AcDbText
 73
         2
  0
TEXT
  5
1F2
100
AcDbEntity
  8
PIN_NUMBERS_TOP
100
AcDbText
 10
33427.068
 20
-7247.504
 30
0.0
 40
508.0
  1
2
  7
COURIER_NEW
 72
         1
 11
33645.0
 21
-7025.0
 31
0.0
100
AcDbText
 73
         2
  0
TEXT
  5
1F3
100
AcDbEntity
  8
PIN_NUMBERS_TOP
100
AcDbText
 10
33427.068
 20
-8047.504
 30
0.0
 40
508.0
  1
1
  7
COURIER_NEW
 72
         1
 11
33645.0
 21
-7825.0
 31
0.0
100
AcDbText
 73
         2
  0
TEXT
  5
1F4
100
AcDbEntity
  8
PIN_NUMBERS_TOP
100
AcDbText
 10
33427.068
 20
-5567.504
 30
0.0
 40
508.0
  1
2
  7
COURIER_NEW
 72
         1
 11
33645.0
 21
-5345.0
 31
0.0
100
AcDbText
 73
         2
  0
TEXT
  5
1F5
100
AcDbEntity
  8
PIN_NUMBERS_TOP
100
AcDbText
 10
33427.068
 20
-6367.504
 30
0.0
 40
508.0
  1
1
  7
COURIER_NEW
 72
         1
 11
33645.0
 21
-6145.0
 31
0.0
100
AcDbText
 73
         2
  0
TEXT
  5
1F6
100
AcDbEntity
  8
PIN_NUMBERS_TOP
100
AcDbText
 10
30927.068
 20
-7347.504
 30
0.0
 40
508.0
  1
2
  7
COURIER_NEW
 72
         1
 11
31145.0
 21
-7125.0
 31
0.0
100
AcDbText
 73
         2
  0
TEXT
  5
1F7
100
AcDbEntity
  8
PIN_NUMBERS_TOP
100
AcDbText
 10
30927.068
 20
-8147.504
 30
0.0
 40
508.0
  1
1
  7
COURIER_NEW
 72
         1
 11
31145.0
 21
-7925.0
 31
0.0
100
AcDbText
 73
         2
  0
TEXT
  5
1F8
100
AcDbEntity
  8
PIN_NUMBERS_TOP
100
AcDbText
 10
32182.068
 20
-7616.254
 30
0.0
 40
508.0
  1
1
  7
COURIER_NEW
 72
         1
 11
32400.0
 21
-7393.75
 31
0.0
100
AcDbText
 73
         2
  0
TEXT
  5
1F9
100
AcDbEntity
  8
PIN_NUMBERS_TOP
100
AcDbText
 10
32182.068
 20
-6028.754
 30
0.0
 40
508.0
  1
2
  7
COURIER_NEW
 72
         1
 11
32400.0
 21
-5806.25
 31
0.0
100
AcDbText
 73
         2
  0
TEXT
  5
1FA
100
AcDbEntity
  8
PIN_NUMBERS_TOP
100
AcDbText
 10
31577.068
 20
-24147.504
 30
0.0
 40
508.0
  1
2
  7
COURIER_NEW
 72
         1
 11
31795.0
 21
-23925.0
 31
0.0
100
AcDbText
 73
         2
  0
TEXT
  5
1FB
100
AcDbEntity
  8
PIN_NUMBERS_TOP
100
AcDbText
 10
32377.068
 20
-24147.504
 30
0.0
 40
508.0
  1
1
  7
COURIER_NEW
 72
         1
 11
32595.0
 21
-23925.0
 31
0.0
100
AcDbText
 73
         2
  0
TEXT
  5
1FC
100
AcDbEntity
  8
PIN_NUMBERS_TOP
100
AcDbText
 10
30577.068
 20
-25147.504
 30
0.0
 40
508.0
  1
2
  7
COURIER_NEW
 72
         1
 11
30795.0
 21
-24925.0
 31
0.0
100
AcDbText
 73
         2
  0
TEXT
  5
1FD
100
AcDbEntity
  8
PIN_NUMBERS_TOP
100
AcDbText
 10
30577.068
 20
-25947.504
 30
0.0
 40
508.0
  1
1
  7
COURIER_NEW
 72
         1
 11
30795.0
 21
-25725.0
 31
0.0
100
AcDbText
 73
         2
  0
TEXT
  5
1FE
100
AcDbEntity
  8
PIN_NUMBERS_TOP
100
AcDbText
 10
31577.068
 20
-25147.504
 30
0.0
 40
508.0
  1
2
  7
COURIER_NEW
 72
         1
 11
31795.0
 21
-24925.0
 31
0.0
100
AcDbText
 73
         2
  0
TEXT
  5
1FF
100
AcDbEntity
  8
PIN_NUMBERS_TOP
100
AcDbText
 10
31577.068
 20
-25947.504
 30
0.0
 40
508.0
  1
1
  7
COURIER_NEW
 72
         1
 11
31795.0
 21
-25725.0
 31
0.0
100
AcDbText
 73
         2
  0
TEXT
  5
200
100
AcDbEntity
  8
PIN_NUMBERS_TOP
100
AcDbText
 10
37832.068
 20
-30716.254
 30
0.0
 40
508.0
  1
1
  7
COURIER_NEW
 72
         1
 11
38050.0
 21
-30493.75
 31
0.0
100
AcDbText
 73
         2
  0
TEXT
  5
201
100
AcDbEntity
  8
PIN_NUMBERS_TOP
100
AcDbText
 10
37832.068
 20
-29128.754
 30
0.0
 40
508.0
  1
2
  7
COURIER_NEW
 72
         1
 11
38050.0
 21
-28906.25
 31
0.0
100
AcDbText
 73
         2
  0
TEXT
  5
202
100
AcDbEntity
  8
PIN_NUMBERS_TOP
100
AcDbText
 10
36532.068
 20
-30716.254
 30
0.0
 40
508.0
  1
1
  7
COURIER_NEW
 72
         1
 11
36750.0
 21
-30493.75
 31
0.0
100
AcDbText
 73
         2
  0
TEXT
  5
203
100
AcDbEntity
  8
PIN_NUMBERS_TOP
100
AcDbText
 10
36532.068
 20
-29128.754
 30
0.0
 40
508.0
  1
2
  7
COURIER_NEW
 72
         1
 11
36750.0
 21
-28906.25
 31
0.0
100
AcDbText
 73
         2
  0
TEXT
  5
204
100
AcDbEntity
  8
PIN_NUMBERS_TOP
100
AcDbText
 10
29582.068
 20
-7122.504
 30
0.0
 40
508.0
  1
2
  7
COURIER_NEW
 72
         1
 11
29800.0
 21
-6900.0
 31
0.0
100
AcDbText
 73
         2
  0
TEXT
  5
205
100
AcDbEntity
  8
PIN_NUMBERS_TOP
100
AcDbText
 10
28782.068
 20
-7122.504
 30
0.0
 40
508.0
  1
1
  7
COURIER_NEW
 72
         1
 11
29000.0
 21
-6900.0
 31
0.0
100
AcDbText
 73
         2
  0
TEXT
  5
206
100
AcDbEntity
  8
PIN_NUMBERS_TOP
100
AcDbText
 10
32107.028
 20
-29447.494
 30
0.0
 40
508.0
  1
1
  7
COURIER_NEW
 72
         1
 11
32324.96
 21
-29224.99
 31
0.0
100
AcDbText
 73
         2
  0
TEXT
  5
207
100
AcDbEntity
  8
PIN_NUMBERS_TOP
100
AcDbText
 10
32107.028
 20
-28947.494
 30
0.0
 40
508.0
  1
2
  7
COURIER_NEW
 72
         1
 11
32324.96
 21
-28724.99
 31
0.0
100
AcDbText
 73
         2
  0
TEXT
  5
208
100
AcDbEntity
  8
PIN_NUMBERS_TOP
100
AcDbText
 10
32107.028
 20
-28447.494
 30
0.0
 40
508.0
  1
3
  7
COURIER_NEW
 72
         1
 11
32324.96
 21
-28224.99
 31
0.0
100
AcDbText
 73
         2
  0
TEXT
  5
209
100
AcDbEntity
  8
PIN_NUMBERS_TOP
100
AcDbText
 10
32107.028
 20
-27947.494
 30
0.0
 40
508.0
  1
4
  7
COURIER_NEW
 72
         1
 11
32324.96
 21
-27724.99
 31
0.0
100
AcDbText
 73
         2
  0
TEXT
  5
20A
100
AcDbEntity
  8
PIN_NUMBERS_TOP
100
AcDbText
 10
32107.028
 20
-27447.494
 30
0.0
 40
508.0
  1
5
  7
COURIER_NEW
 72
         1
 11
32324.96
 21
-27224.99
 31
0.0
100
AcDbText
 73
         2
  0
TEXT
  5
20B
100
AcDbEntity
  8
PIN_NUMBERS_TOP
100
AcDbText
 10
35047.028
 20
-27447.494
 30
0.0
 40
508.0
  1
6
  7
COURIER_NEW
 72
         1
 11
35264.96
 21
-27224.99
 31
0.0
100
AcDbText
 73
         2
  0
TEXT
  5
20C
100
AcDbEntity
  8
PIN_NUMBERS_TOP
100
AcDbText
 10
35047.028
 20
-27947.494
 30
0.0
 40
508.0
  1
7
  7
COURIER_NEW
 72
         1
 11
35264.96
 21
-27724.99
 31
0.0
100
AcDbText
 73
         2
  0
TEXT
  5
20D
100
AcDbEntity
  8
PIN_NUMBERS_TOP
100
AcDbText
 10
35047.028
 20
-28447.494
 30
0.0
 40
508.0
  1
8
  7
COURIER_NEW
 72
         1
 11
35264.96
 21
-28224.99
 31
0.0
100
AcDbText
 73
         2
  0
TEXT
  5
20E
100
AcDbEntity
  8
PIN_NUMBERS_TOP
100
AcDbText
 10
35047.028
 20
-28947.494
 30
0.0
 40
508.0
  1
9
  7
COURIER_NEW
 72
         1
 11
35264.96
 21
-28724.99
 31
0.0
100
AcDbText
 73
         2
  0
TEXT
  5
20F
100
AcDbEntity
  8
PIN_NUMBERS_TOP
100
AcDbText
 10
34829.096
 20
-29447.494
 30
0.0
 40
508.0
  1
10
  7
COURIER_NEW
 72
         1
 11
35264.96
 21
-29224.99
 31
0.0
100
AcDbText
 73
         2
  0
TEXT
  5
210
100
AcDbEntity
  8
PIN_NUMBERS_TOP
100
AcDbText
 10
33359.056
 20
-28447.484
 30
0.0
 40
508.0
  1
11
  7
COURIER_NEW
 72
         1
 11
33794.92
 21
-28224.98
 31
0.0
100
AcDbText
 73
         2
  0
TEXT
  5
211
100
AcDbEntity
  8
PIN_NUMBERS_TOP
100
AcDbText
 10
36430.473
 20
-27975.936
 30
0.0
 40
508.0
  1
2
  7
COURIER_NEW
 72
         1
 11
36648.405
 21
-27753.432
 31
0.0
100
AcDbText
 73
         2
  0
TEXT
  5
212
100
AcDbEntity
  8
PIN_NUMBERS_TOP
100
AcDbText
 10
37230.473
 20
-27975.936
 30
0.0
 40
508.0
  1
1
  7
COURIER_NEW
 72
         1
 11
37448.405
 21
-27753.432
 31
0.0
100
AcDbText
 73
         2
  0
TEXT
  5
213
100
AcDbEntity
  8
PIN_NUMBERS_TOP
100
AcDbText
 10
32577.068
 20
-25147.504
 30
0.0
 40
508.0
  1
2
  7
COURIER_NEW
 72
         1
 11
32795.0
 21
-24925.0
 31
0.0
100
AcDbText
 73
         2
  0
TEXT
  5
214
100
AcDbEntity
  8
PIN_NUMBERS_TOP
100
AcDbText
 10
32577.068
 20
-25947.504
 30
0.0
 40
508.0
  1
1
  7
COURIER_NEW
 72
         1
 11
32795.0
 21
-25725.0
 31
0.0
100
AcDbText
 73
         2
  0
TEXT
  5
215
100
AcDbEntity
  8
PIN_NUMBERS_TOP
100
AcDbText
 10
36377.068
 20
-25047.504
 30
0.0
 40
508.0
  1
2
  7
COURIER_NEW
 72
         1
 11
36595.0
 21
-24825.0
 31
0.0
100
AcDbText
 73
         2
  0
TEXT
  5
216
100
AcDbEntity
  8
PIN_NUMBERS_TOP
100
AcDbText
 10
35577.068
 20
-25047.504
 30
0.0
 40
508.0
  1
1
  7
COURIER_NEW
 72
         1
 11
35795.0
 21
-24825.0
 31
0.0
100
AcDbText
 73
         2
  0
TEXT
  5
217
100
AcDbEntity
  8
PIN_NUMBERS_TOP
100
AcDbText
 10
38277.068
 20
-24853.754
 30
0.0
 40
508.0
  1
1
  7
COURIER_NEW
 72
         1
 11
38495.0
 21
-24631.25
 31
0.0
100
AcDbText
 73
         2
  0
TEXT
  5
218
100
AcDbEntity
  8
PIN_NUMBERS_TOP
100
AcDbText
 10
38277.068
 20
-26441.254
 30
0.0
 40
508.0
  1
2
  7
COURIER_NEW
 72
         1
 11
38495.0
 21
-26218.75
 31
0.0
100
AcDbText
 73
         2
  0
TEXT
  5
219
100
AcDbEntity
  8
PIN_NUMBERS_TOP
100
AcDbText
 10
36477.068
 20
-26147.504
 30
0.0
 40
508.0
  1
2
  7
COURIER_NEW
 72
         1
 11
36695.0
 21
-25925.0
 31
0.0
100
AcDbText
 73
         2
  0
TEXT
  5
21A
100
AcDbEntity
  8
PIN_NUMBERS_TOP
100
AcDbText
 10
35677.068
 20
-26147.504
 30
0.0
 40
508.0
  1
1
  7
COURIER_NEW
 72
         1
 11
35895.0
 21
-25925.0
 31
0.0
100
AcDbText
 73
         2
  0
TEXT
  5
21B
100
AcDbEntity
  8
PIN_NUMBERS_TOP
100
AcDbText
 10
34177.068
 20
-25247.504
 30
0.0
 40
508.0
  1
2
  7
COURIER_NEW
 72
         1
 11
34395.0
 21
-25025.0
 31
0.0
100
AcDbText
 73
         2
  0
TEXT
  5
21C
100
AcDbEntity
  8
PIN_NUMBERS_TOP
100
AcDbText
 10
34177.068
 20
-24447.504
 30
0.0
 40
508.0
  1
1
  7
COURIER_NEW
 72
         1
 11
34395.0
 21
-24225.0
 31
0.0
100
AcDbText
 73
         2
  0
TEXT
  5
21D
100
AcDbEntity
  8
PIN_NUMBERS_TOP
100
AcDbText
 10
23277.068
 20
-37647.504
 30
0.0
 40
508.0
  1
2
  7
COURIER_NEW
 72
         1
 11
23495.0
 21
-37425.0
 31
0.0
100
AcDbText
 73
         2
  0
TEXT
  5
21E
100
AcDbEntity
  8
PIN_NUMBERS_TOP
100
AcDbText
 10
23277.068
 20
-28447.504
 30
0.0
 40
508.0
  1
1
  7
COURIER_NEW
 72
         1
 11
23495.0
 21
-28225.0
 31
0.0
100
AcDbText
 73
         2
  0
TEXT
  5
21F
100
AcDbEntity
  8
PIN_NUMBERS_TOP
100
AcDbText
 10
41977.068
 20
-32947.504
 30
0.0
 40
508.0
  1
1
  7
COURIER_NEW
 72
         1
 11
42195.0
 21
-32725.0
 31
0.0
100
AcDbText
 73
         2
  0
TEXT
  5
220
100
AcDbEntity
  8
PIN_NUMBERS_TOP
100
AcDbText
 10
41977.068
 20
-37547.504
 30
0.0
 40
508.0
  1
3
  7
COURIER_NEW
 72
         1
 11
42195.0
 21
-37325.0
 31
0.0
100
AcDbText
 73
         2
  0
TEXT
  5
221
100
AcDbEntity
  8
PIN_NUMBERS_TOP
100
AcDbText
 10
34977.068
 20
-35247.504
 30
0.0
 40
508.0
  1
2
  7
COURIER_NEW
 72
         1
 11
35195.0
 21
-35025.0
 31
0.0
100
AcDbText
 73
         2
  0
TEXT
  5
222
100
AcDbEntity
  8
PIN_NUMBERS_TOP
100
AcDbText
 10
39307.068
 20
-29622.504
 30
0.0
 40
508.0
  1
1
  7
COURIER_NEW
 72
         1
 11
39525.0
 21
-29400.0
 31
0.0
100
AcDbText
 73
         2
  0
TEXT
  5
223
100
AcDbEntity
  8
PIN_NUMBERS_TOP
100
AcDbText
 10
41957.068
 20
-29622.504
 30
0.0
 40
508.0
  1
2
  7
COURIER_NEW
 72
         1
 11
42175.0
 21
-29400.0
 31
0.0
100
AcDbText
 73
         2
  0
TEXT
  5
224
100
AcDbEntity
  8
PIN_NUMBERS_TOP
100
AcDbText
 10
32157.028
 20
-11647.494
 30
0.0
 40
508.0
  1
1
  7
COURIER_NEW
 72
         1
 11
32374.96
 21
-11424.99
 31
0.0
100
AcDbText
 73
         2
  0
TEXT
  5
225
100
AcDbEntity
  8
PIN_NUMBERS_TOP
100
AcDbText
 10
32157.028
 20
-11147.494
 30
0.0
 40
508.0
  1
2
  7
COURIER_NEW
 72
         1
 11
32374.96
 21
-10924.99
 31
0.0
100
AcDbText
 73
         2
  0
TEXT
  5
226
100
AcDbEntity
  8
PIN_NUMBERS_TOP
100
AcDbText
 10
32157.028
 20
-10647.494
 30
0.0
 40
508.0
  1
3
  7
COURIER_NEW
 72
         1
 11
32374.96
 21
-10424.99
 31
0.0
100
AcDbText
 73
         2
  0
TEXT
  5
227
100
AcDbEntity
  8
PIN_NUMBERS_TOP
100
AcDbText
 10
32157.028
 20
-10147.494
 30
0.0
 40
508.0
  1
4
  7
COURIER_NEW
 72
         1
 11
32374.96
 21
-9924.99
 31
0.0
100
AcDbText
 73
         2
  0
TEXT
  5
228
100
AcDbEntity
  8
PIN_NUMBERS_TOP
100
AcDbText
 10
32157.028
 20
-9647.494
 30
0.0
 40
508.0
  1
5
  7
COURIER_NEW
 72
         1
 11
32374.96
 21
-9424.99
 31
0.0
100
AcDbText
 73
         2
  0
TEXT
  5
229
100
AcDbEntity
  8
PIN_NUMBERS_TOP
100
AcDbText
 10
35097.028
 20
-9647.494
 30
0.0
 40
508.0
  1
6
  7
COURIER_NEW
 72
         1
 11
35314.96
 21
-9424.99
 31
0.0
100
AcDbText
 73
         2
  0
TEXT
  5
22A
100
AcDbEntity
  8
PIN_NUMBERS_TOP
100
AcDbText
 10
35097.028
 20
-10147.494
 30
0.0
 40
508.0
  1
7
  7
COURIER_NEW
 72
         1
 11
35314.96
 21
-9924.99
 31
0.0
100
AcDbText
 73
         2
  0
TEXT
  5
22B
100
AcDbEntity
  8
PIN_NUMBERS_TOP
100
AcDbText
 10
35097.028
 20
-10647.494
 30
0.0
 40
508.0
  1
8
  7
COURIER_NEW
 72
         1
 11
35314.96
 21
-10424.99
 31
0.0
100
AcDbText
 73
         2
  0
TEXT
  5
22C
100
AcDbEntity
  8
PIN_NUMBERS_TOP
100
AcDbText
 10
34879.096
 20
-11647.494
 30
0.0
 40
508.0
  1
10
  7
COURIER_NEW
 72
         1
 11
35314.96
 21
-11424.99
 31
0.0
100
AcDbText
 73
         2
  0
TEXT
  5
22D
100
AcDbEntity
  8
PIN_NUMBERS_TOP
100
AcDbText
 10
33409.056
 20
-10647.484
 30
0.0
 40
508.0
  1
11
  7
COURIER_NEW
 72
         1
 11
33844.92
 21
-10424.98
 31
0.0
100
AcDbText
 73
         2
  0
TEXT
  5
22E
100
AcDbEntity
  8
PIN_NUMBERS_TOP
100
AcDbText
 10
35097.028
 20
-11147.494
 30
0.0
 40
508.0
  1
9
  7
COURIER_NEW
 72
         1
 11
35314.96
 21
-10924.99
 31
0.0
100
AcDbText
 73
         2
  0
TEXT
  5
22F
100
AcDbEntity
  8
PIN_NUMBERS_TOP
100
AcDbText
 10
23327.068
 20
-19847.504
 30
0.0
 40
508.0
  1
2
  7
COURIER_NEW
 72
         1
 11
23545.0
 21
-19625.0
 31
0.0
100
AcDbText
 73
         2
  0
TEXT
  5
230
100
AcDbEntity
  8
PIN_NUMBERS_TOP
100
AcDbText
 10
23327.068
 20
-10647.504
 30
0.0
 40
508.0
  1
1
  7
COURIER_NEW
 72
         1
 11
23545.0
 21
-10425.0
 31
0.0
100
AcDbText
 73
         2
  0
TEXT
  5
231
100
AcDbEntity
  8
PIN_NUMBERS_TOP
100
AcDbText
 10
39257.068
 20
-11722.504
 30
0.0
 40
508.0
  1
1
  7
COURIER_NEW
 72
         1
 11
39475.0
 21
-11500.0
 31
0.0
100
AcDbText
 73
         2
  0
TEXT
  5
232
100
AcDbEntity
  8
PIN_NUMBERS_TOP
100
AcDbText
 10
41907.068
 20
-11722.504
 30
0.0
 40
508.0
  1
2
  7
COURIER_NEW
 72
         1
 11
42125.0
 21
-11500.0
 31
0.0
100
AcDbText
 73
         2
  0
TEXT
  5
233
100
AcDbEntity
  8
PIN_NUMBERS_TOP
100
AcDbText
 10
41927.068
 20
-14847.504
 30
0.0
 40
508.0
  1
1
  7
COURIER_NEW
 72
         1
 11
42145.0
 21
-14625.0
 31
0.0
100
AcDbText
 73
         2
  0
TEXT
  5
234
100
AcDbEntity
  8
PIN_NUMBERS_TOP
100
AcDbText
 10
41927.068
 20
-19447.504
 30
0.0
 40
508.0
  1
3
  7
COURIER_NEW
 72
         1
 11
42145.0
 21
-19225.0
 31
0.0
100
AcDbText
 73
         2
  0
TEXT
  5
235
100
AcDbEntity
  8
PIN_NUMBERS_TOP
100
AcDbText
 10
34927.068
 20
-17147.504
 30
0.0
 40
508.0
  1
2
  7
COURIER_NEW
 72
         1
 11
35145.0
 21
-16925.0
 31
0.0
100
AcDbText
 73
         2
  0
TEXT
  5
236
100
AcDbEntity
  8
PIN_NUMBERS_TOP
100
AcDbText
 10
10782.068
 20
-51247.504
 30
0.0
 40
508.0
  1
1
  7
COURIER_NEW
 72
         1
 11
11000.0
 21
-51025.0
 31
0.0
100
AcDbText
 73
         2
  0
TEXT
  5
237
100
AcDbEntity
  8
PIN_NUMBERS_TOP
100
AcDbText
 10
10782.068
 20
-52797.504
 30
0.0
 40
508.0
  1
2
  7
COURIER_NEW
 72
         1
 11
11000.0
 21
-52575.0
 31
0.0
100
AcDbText
 73
         2
  0
TEXT
  5
238
100
AcDbEntity
  8
PIN_NUMBERS_TOP
100
AcDbText
 10
13572.068
 20
-48212.504
 30
0.0
 40
508.0
  1
3
  7
COURIER_NEW
 72
         1
 11
13790.0
 21
-47990.0
 31
0.0
100
AcDbText
 73
         2
  0
TEXT
  5
239
100
AcDbEntity
  8
PIN_NUMBERS_TOP
100
AcDbText
 10
19792.068
 20
-55832.504
 30
0.0
 40
508.0
  1
1
  7
COURIER_NEW
 72
         1
 11
20010.0
 21
-55610.0
 31
0.0
100
AcDbText
 73
         2
  0
TEXT
  5
23A
100
AcDbEntity
  8
PIN_NUMBERS_TOP
100
AcDbText
 10
13572.068
 20
-55832.504
 30
0.0
 40
508.0
  1
2
  7
COURIER_NEW
 72
         1
 11
13790.0
 21
-55610.0
 31
0.0
100
AcDbText
 73
         2
  0
TEXT
  5
23B
100
AcDbEntity
  8
PIN_NUMBERS_TOP
100
AcDbText
 10
19792.068
 20
-48212.504
 30
0.0
 40
508.0
  1
4
  7
COURIER_NEW
 72
         1
 11
20010.0
 21
-47990.0
 31
0.0
100
AcDbText
 73
         2
  0
TEXT
  5
23C
100
AcDbEntity
  8
PIN_NUMBERS_TOP
100
AcDbText
 10
22682.068
 20
-51247.504
 30
0.0
 40
508.0
  1
1
  7
COURIER_NEW
 72
         1
 11
22900.0
 21
-51025.0
 31
0.0
100
AcDbText
 73
         2
  0
TEXT
  5
23D
100
AcDbEntity
  8
PIN_NUMBERS_TOP
100
AcDbText
 10
22682.068
 20
-52797.504
 30
0.0
 40
508.0
  1
2
  7
COURIER_NEW
 72
         1
 11
22900.0
 21
-52575.0
 31
0.0
100
AcDbText
 73
         2
  0
TEXT
  5
23E
100
AcDbEntity
  8
PIN_NUMBERS_TOP
100
AcDbText
 10
6182.068
 20
-65372.504
 30
0.0
 40
508.0
  1
2
  7
COURIER_NEW
 72
         1
 11
6400.0
 21
-65150.0
 31
0.0
100
AcDbText
 73
         2
  0
TEXT
  5
23F
100
AcDbEntity
  8
PIN_NUMBERS_TOP
100
AcDbText
 10
6182.068
 20
-60672.504
 30
0.0
 40
508.0
  1
1
  7
COURIER_NEW
 72
         1
 11
6400.0
 21
-60450.0
 31
0.0
100
AcDbText
 73
         2
  0
TEXT
  5
240
100
AcDbEntity
  8
PIN_NUMBERS_TOP
100
AcDbText
 10
9982.068
 20
-65422.504
 30
0.0
 40
508.0
  1
1
  7
COURIER_NEW
 72
         1
 11
10200.0
 21
-65200.0
 31
0.0
100
AcDbText
 73
         2
  0
TEXT
  5
241
100
AcDbEntity
  8
PIN_NUMBERS_TOP
100
AcDbText
 10
9982.068
 20
-60822.504
 30
0.0
 40
508.0
  1
2
  7
COURIER_NEW
 72
         1
 11
10200.0
 21
-60600.0
 31
0.0
100
AcDbText
 73
         2
  0
TEXT
  5
242
100
AcDbEntity
  8
PIN_NUMBERS_TOP
100
AcDbText
 10
19007.067
 20
-45372.5
 30
0.0
 40
508.0
  1
2
  7
COURIER_NEW
 72
         1
 11
19224.999
 21
-45149.996
 31
0.0
100
AcDbText
 73
         2
  0
TEXT
  5
243
100
AcDbEntity
  8
PIN_NUMBERS_TOP
100
AcDbText
 10
20557.067
 20
-45372.5
 30
0.0
 40
508.0
  1
1
  7
COURIER_NEW
 72
         1
 11
20774.999
 21
-45149.996
 31
0.0
100
AcDbText
 73
         2
  0
TEXT
  5
244
100
AcDbEntity
  8
PIN_NUMBERS_TOP
100
AcDbText
 10
22507.068
 20
-48572.5
 30
0.0
 40
508.0
  1
1
  7
COURIER_NEW
 72
         1
 11
22725.0
 21
-48349.996
 31
0.0
100
AcDbText
 73
         2
  0
TEXT
  5
245
100
AcDbEntity
  8
PIN_NUMBERS_TOP
100
AcDbText
 10
24057.068
 20
-48572.5
 30
0.0
 40
508.0
  1
2
  7
COURIER_NEW
 72
         1
 11
24275.0
 21
-48349.996
 31
0.0
100
AcDbText
 73
         2
  0
TEXT
  5
246
100
AcDbEntity
  8
PIN_NUMBERS_TOP
100
AcDbText
 10
22557.068
 20
-46622.504
 30
0.0
 40
508.0
  1
1
  7
COURIER_NEW
 72
         1
 11
22775.0
 21
-46400.0
 31
0.0
100
AcDbText
 73
         2
  0
TEXT
  5
247
100
AcDbEntity
  8
PIN_NUMBERS_TOP
100
AcDbText
 10
25207.068
 20
-46622.504
 30
0.0
 40
508.0
  1
2
  7
COURIER_NEW
 72
         1
 11
25425.0
 21
-46400.0
 31
0.0
100
AcDbText
 73
         2
  0
TEXT
  5
248
100
AcDbEntity
  8
PIN_NUMBERS_TOP
100
AcDbText
 10
17782.068
 20
-58547.504
 30
0.0
 40
508.0
  1
1
  7
COURIER_NEW
 72
         1
 11
18000.0
 21
-58325.0
 31
0.0
100
AcDbText
 73
         2
  0
TEXT
  5
249
100
AcDbEntity
  8
PIN_NUMBERS_TOP
100
AcDbText
 10
17782.068
 20
-60097.504
 30
0.0
 40
508.0
  1
2
  7
COURIER_NEW
 72
         1
 11
18000.0
 21
-59875.0
 31
0.0
100
AcDbText
 73
         2
  0
TEXT
  5
24A
100
AcDbEntity
  8
PIN_NUMBERS_TOP
100
AcDbText
 10
19482.068
 20
-58547.504
 30
0.0
 40
508.0
  1
1
  7
COURIER_NEW
 72
         1
 11
19700.0
 21
-58325.0
 31
0.0
100
AcDbText
 73
         2
  0
TEXT
  5
24B
100
AcDbEntity
  8
PIN_NUMBERS_TOP
100
AcDbText
 10
19482.068
 20
-60097.504
 30
0.0
 40
508.0
  1
2
  7
COURIER_NEW
 72
         1
 11
19700.0
 21
-59875.0
 31
0.0
100
AcDbText
 73
         2
  0
TEXT
  5
24C
100
AcDbEntity
  8
PIN_NUMBERS_TOP
100
AcDbText
 10
16082.068
 20
-58547.504
 30
0.0
 40
508.0
  1
1
  7
COURIER_NEW
 72
         1
 11
16300.0
 21
-58325.0
 31
0.0
100
AcDbText
 73
         2
  0
TEXT
  5
24D
100
AcDbEntity
  8
PIN_NUMBERS_TOP
100
AcDbText
 10
16082.068
 20
-60097.504
 30
0.0
 40
508.0
  1
2
  7
COURIER_NEW
 72
         1
 11
16300.0
 21
-59875.0
 31
0.0
100
AcDbText
 73
         2
  0
TEXT
  5
24E
100
AcDbEntity
  8
PIN_NUMBERS_TOP
100
AcDbText
 10
21182.068
 20
-58547.504
 30
0.0
 40
508.0
  1
1
  7
COURIER_NEW
 72
         1
 11
21400.0
 21
-58325.0
 31
0.0
100
AcDbText
 73
         2
  0
TEXT
  5
24F
100
AcDbEntity
  8
PIN_NUMBERS_TOP
100
AcDbText
 10
21182.068
 20
-60097.504
 30
0.0
 40
508.0
  1
2
  7
COURIER_NEW
 72
         1
 11
21400.0
 21
-59875.0
 31
0.0
100
AcDbText
 73
         2
  0
TEXT
  5
250
100
AcDbEntity
  8
PIN_NUMBERS_TOP
100
AcDbText
 10
24582.068
 20
-55616.504
 30
0.0
 40
508.0
  1
2
  7
COURIER_NEW
 72
         1
 11
24800.0
 21
-55394.0
 31
0.0
100
AcDbText
 73
         2
  0
TEXT
  5
251
100
AcDbEntity
  8
PIN_NUMBERS_TOP
100
AcDbText
 10
24582.068
 20
-60222.504
 30
0.0
 40
508.0
  1
1
  7
COURIER_NEW
 72
         1
 11
24800.0
 21
-60000.0
 31
0.0
100
AcDbText
 73
         2
  0
TEXT
  5
252
100
AcDbEntity
  8
PIN_NUMBERS_TOP
100
AcDbText
 10
29807.068
 20
-63970.317
 30
0.0
 40
508.0
  1
2
  7
COURIER_NEW
 72
         1
 11
30025.0
 21
-63747.813
 31
0.0
100
AcDbText
 73
         2
  0
TEXT
  5
253
100
AcDbEntity
  8
PIN_NUMBERS_TOP
100
AcDbText
 10
29807.068
 20
-57670.317
 30
0.0
 40
508.0
  1
1
  7
COURIER_NEW
 72
         1
 11
30025.0
 21
-57447.813
 31
0.0
100
AcDbText
 73
         2
  0
TEXT
  5
254
100
AcDbEntity
  8
PIN_NUMBERS_TOP
100
AcDbText
 10
41782.068
 20
-3222.504
 30
0.0
 40
508.0
  1
1
  7
COURIER_NEW
 72
         1
 11
42000.0
 21
-3000.0
 31
0.0
100
AcDbText
 73
         2
  0
TEXT
  5
255
100
AcDbEntity
  8
PIN_NUMBERS_TOP
100
AcDbText
 10
41782.068
 20
-69222.504
 30
0.0
 40
508.0
  1
1
  7
COURIER_NEW
 72
         1
 11
42000.0
 21
-69000.0
 31
0.0
100
AcDbText
 73
         2
  0
TEXT
  5
256
100
AcDbEntity
  8
PIN_NUMBERS_TOP
100
AcDbText
 10
20162.068
 20
-63822.504
 30
0.0
 40
508.0
  1
2
  7
COURIER_NEW
 72
         1
 11
20380.0
 21
-63600.0
 31
0.0
100
AcDbText
 73
         2
  0
TEXT
  5
257
100
AcDbEntity
  8
PIN_NUMBERS_TOP
100
AcDbText
 10
23662.068
 20
-63822.504
 30
0.0
 40
508.0
  1
1
  7
COURIER_NEW
 72
         1
 11
23880.0
 21
-63600.0
 31
0.0
100
AcDbText
 73
         2
  0
TEXT
  5
258
100
AcDbEntity
  8
PIN_NUMBERS_TOP
100
AcDbText
 10
2782.068
 20
-3222.504
 30
0.0
 40
508.0
  1
1
  7
COURIER_NEW
 72
         1
 11
3000.0
 21
-3000.0
 31
0.0
100
AcDbText
 73
         2
  0
TEXT
  5
259
100
AcDbEntity
  8
PIN_NUMBERS_TOP
100
AcDbText
 10
2782.068
 20
-69222.504
 30
0.0
 40
508.0
  1
1
  7
COURIER_NEW
 72
         1
 11
3000.0
 21
-69000.0
 31
0.0
100
AcDbText
 73
         2
  0
ENDSEC
  0
SECTION
  2
OBJECTS
  0
DICTIONARY
  5
19
100
AcDbDictionary
  3
ACAD_GROUP
350
1A
  3
ACAD_MLINESTYLE
350
1B
  0
DICTIONARY
  5
1A
102
{ACAD_REACTORS
330
19
102
}
100
AcDbDictionary
  0
DICTIONARY
  5
1B
102
{ACAD_REACTORS
330
19
102
}
100
AcDbDictionary
  3
STANDARD
350
1C
  0
MLINESTYLE
  5
1C
102
{ACAD_REACTORS
330
1B
102
}
100
AcDbMlineStyle
  2
STANDARD
 70
         0
  3

 62
         0
 51
90.0
 52
90.0
 71
         2
 49
0.5
 62
       256
  6
BYLAYER
 49
-0.5
 62
       256
  6
BYLAYER
  0
DICTIONARY
  5
22
102
{ACAD_REACTORS
330
19
102
}
100
AcDbDictionary
  0
ENDSEC
  0
EOF
