  0
SECTION
  2
HEADER
  9
$ACADVER
  1
AC1014
  9
$ACADMAINTVER
 70
         0
  9
$DWGCODEPAGE
  3
ANSI_1252
  9
$INSBASE
 10
0.0
 20
0.0
 30
0.0
  9
$EXTMIN
 10
0.0
 20
0.0
 30
0.0
  9
$EXTMAX
 10
26.9
 20
72.0
 30
0.0
  9
$LIMMIN
 10
0.0
 20
0.0
  9
$LIMMAX
 10
0.0
 20
0.0
  9
$ORTHOMODE
 70
         0
  9
$REGENMODE
 70
         1
  9
$FILLMODE
 70
         1
  9
$QTEXTMODE
 70
         0
  9
$MIRRTEXT
 70
         1
  9
$DRAGMODE
 70
         2
  9
$LTSCALE
 40
1.0
  9
$OSMODE
 70
         0
  9
$ATTMODE
 70
         1
  9
$TEXTSIZE
 40
0.2
  9
$TRACEWID
 40
0.05
  9
$TEXTSTYLE
  7
STANDARD
  9
$CLAYER
  8
0
  9
$CELTYPE
  6
CONTINUOUS
  9
$CECOLOR
 62
       256
  9
$CELTSCALE
 40
1.0
  9
$DELOBJ
 70
         1
  9
$DISPSILH
 70
         0
  9
$DIMSCALE
 40
1.0
  9
$DIMASZ
 40
0.18
  9
$DIMEXO
 40
0.0625
  9
$DIMDLI
 40
0.38
  9
$DIMRND
 40
0.0
  9
$DIMDLE
 40
0.0
  9
$DIMEXE
 40
0.18
  9
$DIMTP
 40
0.0
  9
$DIMTM
 40
0.0
  9
$DIMTXT
 40
0.18
  9
$DIMCEN
 40
0.09
  9
$DIMTSZ
 40
0.0
  9
$DIMTOL
 70
         0
  9
$DIMLIM
 70
         0
  9
$DIMTIH
 70
         1
  9
$DIMTOH
 70
         1
  9
$DIMSE1
 70
         0
  9
$DIMSE2
 70
         0
  9
$DIMTAD
 70
         0
  9
$DIMZIN
 70
         0
  9
$DIMBLK
  1

  9
$DIMASO
 70
         1
  9
$DIMSHO
 70
         1
  9
$DIMPOST
  1

  9
$DIMAPOST
  1

  9
$DIMALT
 70
         0
  9
$DIMALTD
 70
         2
  9
$DIMALTF
 40
25.4
  9
$DIMLFAC
 40
1.0
  9
$DIMTOFL
 70
         0
  9
$DIMTVP
 40
0.0
  9
$DIMTIX
 70
         0
  9
$DIMSOXD
 70
         0
  9
$DIMSAH
 70
         0
  9
$DIMBLK1
  1

  9
$DIMBLK2
  1

  9
$DIMSTYLE
  2
STANDARD
  9
$DIMCLRD
 70
         0
  9
$DIMCLRE
 70
         0
  9
$DIMCLRT
 70
         0
  9
$DIMTFAC
 40
1.0
  9
$DIMGAP
 40
0.09
  9
$DIMJUST
 70
         0
  9
$DIMSD1
 70
         0
  9
$DIMSD2
 70
         0
  9
$DIMTOLJ
 70
         1
  9
$DIMTZIN
 70
         0
  9
$DIMALTZ
 70
         0
  9
$DIMALTTZ
 70
         0
  9
$DIMFIT
 70
         3
  9
$DIMUPT
 70
         0
  9
$DIMUNIT
 70
         2
  9
$DIMDEC
 70
         4
  9
$DIMTDEC
 70
         4
  9
$DIMALTU
 70
         2
  9
$DIMALTTD
 70
         2
  9
$DIMTXSTY
  7
STANDARD
  9
$DIMAUNIT
 70
         0
  9
$LUNITS
 70
         2
  9
$LUPREC
 70
         4
  9
$SKETCHINC
 40
0.1
  9
$FILLETRAD
 40
0.0
  9
$AUNITS
 70
         0
  9
$AUPREC
 70
         0
  9
$MENU
  1
acad
  9
$ELEVATION
 40
0.0
  9
$PELEVATION
 40
0.0
  9
$THICKNESS
 40
0.0
  9
$LIMCHECK
 70
         0
  9
$BLIPMODE
 70
         1
  9
$CHAMFERA
 40
0.0
  9
$CHAMFERB
 40
0.0
  9
$CHAMFERC
 40
0.0
  9
$CHAMFERD
 40
0.0
  9
$SKPOLY
 70
         0
  9
$TDCREATE
 40
2456597.582962963
  9
$TDUPDATE
 40
0.000000000
  9
$TDINDWG
 40
0.0000000000
  9
$TDUSRTIMER
 40
0.0000000000
  9
$USRTIMER
 70
         1
  9
$ANGBASE
 50
0.0
  9
$ANGDIR
 70
         0
  9
$PDMODE
 70
         0
  9
$PDSIZE
 40
0.0
  9
$PLINEWID
 40
0.0
  9
$COORDS
 70
         0
  9
$SPLFRAME
 70
         0
  9
$SPLINETYPE
 70
         6
  9
$SPLINESEGS
 70
         8
  9
$ATTDIA
 70
         0
  9
$ATTREQ
 70
         1
  9
$HANDLING
 70
         1
  9
$HANDSEED
  5
287
  9
$SURFTAB1
 70
         6
  9
$SURFTAB2
 70
         6
  9
$SURFTYPE
 70
         6
  9
$SURFU
 70
         6
  9
$SURFV
 70
         6
  9
$UCSNAME
  2

  9
$UCSORG
 10
0.0
 20
0.0
 30
0.0
  9
$UCSXDIR
 10
1.0
 20
0.0
 30
0.0
  9
$UCSYDIR
 10
0.0
 20
1.0
 30
0.0
  9
$PUCSNAME
  2

  9
$PUCSORG
 10
0.0
 20
0.0
 30
0.0
  9
$PUCSXDIR
 10
1.0
 20
0.0
 30
0.0
  9
$PUCSYDIR
 10
0.0
 20
1.0
 30
0.0
  9
$USERI1
 70
        -3
  9
$USERI2
 70
         0
  9
$USERI3
 70
         0
  9
$USERI4
 70
         0
  9
$USERI5
 70
         0
  9
$USERR1
 40
0.0
  9
$USERR2
 40
0.0
  9
$USERR3
 40
0.0
  9
$USERR4
 40
0.0
  9
$USERR5
 40
0.0
  9
$WORLDVIEW
 70
         1
  9
$SHADEDGE
 70
         3
  9
$SHADEDIF
 70
        70
  9
$TILEMODE
 70
         1
  9
$MAXACTVP
 70
        16
  9
$PINSBASE
 10
0.0
 20
0.0
 30
0.0
  9
$PLIMCHECK
 70
         0
  9
$PEXTMIN
 10
1.0000000000E+20
 20
1.0000000000E+20
 30
1.0000000000E+20
  9
$PEXTMAX
 10
-1.0000000000E+20
 20
-1.0000000000E+20
 30
-1.0000000000E+20
  9
$PLIMMIN
 10
0.0
 20
0.0
  9
$PLIMMAX
 10
12.0
 20
9.0
  9
$UNITMODE
 70
         0
  9
$VISRETAIN
 70
         0
  9
$PLINEGEN
 70
         1
  9
$PSLTSCALE
 70
         0
  9
$TREEDEPTH
 70
      3020
  9
$PICKSTYLE
 70
         1
  9
$CMLSTYLE
  2
STANDARD
  9
$CMLJUST
 70
         0
  9
$CMLSCALE
 40
1.0
  9
$PROXYGRAPHICS
 70
         0
  9
$MEASUREMENT
 70
         0
  0
ENDSEC
  0
SECTION
  2
CLASSES
  0
CLASS
  1
LWPOLYLINE
  2
AcDbPolyline
  3
"AutoCAD"
 90
        0
280
         0
281
         1
  0
CLASS
  1
IMAGE
  2
AcDbRasterImage
  3
ISM
 90
      127
280
         0
281
         1
  0
CLASS
  1
OLE2FRAME
  2
AcDbOle2Frame
  3
""
 90
        0
280
         0
281
         1
  0
CLASS
  1
HATCH
  2
AcDbHatch
  3
"ACAD_SEDONA"
 90
        0
280
         0
281
         1
  0
CLASS
  1
DICTIONARYVAR
  2
AcDbDictionaryVar
  3
"AutoCAD"
 90
        0
280
         0
281
         0
  0
CLASS
  1
RASTERVARIABLES
  2
AcDbRasterVariables
  3
ISM
 90
        0
280
         0
281
         0
  0
CLASS
  1
IMAGEDEF
  2
AcDbRasterImageDef
  3
ISM
 90
        0
280
         0
281
         0
  0
CLASS
  1
IMAGEDEF_REACTOR
  2
AcDbRasterImageDefReactor
  3
ISM
 90
        1
280
         0
281
         0
  0
CLASS
  1
IDBUFFER
  2
AcDbIdBuffer
  3
"Acad"
 90
        0
280
         0
281
         0
  0
CLASS
  1
SPATIAL_FILTER
  2
AcDbSpatialFilter
  3
"Acad"
 90
        0
280
         0
281
         0
  0
CLASS
  1
XRECORD
  2
AcDbXrecord
  3
"<Built In>"
 90
        0
280
         0
281
         0
  0
CLASS
  1
SORTENTSTABLE
  2
AcDbSortentsTable
  3
"AutoCAD"
 90
        0
280
         0
281
         0
  0
CLASS
  1
LAYER_INDEX
  2
AcDbLayerIndex
  3
"Acad"
 90
        0
280
         0
281
         0
  0
CLASS
  1
SPATIAL_INDEX
  2
AcDbSpatialIndex
  3
"Acad"
 90
        0
280
         0
281
         0
  0
CLASS
  1
OBJECT_PTR
  2
CAseDLPNTableRecord
  3
"ASE-LPNTableRecord"
 90
        1
280
         0
281
         0
  0
CLASS
  1
LAYOUT
  2
AcDbLayout
  3
"AutoCAD 2000"
 90
        0
280
         0
281
         0
  0
CLASS
  1
PLOTSETTINGS
  2
AcDbPlotSettings
  3
"AutoCAD 2000"
 90
        0
280
         0
281
         0
  0
CLASS
  1
ACDBDICTIONARYWDFLT
  2
AcDbDictionaryWithDefault
  3
"AutoCAD 2000"
 90
        0
280
         0
281
         0
  0
CLASS
  1
ACDBPLACEHOLDER
  2
AcDbPlaceHolder
  3
"AutoCAD 2000"
 90
        0
280
         0
281
         0
  0
CLASS
  1
VBA_PROJECT
  2
AcDbVbaProject
  3
"acadvba"
 90
        0
280
         0
281
         0
  0
CLASS
  1
WIPEOUT
  2
AcDbWipeout
  3
WipeOut|AutoCAD Express Tool|expresstools@autodesk.com
 90
      127
280
         0
281
         1
  0
CLASS
  1
WIPEOUTVARIABLES
  2
AcDbWipeoutVariables
  3
WipeOut|AutoCAD Express Tool|expresstools@autodesk.com
 90
        0
280
         0
281
         0
  0
CLASS
  1
RTEXT
  2
RText
  3
RText|AutoCAD Express Tool|expresstools@autodesk.com
 90
        0
280
         0
281
         1
  0
CLASS
  1
ARCALIGNEDTEXT
  2
AcDbArcAlignedText
  3
ATEXT|AutoCAD Express Tool|expresstools@autodesk.com
 90
        0
280
         0
281
         1
  0
ENDSEC
  0
SECTION
  2
TABLES
  0
TABLE
  2
VPORT
  5
7
100
AcDbSymbolTable
 70
         1
  0
VPORT
  5
15
100
AcDbSymbolTableRecord
100
AcDbViewportTableRecord
  2
*ACTIVE
 70
         0
 10
0.0
 20
0.0
 11
1.0
 21
1.0
 12
6.591288
 22
4.579184
 13
0.0
 23
0.0
 14
1.0
 24
1.0
 15
0.0
 25
0.0
 16
0.0
 26
0.0
 36
1.0
 17
0.0
 27
0.0
 37
0.0
 40
9.158369
 41
0.688564
 42
50.0
 43
0.0
 44
0.0
 50
0.0
 51
0.0
 71
         0
 72
       100
 73
         1
 74
         1
 75
         0
 76
         0
 77
         0
 78
         0
  0
ENDTAB
  0
TABLE
  2
LTYPE
  5
4
100
AcDbSymbolTable
 70
         3
  0
LTYPE
  5
11
100
AcDbSymbolTableRecord
100
AcDbLinetypeTableRecord
  2
BYBLOCK
 70
        64
  3

 72
        65
 73
         0
 40
0.0
  0
LTYPE
  5
12
100
AcDbSymbolTableRecord
100
AcDbLinetypeTableRecord
  2
BYLAYER
 70
        64
  3

 72
        65
 73
         0
 40
0.0
  0
LTYPE
  5
13
100
AcDbSymbolTableRecord
100
AcDbLinetypeTableRecord
  2
CONTINUOUS
 70
        64
  3
Solid line
 72
        65
 73
         0
 40
0.0
  0
ENDTAB
  0
TABLE
  2
LAYER
  5
2
100
AcDbSymbolTable
 70
         9
  0
LAYER
  5
14
100
AcDbSymbolTableRecord
100
AcDbLayerTableRecord
  2
0
 70
         0
 62
         7
  6
CONTINUOUS
  0
LAYER
  5
24
100
AcDbSymbolTableRecord
100
AcDbLayerTableRecord
  2
ASSEMBLY_OUTLINES_BTM
 70
         0
 62
       191
  6
CONTINUOUS
  0
LAYER
  5
25
100
AcDbSymbolTableRecord
100
AcDbLayerTableRecord
  2
ASSEMBLY_OUTLINES_TOP
 70
         0
 62
       102
  6
CONTINUOUS
  0
LAYER
  5
26
100
AcDbSymbolTableRecord
100
AcDbLayerTableRecord
  2
ASSEMBLY_REF_DES_TOP
 70
         0
 62
       102
  6
CONTINUOUS
  0
LAYER
  5
27
100
AcDbSymbolTableRecord
100
AcDbLayerTableRecord
  2
BOARD_OUTLINE
 70
         0
 62
        10
  6
CONTINUOUS
  0
LAYER
  5
28
100
AcDbSymbolTableRecord
100
AcDbLayerTableRecord
  2
FIDUCIAL_PADS_TOP
 70
         0
 62
       130
  6
CONTINUOUS
  0
LAYER
  5
29
100
AcDbSymbolTableRecord
100
AcDbLayerTableRecord
  2
PART_HOLES_LAYER_TOP
 70
         0
 62
        30
  6
CONTINUOUS
  0
LAYER
  5
2A
100
AcDbSymbolTableRecord
100
AcDbLayerTableRecord
  2
PART_PADS_SMD_TOP
 70
         0
 62
       150
  6
CONTINUOUS
  0
LAYER
  5
2B
100
AcDbSymbolTableRecord
100
AcDbLayerTableRecord
  2
PIN_NUMBERS_TOP
 70
         0
 62
         8
  6
CONTINUOUS
  0
ENDTAB
  0
TABLE
  2
STYLE
  5
3
100
AcDbSymbolTable
 70
         3
  0
STYLE
  5
17
100
AcDbSymbolTableRecord
100
AcDbTextStyleTableRecord
  2
STANDARD
 70
         0
 40
0.0
 41
1.0
 50
0.0
 71
         0
 42
0.0
  3
txt
  4

  0
STYLE
  5
5E
100
AcDbSymbolTableRecord
100
AcDbTextStyleTableRecord
  2
ARIAL
 70
         0
 40
0.0
 41
1.0
 50
0.0
 71
         0
 42
0.0
  3
ARIAL.TTF
  4

  0
STYLE
  5
1B5
100
AcDbSymbolTableRecord
100
AcDbTextStyleTableRecord
  2
COURIER_NEW
 70
         0
 40
0.0
 41
1.0
 50
0.0
 71
         0
 42
0.0
  3
COUR.TTF
  4

  0
ENDTAB
  0
TABLE
  2
VIEW
  5
5
100
AcDbSymbolTable
 70
         0
  0
ENDTAB
  0
TABLE
  2
UCS
  5
6
100
AcDbSymbolTable
 70
         0
  0
ENDTAB
  0
TABLE
  2
APPID
  5
8
100
AcDbSymbolTable
 70
         1
  0
APPID
  5
16
100
AcDbSymbolTableRecord
100
AcDbRegAppTableRecord
  2
ACAD
 70
         0
  0
ENDTAB
  0
TABLE
  2
DIMSTYLE
  5
9
100
AcDbSymbolTable
 70
         1
  0
DIMSTYLE
105
18
100
AcDbSymbolTableRecord
100
AcDbDimStyleTableRecord
  2
STANDARD
 70
         0
  3

  4

  5

  6

  7

 40
1.0
 41
0.18
 42
0.0625
 43
0.38
 44
0.18
 45
0.0
 46
0.0
 47
0.0
 48
0.0
 71
         0
 72
         0
 73
         1
 74
         1
 75
         0
 76
         0
 77
         0
 78
         0
140
0.18
141
0.09
142
0.0
143
25.4
144
1.0
145
0.0
146
1.0
147
0.09
170
         0
171
         2
172
         0
173
         0
174
         0
175
         0
176
         0
177
         0
178
         0
270
         2
271
         4
272
         4
273
         2
274
         2
275
         0
280
         0
281
         0
282
         0
283
         1
284
         0
285
         0
286
         0
287
         3
288
         0
340
17
  0
ENDTAB
  0
TABLE
  2
BLOCK_RECORD
  5
1
100
AcDbSymbolTable
 70
         0
  0
BLOCK_RECORD
  5
A
100
AcDbSymbolTableRecord
100
AcDbBlockTableRecord
  2
*MODEL_SPACE
  0
BLOCK_RECORD
  5
B
100
AcDbSymbolTableRecord
100
AcDbBlockTableRecord
  2
*PAPER_SPACE
  0
ENDTAB
  0
ENDSEC
  0
SECTION
  2
BLOCKS
  0
BLOCK
  5
D
100
AcDbEntity
  8
0
100
AcDbBlockBegin
  2
*MODEL_SPACE
 70
         0
 10
0.0
 20
0.0
 30
0.0
  3
*MODEL_SPACE
  1

  0
ENDBLK
  5
E
100
AcDbEntity
  8
0
100
AcDbBlockEnd
  0
BLOCK
  5
F
100
AcDbEntity
 67
         1
  8
0
100
AcDbBlockBegin
  2
*PAPER_SPACE
 70
         0
 10
0.0
 20
0.0
 30
0.0
  3
*PAPER_SPACE
  1

  0
ENDBLK
  5
10
100
AcDbEntity
 67
         1
  8
0
100
AcDbBlockEnd
  0
ENDSEC
  0
SECTION
  2
ENTITIES
  0
LWPOLYLINE
  5
2C
100
AcDbEntity
  8
ASSEMBLY_OUTLINES_BTM
100
AcDbPolyline
 90
        5
 70
         1
 43
0.2
 10
21.9
 20
2.4
 10
21.9
 20
6.4
 10
5.7
 20
6.4
 10
5.7
 20
3.4
 10
6.7
 20
2.4
  0
LWPOLYLINE
  5
2D
100
AcDbEntity
  8
ASSEMBLY_OUTLINES_BTM
100
AcDbPolyline
 90
        5
 70
         1
 43
0.2
 10
6.5
 20
50.93
 10
2.5
 20
50.93
 10
2.5
 20
10.93
 10
5.5
 20
10.93
 10
6.5
 20
11.93
  0
LWPOLYLINE
  5
2E
100
AcDbEntity
  8
ASSEMBLY_OUTLINES_TOP
100
AcDbPolyline
 90
        4
 70
         0
 43
0.25
 10
8.7
 20
8.9
 10
8.7
 20
9.1
 10
8.3
 20
9.1
 10
8.3
 20
8.9
  0
LWPOLYLINE
  5
2F
100
AcDbEntity
  8
ASSEMBLY_OUTLINES_TOP
100
AcDbPolyline
 90
        4
 70
         0
 43
0.25
 10
23.1
 20
12.2
 10
22.9
 20
12.2
 10
22.9
 20
11.8
 10
23.1
 20
11.8
  0
LWPOLYLINE
  5
30
100
AcDbEntity
  8
ASSEMBLY_OUTLINES_TOP
100
AcDbPolyline
 90
        4
 70
         0
 43
0.25
 10
23.1
 20
11.2
 10
22.9
 20
11.2
 10
22.9
 20
10.8
 10
23.1
 20
10.8
  0
LWPOLYLINE
  5
31
100
AcDbEntity
  8
ASSEMBLY_OUTLINES_TOP
100
AcDbPolyline
 90
        4
 70
         0
 43
0.25
 10
23.1
 20
9.7
 10
22.9
 20
9.7
 10
22.9
 20
9.3
 10
23.1
 20
9.3
  0
LWPOLYLINE
  5
32
100
AcDbEntity
  8
ASSEMBLY_OUTLINES_TOP
100
AcDbPolyline
 90
        4
 70
         0
 43
0.25
 10
23.1
 20
8.2
 10
22.9
 20
8.2
 10
22.9
 20
7.8
 10
23.1
 20
7.8
  0
LWPOLYLINE
  5
33
100
AcDbEntity
  8
ASSEMBLY_OUTLINES_TOP
100
AcDbPolyline
 90
        4
 70
         0
 43
0.25
 10
11.1
 20
10.7
 10
10.9
 20
10.7
 10
10.9
 20
10.3
 10
11.1
 20
10.3
  0
LWPOLYLINE
  5
34
100
AcDbEntity
  8
ASSEMBLY_OUTLINES_TOP
100
AcDbPolyline
 90
        4
 70
         1
 43
0.1
 10
8.9
 20
31.325
 10
8.9
 20
32.675
 10
11.1
 20
32.675
 10
11.1
 20
31.325
  0
LWPOLYLINE
  5
35
100
AcDbEntity
  8
ASSEMBLY_OUTLINES_TOP
100
AcDbPolyline
 90
        2
 70
         0
 43
0.1
 10
11.0
 20
32.675
 10
11.1
 20
32.575
  0
LWPOLYLINE
  5
36
100
AcDbEntity
  8
ASSEMBLY_OUTLINES_TOP
100
AcDbPolyline
 90
        2
 70
         0
 43
0.1
 10
10.9
 20
32.675
 10
11.1
 20
32.475
  0
LWPOLYLINE
  5
37
100
AcDbEntity
  8
ASSEMBLY_OUTLINES_TOP
100
AcDbPolyline
 90
        2
 70
         0
 43
0.1
 10
10.8
 20
32.675
 10
11.1
 20
32.375
  0
LWPOLYLINE
  5
38
100
AcDbEntity
  8
ASSEMBLY_OUTLINES_TOP
100
AcDbPolyline
 90
        2
 70
         0
 43
0.1
 10
10.7
 20
32.675
 10
11.1
 20
32.275
  0
LWPOLYLINE
  5
39
100
AcDbEntity
  8
ASSEMBLY_OUTLINES_TOP
100
AcDbPolyline
 90
        2
 70
         0
 43
0.1
 10
10.6
 20
32.675
 10
11.1
 20
32.175
  0
LWPOLYLINE
  5
3A
100
AcDbEntity
  8
ASSEMBLY_OUTLINES_TOP
100
AcDbPolyline
 90
        2
 70
         0
 43
0.1
 10
10.5
 20
32.675
 10
11.1
 20
32.075
  0
LWPOLYLINE
  5
3B
100
AcDbEntity
  8
ASSEMBLY_OUTLINES_TOP
100
AcDbPolyline
 90
        2
 70
         1
 43
0.25
 10
11.175
 20
33.2
 42
-1.0
 10
11.425
 20
33.2
 42
-1.0
  0
LWPOLYLINE
  5
3C
100
AcDbEntity
  8
ASSEMBLY_OUTLINES_TOP
100
AcDbPolyline
 90
        4
 70
         0
 43
0.25
 10
7.8
 20
32.1
 10
7.8
 20
31.9
 10
8.2
 20
31.9
 10
8.2
 20
32.1
  0
LWPOLYLINE
  5
3D
100
AcDbEntity
  8
ASSEMBLY_OUTLINES_TOP
100
AcDbPolyline
 90
        4
 70
         0
 43
0.25
 10
9.9
 20
19.3
 10
10.1
 20
19.3
 10
10.1
 20
19.7
 10
9.9
 20
19.7
  0
LWPOLYLINE
  5
3E
100
AcDbEntity
  8
ASSEMBLY_OUTLINES_TOP
100
AcDbPolyline
 90
        4
 70
         0
 43
0.25
 10
9.9
 20
21.3
 10
10.1
 20
21.3
 10
10.1
 20
21.7
 10
9.9
 20
21.7
  0
LWPOLYLINE
  5
3F
100
AcDbEntity
  8
ASSEMBLY_OUTLINES_TOP
100
AcDbPolyline
 90
        4
 70
         0
 43
0.25
 10
9.9
 20
20.3
 10
10.1
 20
20.3
 10
10.1
 20
20.7
 10
9.9
 20
20.7
  0
LWPOLYLINE
  5
40
100
AcDbEntity
  8
ASSEMBLY_OUTLINES_TOP
100
AcDbPolyline
 90
        4
 70
         0
 43
0.25
 10
9.9
 20
25.3
 10
10.1
 20
25.3
 10
10.1
 20
25.7
 10
9.9
 20
25.7
  0
LWPOLYLINE
  5
41
100
AcDbEntity
  8
ASSEMBLY_OUTLINES_TOP
100
AcDbPolyline
 90
        4
 70
         0
 43
0.25
 10
9.9
 20
24.3
 10
10.1
 20
24.3
 10
10.1
 20
24.7
 10
9.9
 20
24.7
  0
LWPOLYLINE
  5
42
100
AcDbEntity
  8
ASSEMBLY_OUTLINES_TOP
100
AcDbPolyline
 90
        4
 70
         0
 43
0.25
 10
9.9
 20
22.3
 10
10.1
 20
22.3
 10
10.1
 20
22.7
 10
9.9
 20
22.7
  0
LWPOLYLINE
  5
43
100
AcDbEntity
  8
ASSEMBLY_OUTLINES_TOP
100
AcDbPolyline
 90
        4
 70
         0
 43
0.25
 10
9.9
 20
23.3
 10
10.1
 20
23.3
 10
10.1
 20
23.7
 10
9.9
 20
23.7
  0
LWPOLYLINE
  5
44
100
AcDbEntity
  8
ASSEMBLY_OUTLINES_TOP
100
AcDbPolyline
 90
        4
 70
         0
 43
0.25
 10
9.9
 20
29.3
 10
10.1
 20
29.3
 10
10.1
 20
29.7
 10
9.9
 20
29.7
  0
LWPOLYLINE
  5
45
100
AcDbEntity
  8
ASSEMBLY_OUTLINES_TOP
100
AcDbPolyline
 90
        4
 70
         0
 43
0.25
 10
10.1
 20
18.2
 10
9.9
 20
18.2
 10
9.9
 20
17.8
 10
10.1
 20
17.8
  0
LWPOLYLINE
  5
46
100
AcDbEntity
  8
ASSEMBLY_OUTLINES_TOP
100
AcDbPolyline
 90
        4
 70
         0
 43
0.25
 10
9.9
 20
26.3
 10
10.1
 20
26.3
 10
10.1
 20
26.7
 10
9.9
 20
26.7
  0
LWPOLYLINE
  5
47
100
AcDbEntity
  8
ASSEMBLY_OUTLINES_TOP
100
AcDbPolyline
 90
        4
 70
         0
 43
0.25
 10
9.9
 20
27.3
 10
10.1
 20
27.3
 10
10.1
 20
27.7
 10
9.9
 20
27.7
  0
LWPOLYLINE
  5
48
100
AcDbEntity
  8
ASSEMBLY_OUTLINES_TOP
100
AcDbPolyline
 90
        5
 70
         1
 43
0.1
 10
10.86625
 20
14.8075
 10
10.23125
 20
15.4425
 10
7.69125
 20
15.4425
 10
7.69125
 20
12.585
 10
10.86625
 20
12.585
  0
LWPOLYLINE
  5
49
100
AcDbEntity
  8
ASSEMBLY_OUTLINES_TOP
100
AcDbPolyline
 90
        4
 70
         0
 43
0.25
 10
9.9
 20
37.8
 10
10.1
 20
37.8
 10
10.1
 20
38.2
 10
9.9
 20
38.2
  0
LWPOLYLINE
  5
4A
100
AcDbEntity
  8
ASSEMBLY_OUTLINES_TOP
100
AcDbPolyline
 90
        4
 70
         0
 43
0.25
 10
9.9
 20
38.8
 10
10.1
 20
38.8
 10
10.1
 20
39.2
 10
9.9
 20
39.2
  0
LWPOLYLINE
  5
4B
100
AcDbEntity
  8
ASSEMBLY_OUTLINES_TOP
100
AcDbPolyline
 90
        4
 70
         0
 43
0.25
 10
7.8
 20
35.1
 10
7.8
 20
34.9
 10
8.2
 20
34.9
 10
8.2
 20
35.1
  0
LWPOLYLINE
  5
4C
100
AcDbEntity
  8
ASSEMBLY_OUTLINES_TOP
100
AcDbPolyline
 90
        2
 70
         0
 43
0.15
 10
12.9
 20
19.3
 10
12.9
 20
17.6
  0
LWPOLYLINE
  5
4D
100
AcDbEntity
  8
ASSEMBLY_OUTLINES_TOP
100
AcDbPolyline
 90
        2
 70
         0
 43
0.15
 10
12.9
 20
17.6
 10
18.6
 20
17.6
  0
LWPOLYLINE
  5
4E
100
AcDbEntity
  8
ASSEMBLY_OUTLINES_TOP
100
AcDbPolyline
 90
        2
 70
         0
 43
0.15
 10
18.6
 20
17.6
 10
18.6
 20
40.9
  0
LWPOLYLINE
  5
4F
100
AcDbEntity
  8
ASSEMBLY_OUTLINES_TOP
100
AcDbPolyline
 90
        2
 70
         0
 43
0.15
 10
18.6
 20
40.9
 10
12.9
 20
40.9
  0
LWPOLYLINE
  5
50
100
AcDbEntity
  8
ASSEMBLY_OUTLINES_TOP
100
AcDbPolyline
 90
        2
 70
         0
 43
0.15
 10
12.9
 20
40.9
 10
12.9
 20
39.3
  0
LWPOLYLINE
  5
51
100
AcDbEntity
  8
ASSEMBLY_OUTLINES_TOP
100
AcDbPolyline
 90
        2
 70
         0
 43
0.15
 10
22.0
 20
22.4
 10
18.7
 20
22.4
  0
LWPOLYLINE
  5
52
100
AcDbEntity
  8
ASSEMBLY_OUTLINES_TOP
100
AcDbPolyline
 90
        2
 70
         0
 43
0.15
 10
21.9
 20
35.7
 10
18.6
 20
35.7
  0
LWPOLYLINE
  5
53
100
AcDbEntity
  8
ASSEMBLY_OUTLINES_TOP
100
AcDbPolyline
 90
        2
 70
         0
 43
0.15
 10
18.7
 20
22.4
 10
19.5
 20
21.6
  0
LWPOLYLINE
  5
54
100
AcDbEntity
  8
ASSEMBLY_OUTLINES_TOP
100
AcDbPolyline
 90
        2
 70
         0
 43
0.15
 10
18.7
 20
22.4
 10
19.5
 20
23.2
  0
LWPOLYLINE
  5
55
100
AcDbEntity
  8
ASSEMBLY_OUTLINES_TOP
100
AcDbPolyline
 90
        2
 70
         0
 43
0.15
 10
18.6
 20
35.7
 10
19.4
 20
34.9
  0
LWPOLYLINE
  5
56
100
AcDbEntity
  8
ASSEMBLY_OUTLINES_TOP
100
AcDbPolyline
 90
        2
 70
         0
 43
0.15
 10
18.6
 20
35.7
 10
19.4
 20
36.5
  0
LWPOLYLINE
  5
57
100
AcDbEntity
  8
ASSEMBLY_OUTLINES_TOP
100
AcDbPolyline
 90
        2
 70
         1
 43
0.15
 10
13.23944
 20
18.0
 42
-1.0
 10
13.96056
 20
18.0
 42
-1.0
  0
LWPOLYLINE
  5
58
100
AcDbEntity
  8
ASSEMBLY_OUTLINES_TOP
100
AcDbPolyline
 90
        2
 70
         0
 43
0.15
 10
14.8
 20
19.0
 10
14.3
 20
19.5
  0
LWPOLYLINE
  5
59
100
AcDbEntity
  8
ASSEMBLY_OUTLINES_TOP
100
AcDbPolyline
 90
        2
 70
         0
 43
0.15
 10
14.3
 20
19.5
 10
15.7
 20
19.5
  0
LWPOLYLINE
  5
5A
100
AcDbEntity
  8
ASSEMBLY_OUTLINES_TOP
100
AcDbPolyline
 90
        4
 70
         0
 43
0.25
 10
12.9
 20
15.8
 10
13.1
 20
15.8
 10
13.1
 20
16.2
 10
12.9
 20
16.2
  0
LWPOLYLINE
  5
5B
100
AcDbEntity
  8
ASSEMBLY_OUTLINES_TOP
100
AcDbPolyline
 90
        4
 70
         0
 43
0.25
 10
12.9
 20
59.3
 10
13.1
 20
59.3
 10
13.1
 20
59.7
 10
12.9
 20
59.7
  0
LWPOLYLINE
  5
5C
100
AcDbEntity
  8
ASSEMBLY_OUTLINES_TOP
100
AcDbPolyline
 90
        4
 70
         0
 43
0.25
 10
8.9
 20
52.8
 10
9.1
 20
52.8
 10
9.1
 20
53.2
 10
8.9
 20
53.2
  0
LWPOLYLINE
  5
5D
100
AcDbEntity
  8
ASSEMBLY_OUTLINES_TOP
100
AcDbPolyline
 90
        5
 70
         1
 43
0.2
 10
16.4125
 20
7.96
 10
16.4125
 20
13.04
 10
19.5875
 20
13.04
 10
19.5875
 20
8.595
 10
18.9525
 20
7.96
  0
TEXT
  5
5F
100
AcDbEntity
  8
ASSEMBLY_OUTLINES_TOP
100
AcDbText
 10
14.93
 20
8.406
 30
0.0
 40
0.8
  1
No Vias
 50
90.0
  7
ARIAL
 11
14.098
 21
8.406
 31
0.0
100
AcDbText
 73
         3
  0
TEXT
  5
60
100
AcDbEntity
  8
ASSEMBLY_OUTLINES_TOP
100
AcDbText
 10
20.00166
 20
7.53754
 30
0.0
 40
0.8
  1
No Vias
 50
180.0
  7
ARIAL
 11
20.00166
 21
6.70554
 31
0.0
100
AcDbText
 73
         3
  0
TEXT
  5
61
100
AcDbEntity
  8
ASSEMBLY_OUTLINES_TOP
100
AcDbText
 10
21.83
 20
8.406
 30
0.0
 40
0.8
  1
No Vias
 50
90.0
  7
ARIAL
 11
20.998
 21
8.406
 31
0.0
100
AcDbText
 73
         3
  0
TEXT
  5
62
100
AcDbEntity
  8
ASSEMBLY_OUTLINES_TOP
100
AcDbText
 10
19.90166
 20
14.43754
 30
0.0
 40
0.8
  1
No Vias
 50
180.0
  7
ARIAL
 11
19.90166
 21
13.60554
 31
0.0
100
AcDbText
 73
         3
  0
LWPOLYLINE
  5
63
100
AcDbEntity
  8
ASSEMBLY_OUTLINES_TOP
100
AcDbPolyline
 90
        4
 70
         0
 43
0.25
 10
18.1
 20
14.2
 10
17.9
 20
14.2
 10
17.9
 20
13.8
 10
18.1
 20
13.8
  0
LWPOLYLINE
  5
64
100
AcDbEntity
  8
ASSEMBLY_OUTLINES_TOP
100
AcDbPolyline
 90
        4
 70
         0
 43
0.25
 10
18.1
 20
15.2
 10
17.9
 20
15.2
 10
17.9
 20
14.8
 10
18.1
 20
14.8
  0
LWPOLYLINE
  5
65
100
AcDbEntity
  8
ASSEMBLY_OUTLINES_TOP
100
AcDbPolyline
 90
        4
 70
         0
 43
0.25
 10
11.2
 20
8.4
 10
11.2
 20
8.6
 10
10.8
 20
8.6
 10
10.8
 20
8.4
  0
LWPOLYLINE
  5
66
100
AcDbEntity
  8
ASSEMBLY_OUTLINES_TOP
100
AcDbPolyline
 90
        4
 70
         0
 43
0.25
 10
12.3
 20
13.6
 10
12.3
 20
13.4
 10
12.7
 20
13.4
 10
12.7
 20
13.6
  0
LWPOLYLINE
  5
67
100
AcDbEntity
  8
ASSEMBLY_OUTLINES_TOP
100
AcDbPolyline
 90
        4
 70
         0
 43
0.25
 10
15.1
 20
57.2
 10
14.9
 20
57.2
 10
14.9
 20
56.8
 10
15.1
 20
56.8
  0
LWPOLYLINE
  5
68
100
AcDbEntity
  8
ASSEMBLY_OUTLINES_TOP
100
AcDbPolyline
 90
        4
 70
         0
 43
0.25
 10
14.9
 20
55.8
 10
15.1
 20
55.8
 10
15.1
 20
56.2
 10
14.9
 20
56.2
  0
LWPOLYLINE
  5
69
100
AcDbEntity
  8
ASSEMBLY_OUTLINES_TOP
100
AcDbPolyline
 90
        4
 70
         0
 43
0.25
 10
11.3
 20
56.1
 10
11.3
 20
55.9
 10
11.7
 20
55.9
 10
11.7
 20
56.1
  0
LWPOLYLINE
  5
6A
100
AcDbEntity
  8
ASSEMBLY_OUTLINES_TOP
100
AcDbPolyline
 90
        4
 70
         0
 43
0.25
 10
15.7
 20
45.9
 10
15.7
 20
46.1
 10
15.3
 20
46.1
 10
15.3
 20
45.9
  0
LWPOLYLINE
  5
6B
100
AcDbEntity
  8
ASSEMBLY_OUTLINES_TOP
100
AcDbPolyline
 90
        4
 70
         0
 43
0.25
 10
14.3
 20
46.1
 10
14.3
 20
45.9
 10
14.7
 20
45.9
 10
14.7
 20
46.1
  0
LWPOLYLINE
  5
6C
100
AcDbEntity
  8
ASSEMBLY_OUTLINES_TOP
100
AcDbPolyline
 90
        4
 70
         0
 43
0.25
 10
11.7
 20
45.9
 10
11.7
 20
46.1
 10
11.3
 20
46.1
 10
11.3
 20
45.9
  0
LWPOLYLINE
  5
6D
100
AcDbEntity
  8
ASSEMBLY_OUTLINES_TOP
100
AcDbPolyline
 90
        4
 70
         0
 43
0.25
 10
13.7
 20
45.9
 10
13.7
 20
46.1
 10
13.3
 20
46.1
 10
13.3
 20
45.9
  0
LWPOLYLINE
  5
6E
100
AcDbEntity
  8
ASSEMBLY_OUTLINES_TOP
100
AcDbPolyline
 90
        4
 70
         0
 43
0.25
 10
12.7
 20
45.9
 10
12.7
 20
46.1
 10
12.3
 20
46.1
 10
12.3
 20
45.9
  0
LWPOLYLINE
  5
6F
100
AcDbEntity
  8
ASSEMBLY_OUTLINES_TOP
100
AcDbPolyline
 90
        5
 70
         1
 43
0.2
 10
10.96
 20
53.0875
 10
16.04
 20
53.0875
 10
16.04
 20
49.9125
 10
11.595
 20
49.9125
 10
10.96
 20
50.5475
  0
LWPOLYLINE
  5
70
100
AcDbEntity
  8
ASSEMBLY_OUTLINES_TOP
100
AcDbPolyline
 90
        4
 70
         0
 43
0.25
 10
12.9
 20
10.3
 10
13.1
 20
10.3
 10
13.1
 20
10.7
 10
12.9
 20
10.7
  0
LWPOLYLINE
  5
71
100
AcDbEntity
  8
ASSEMBLY_OUTLINES_TOP
100
AcDbPolyline
 90
        4
 70
         0
 43
0.25
 10
12.9
 20
8.8
 10
13.1
 20
8.8
 10
13.1
 20
9.2
 10
12.9
 20
9.2
  0
LWPOLYLINE
  5
72
100
AcDbEntity
  8
ASSEMBLY_OUTLINES_TOP
100
AcDbPolyline
 90
        4
 70
         0
 43
0.25
 10
12.9
 20
7.8
 10
13.1
 20
7.8
 10
13.1
 20
8.2
 10
12.9
 20
8.2
  0
TEXT
  5
73
100
AcDbEntity
  8
ASSEMBLY_REF_DES_TOP
100
AcDbText
 10
8.084
 20
10.0488
 30
0.0
 40
0.8
  1
C20
 50
270.0
  7
ARIAL
 72
         1
 11
8.5
 21
9.0
 31
0.0
100
AcDbText
 73
         2
  0
TEXT
  5
74
100
AcDbEntity
  8
ASSEMBLY_REF_DES_TOP
100
AcDbText
 10
22.2692
 20
11.584
 30
0.0
 40
0.8
  1
R5
  7
ARIAL
 72
         1
 11
23.0
 21
12.0
 31
0.0
100
AcDbText
 73
         2
  0
TEXT
  5
75
100
AcDbEntity
  8
ASSEMBLY_REF_DES_TOP
100
AcDbText
 10
22.2692
 20
10.584
 30
0.0
 40
0.8
  1
R6
  7
ARIAL
 72
         1
 11
23.0
 21
11.0
 31
0.0
100
AcDbText
 73
         2
  0
TEXT
  5
76
100
AcDbEntity
  8
ASSEMBLY_REF_DES_TOP
100
AcDbText
 10
22.2692
 20
9.084
 30
0.0
 40
0.8
  1
C2
  7
ARIAL
 72
         1
 11
23.0
 21
9.5
 31
0.0
100
AcDbText
 73
         2
  0
TEXT
  5
77
100
AcDbEntity
  8
ASSEMBLY_REF_DES_TOP
100
AcDbText
 10
21.9512
 20
7.584
 30
0.0
 40
0.8
  1
C24
  7
ARIAL
 72
         1
 11
23.0
 21
8.0
 31
0.0
100
AcDbText
 73
         2
  0
TEXT
  5
78
100
AcDbEntity
  8
ASSEMBLY_REF_DES_TOP
100
AcDbText
 10
10.2692
 20
10.084
 30
0.0
 40
0.8
  1
C4
  7
ARIAL
 72
         1
 11
11.0
 21
10.5
 31
0.0
100
AcDbText
 73
         2
  0
TEXT
  5
79
100
AcDbEntity
  8
ASSEMBLY_REF_DES_TOP
100
AcDbText
 10
9.584
 20
32.7308
 30
0.0
 40
0.8
  1
U4
 50
270.0
  7
ARIAL
 72
         1
 11
10.0
 21
32.0
 31
0.0
100
AcDbText
 73
         2
  0
TEXT
  5
7A
100
AcDbEntity
  8
ASSEMBLY_REF_DES_TOP
100
AcDbText
 10
7.584
 20
33.0488
 30
0.0
 40
0.8
  1
R18
 50
270.0
  7
ARIAL
 72
         1
 11
8.0
 21
32.0
 31
0.0
100
AcDbText
 73
         2
  0
TEXT
  5
7B
100
AcDbEntity
  8
ASSEMBLY_REF_DES_TOP
100
AcDbText
 10
9.2692
 20
19.084
 30
0.0
 40
0.8
  1
R2
  7
ARIAL
 72
         1
 11
10.0
 21
19.5
 31
0.0
100
AcDbText
 73
         2
  0
TEXT
  5
7C
100
AcDbEntity
  8
ASSEMBLY_REF_DES_TOP
100
AcDbText
 10
8.9512
 20
21.084
 30
0.0
 40
0.8
  1
C38
  7
ARIAL
 72
         1
 11
10.0
 21
21.5
 31
0.0
100
AcDbText
 73
         2
  0
TEXT
  5
7D
100
AcDbEntity
  8
ASSEMBLY_REF_DES_TOP
100
AcDbText
 10
9.2692
 20
20.084
 30
0.0
 40
0.8
  1
C6
  7
ARIAL
 72
         1
 11
10.0
 21
20.5
 31
0.0
100
AcDbText
 73
         2
  0
TEXT
  5
7E
100
AcDbEntity
  8
ASSEMBLY_REF_DES_TOP
100
AcDbText
 10
9.2692
 20
25.084
 30
0.0
 40
0.8
  1
C8
  7
ARIAL
 72
         1
 11
10.0
 21
25.5
 31
0.0
100
AcDbText
 73
         2
  0
TEXT
  5
7F
100
AcDbEntity
  8
ASSEMBLY_REF_DES_TOP
100
AcDbText
 10
8.9512
 20
24.084
 30
0.0
 40
0.8
  1
C35
  7
ARIAL
 72
         1
 11
10.0
 21
24.5
 31
0.0
100
AcDbText
 73
         2
  0
TEXT
  5
80
100
AcDbEntity
  8
ASSEMBLY_REF_DES_TOP
100
AcDbText
 10
8.9512
 20
22.084
 30
0.0
 40
0.8
  1
C36
  7
ARIAL
 72
         1
 11
10.0
 21
22.5
 31
0.0
100
AcDbText
 73
         2
  0
TEXT
  5
81
100
AcDbEntity
  8
ASSEMBLY_REF_DES_TOP
100
AcDbText
 10
9.2692
 20
23.084
 30
0.0
 40
0.8
  1
C7
  7
ARIAL
 72
         1
 11
10.0
 21
23.5
 31
0.0
100
AcDbText
 73
         2
  0
TEXT
  5
82
100
AcDbEntity
  8
ASSEMBLY_REF_DES_TOP
100
AcDbText
 10
9.2692
 20
29.084
 30
0.0
 40
0.8
  1
C9
  7
ARIAL
 72
         1
 11
10.0
 21
29.5
 31
0.0
100
AcDbText
 73
         2
  0
TEXT
  5
83
100
AcDbEntity
  8
ASSEMBLY_REF_DES_TOP
100
AcDbText
 10
8.9512
 20
17.584
 30
0.0
 40
0.8
  1
R14
  7
ARIAL
 72
         1
 11
10.0
 21
18.0
 31
0.0
100
AcDbText
 73
         2
  0
TEXT
  5
84
100
AcDbEntity
  8
ASSEMBLY_REF_DES_TOP
100
AcDbText
 10
9.2692
 20
26.084
 30
0.0
 40
0.8
  1
R1
  7
ARIAL
 72
         1
 11
10.0
 21
26.5
 31
0.0
100
AcDbText
 73
         2
  0
TEXT
  5
85
100
AcDbEntity
  8
ASSEMBLY_REF_DES_TOP
100
AcDbText
 10
8.9512
 20
27.084
 30
0.0
 40
0.8
  1
R19
  7
ARIAL
 72
         1
 11
10.0
 21
27.5
 31
0.0
100
AcDbText
 73
         2
  0
TEXT
  5
86
100
AcDbEntity
  8
ASSEMBLY_REF_DES_TOP
100
AcDbText
 10
8.57295
 20
13.599
 30
0.0
 40
0.8
  1
U3
  7
ARIAL
 72
         1
 11
9.30375
 21
14.015
 31
0.0
100
AcDbText
 73
         2
  0
TEXT
  5
87
100
AcDbEntity
  8
ASSEMBLY_REF_DES_TOP
100
AcDbText
 10
9.2692
 20
37.584
 30
0.0
 40
0.8
  1
R3
  7
ARIAL
 72
         1
 11
10.0
 21
38.0
 31
0.0
100
AcDbText
 73
         2
  0
TEXT
  5
88
100
AcDbEntity
  8
ASSEMBLY_REF_DES_TOP
100
AcDbText
 10
9.2692
 20
38.584
 30
0.0
 40
0.8
  1
R4
  7
ARIAL
 72
         1
 11
10.0
 21
39.0
 31
0.0
100
AcDbText
 73
         2
  0
TEXT
  5
89
100
AcDbEntity
  8
ASSEMBLY_REF_DES_TOP
100
AcDbText
 10
7.584
 20
36.0488
 30
0.0
 40
0.8
  1
C26
 50
270.0
  7
ARIAL
 72
         1
 11
8.0
 21
35.0
 31
0.0
100
AcDbText
 73
         2
  0
TEXT
  5
8A
100
AcDbEntity
  8
ASSEMBLY_REF_DES_TOP
100
AcDbText
 10
14.234
 20
29.9492
 30
0.0
 40
0.8
  1
X1
 50
270.0
  7
ARIAL
 72
         1
 11
14.65
 21
29.25
 31
0.0
100
AcDbText
 73
         2
  0
TEXT
  5
8B
100
AcDbEntity
  8
ASSEMBLY_REF_DES_TOP
100
AcDbText
 10
11.9512
 20
15.584
 30
0.0
 40
0.8
  1
C25
  7
ARIAL
 72
         1
 11
13.0
 21
16.0
 31
0.0
100
AcDbText
 73
         2
  0
TEXT
  5
8C
100
AcDbEntity
  8
ASSEMBLY_REF_DES_TOP
100
AcDbText
 10
11.9512
 20
59.084
 30
0.0
 40
0.8
  1
C21
  7
ARIAL
 72
         1
 11
13.0
 21
59.5
 31
0.0
100
AcDbText
 73
         2
  0
TEXT
  5
8D
100
AcDbEntity
  8
ASSEMBLY_REF_DES_TOP
100
AcDbText
 10
7.9512
 20
52.584
 30
0.0
 40
0.8
  1
C19
  7
ARIAL
 72
         1
 11
9.0
 21
53.0
 31
0.0
100
AcDbText
 73
         2
  0
TEXT
  5
8E
100
AcDbEntity
  8
ASSEMBLY_REF_DES_TOP
100
AcDbText
 10
17.5685
 20
11.2308
 30
0.0
 40
0.8
  1
U1
 50
270.0
  7
ARIAL
 72
         1
 11
17.9845
 21
10.5
 31
0.0
100
AcDbText
 73
         2
  0
TEXT
  5
8F
100
AcDbEntity
  8
ASSEMBLY_REF_DES_TOP
100
AcDbText
 10
16.9512
 20
13.584
 30
0.0
 40
0.8
  1
R17
  7
ARIAL
 72
         1
 11
18.0
 21
14.0
 31
0.0
100
AcDbText
 73
         2
  0
TEXT
  5
90
100
AcDbEntity
  8
ASSEMBLY_REF_DES_TOP
100
AcDbText
 10
16.9512
 20
14.584
 30
0.0
 40
0.8
  1
R16
  7
ARIAL
 72
         1
 11
18.0
 21
15.0
 31
0.0
100
AcDbText
 73
         2
  0
TEXT
  5
91
100
AcDbEntity
  8
ASSEMBLY_REF_DES_TOP
100
AcDbText
 10
10.584
 20
9.5488
 30
0.0
 40
0.8
  1
C23
 50
270.0
  7
ARIAL
 72
         1
 11
11.0
 21
8.5
 31
0.0
100
AcDbText
 73
         2
  0
TEXT
  5
92
100
AcDbEntity
  8
ASSEMBLY_REF_DES_TOP
100
AcDbText
 10
12.084
 20
14.5488
 30
0.0
 40
0.8
  1
C22
 50
270.0
  7
ARIAL
 72
         1
 11
12.5
 21
13.5
 31
0.0
100
AcDbText
 73
         2
  0
TEXT
  5
93
100
AcDbEntity
  8
ASSEMBLY_REF_DES_TOP
100
AcDbText
 10
14.2692
 20
56.584
 30
0.0
 40
0.8
  1
R9
  7
ARIAL
 72
         1
 11
15.0
 21
57.0
 31
0.0
100
AcDbText
 73
         2
  0
TEXT
  5
94
100
AcDbEntity
  8
ASSEMBLY_REF_DES_TOP
100
AcDbText
 10
13.9512
 20
55.584
 30
0.0
 40
0.8
  1
R10
  7
ARIAL
 72
         1
 11
15.0
 21
56.0
 31
0.0
100
AcDbText
 73
         2
  0
TEXT
  5
95
100
AcDbEntity
  8
ASSEMBLY_REF_DES_TOP
100
AcDbText
 10
11.084
 20
56.7308
 30
0.0
 40
0.8
  1
C3
 50
270.0
  7
ARIAL
 72
         1
 11
11.5
 21
56.0
 31
0.0
100
AcDbText
 73
         2
  0
TEXT
  5
96
100
AcDbEntity
  8
ASSEMBLY_REF_DES_TOP
100
AcDbText
 10
15.084
 20
47.0488
 30
0.0
 40
0.8
  1
R12
 50
270.0
  7
ARIAL
 72
         1
 11
15.5
 21
46.0
 31
0.0
100
AcDbText
 73
         2
  0
TEXT
  5
97
100
AcDbEntity
  8
ASSEMBLY_REF_DES_TOP
100
AcDbText
 10
14.084
 20
47.0488
 30
0.0
 40
0.8
  1
R13
 50
270.0
  7
ARIAL
 72
         1
 11
14.5
 21
46.0
 31
0.0
100
AcDbText
 73
         2
  0
TEXT
  5
98
100
AcDbEntity
  8
ASSEMBLY_REF_DES_TOP
100
AcDbText
 10
11.084
 20
47.0488
 30
0.0
 40
0.8
  1
R15
 50
270.0
  7
ARIAL
 72
         1
 11
11.5
 21
46.0
 31
0.0
100
AcDbText
 73
         2
  0
TEXT
  5
99
100
AcDbEntity
  8
ASSEMBLY_REF_DES_TOP
100
AcDbText
 10
13.084
 20
46.7308
 30
0.0
 40
0.8
  1
C5
 50
270.0
  7
ARIAL
 72
         1
 11
13.5
 21
46.0
 31
0.0
100
AcDbText
 73
         2
  0
TEXT
  5
9A
100
AcDbEntity
  8
ASSEMBLY_REF_DES_TOP
100
AcDbText
 10
12.084
 20
47.0488
 30
0.0
 40
0.8
  1
R11
 50
270.0
  7
ARIAL
 72
         1
 11
12.5
 21
46.0
 31
0.0
100
AcDbText
 73
         2
  0
TEXT
  5
9B
100
AcDbEntity
  8
ASSEMBLY_REF_DES_TOP
100
AcDbText
 10
12.7692
 20
51.0995
 30
0.0
 40
0.8
  1
U2
  7
ARIAL
 72
         1
 11
13.5
 21
51.5155
 31
0.0
100
AcDbText
 73
         2
  0
TEXT
  5
9C
100
AcDbEntity
  8
ASSEMBLY_REF_DES_TOP
100
AcDbText
 10
12.2692
 20
10.084
 30
0.0
 40
0.8
  1
R7
  7
ARIAL
 72
         1
 11
13.0
 21
10.5
 31
0.0
100
AcDbText
 73
         2
  0
TEXT
  5
9D
100
AcDbEntity
  8
ASSEMBLY_REF_DES_TOP
100
AcDbText
 10
12.2692
 20
8.584
 30
0.0
 40
0.8
  1
R8
  7
ARIAL
 72
         1
 11
13.0
 21
9.0
 31
0.0
100
AcDbText
 73
         2
  0
TEXT
  5
9E
100
AcDbEntity
  8
ASSEMBLY_REF_DES_TOP
100
AcDbText
 10
12.2692
 20
7.584
 30
0.0
 40
0.8
  1
C1
  7
ARIAL
 72
         1
 11
13.0
 21
8.0
 31
0.0
100
AcDbText
 73
         2
  0
TEXT
  5
9F
100
AcDbEntity
  8
ASSEMBLY_REF_DES_TOP
100
AcDbText
 10
13.284
 20
5.4172
 30
0.0
 40
0.8
  1
X71
 50
270.0
  7
ARIAL
 72
         1
 11
13.7
 21
4.4
 31
0.0
100
AcDbText
 73
         2
  0
TEXT
  5
A0
100
AcDbEntity
  8
ASSEMBLY_REF_DES_TOP
100
AcDbText
 10
2.3008
 20
68.584
 30
0.0
 40
0.8
  1
X4
  7
ARIAL
 72
         1
 11
3.0
 21
69.0
 31
0.0
100
AcDbText
 73
         2
  0
TEXT
  5
A1
100
AcDbEntity
  8
ASSEMBLY_REF_DES_TOP
100
AcDbText
 10
23.3008
 20
44.584
 30
0.0
 40
0.8
  1
X5
  7
ARIAL
 72
         1
 11
24.0
 21
45.0
 31
0.0
100
AcDbText
 73
         2
  0
TEXT
  5
A2
100
AcDbEntity
  8
ASSEMBLY_REF_DES_TOP
100
AcDbText
 10
23.3008
 20
2.584
 30
0.0
 40
0.8
  1
X7
  7
ARIAL
 72
         1
 11
24.0
 21
3.0
 31
0.0
100
AcDbText
 73
         2
  0
TEXT
  5
A3
100
AcDbEntity
  8
ASSEMBLY_REF_DES_TOP
100
AcDbText
 10
2.1008
 20
2.584
 30
0.0
 40
0.8
  1
X6
  7
ARIAL
 72
         1
 11
2.8
 21
3.0
 31
0.0
100
AcDbText
 73
         2
  0
TEXT
  5
A4
100
AcDbEntity
  8
ASSEMBLY_REF_DES_TOP
100
AcDbText
 10
3.4828
 20
30.514
 30
0.0
 40
0.8
  1
X70
  7
ARIAL
 72
         1
 11
4.5
 21
30.93
 31
0.0
100
AcDbText
 73
         2
  0
LWPOLYLINE
  5
A5
100
AcDbEntity
  8
BOARD_OUTLINE
100
AcDbPolyline
 90
        4
 70
         1
 43
0.15
 10
0.0
 20
0.0
 10
0.0
 20
72.0
 10
26.9
 20
72.0
 10
26.9
 20
0.0
  0
LWPOLYLINE
  5
A6
100
AcDbEntity
  8
FIDUCIAL_PADS_TOP
100
AcDbPolyline
 90
        4
 70
         1
 10
24.5
 20
57.3
 10
24.5
 20
58.3
 10
25.5
 20
58.3
 10
25.5
 20
57.3
  0
CIRCLE
  5
A7
100
AcDbEntity
  8
FIDUCIAL_PADS_TOP
100
AcDbCircle
 10
2.7
 20
7.4
 30
0.0
 40
0.5
  0
CIRCLE
  5
A8
100
AcDbEntity
  8
PART_HOLES_LAYER_TOP
100
AcDbCircle
 10
6.7
 20
3.4
 30
0.0
 40
0.4
  0
HATCH
  5
A9
100
AcDbEntity
  8
PART_HOLES_LAYER_TOP
100
AcDbHatch
 10
0.0
 20
0.0
 30
0.0
210
0.0
220
0.0
230
1.0
  2
SOLID
 70
         1
 71
         1
 91
        1
 92
        1
 93
        1
 72
         2
 10
6.7000000000000002
 20
3.3999999999999999
 40
0.4
 50
0.0
 51
360.0
 73
         1
 97
        1
330
A8
 75
         0
 76
         1
 98
        1
 10
0.0
 20
0.0
  0
CIRCLE
  5
AA
100
AcDbEntity
  8
PART_HOLES_LAYER_TOP
100
AcDbCircle
 10
6.7
 20
5.4
 30
0.0
 40
0.4
  0
HATCH
  5
AB
100
AcDbEntity
  8
PART_HOLES_LAYER_TOP
100
AcDbHatch
 10
0.0
 20
0.0
 30
0.0
210
0.0
220
0.0
230
1.0
  2
SOLID
 70
         1
 71
         1
 91
        1
 92
        1
 93
        1
 72
         2
 10
6.7000000000000002
 20
5.4000000000000004
 40
0.4
 50
0.0
 51
360.0
 73
         1
 97
        1
330
AA
 75
         0
 76
         1
 98
        1
 10
0.0
 20
0.0
  0
CIRCLE
  5
AC
100
AcDbEntity
  8
PART_HOLES_LAYER_TOP
100
AcDbCircle
 10
8.7
 20
3.4
 30
0.0
 40
0.4
  0
HATCH
  5
AD
100
AcDbEntity
  8
PART_HOLES_LAYER_TOP
100
AcDbHatch
 10
0.0
 20
0.0
 30
0.0
210
0.0
220
0.0
230
1.0
  2
SOLID
 70
         1
 71
         1
 91
        1
 92
        1
 93
        1
 72
         2
 10
8.6999999999999993
 20
3.3999999999999999
 40
0.4
 50
0.0
 51
360.0
 73
         1
 97
        1
330
AC
 75
         0
 76
         1
 98
        1
 10
0.0
 20
0.0
  0
CIRCLE
  5
AE
100
AcDbEntity
  8
PART_HOLES_LAYER_TOP
100
AcDbCircle
 10
8.7
 20
5.4
 30
0.0
 40
0.4
  0
HATCH
  5
AF
100
AcDbEntity
  8
PART_HOLES_LAYER_TOP
100
AcDbHatch
 10
0.0
 20
0.0
 30
0.0
210
0.0
220
0.0
230
1.0
  2
SOLID
 70
         1
 71
         1
 91
        1
 92
        1
 93
        1
 72
         2
 10
8.6999999999999993
 20
5.4000000000000004
 40
0.4
 50
0.0
 51
360.0
 73
         1
 97
        1
330
AE
 75
         0
 76
         1
 98
        1
 10
0.0
 20
0.0
  0
CIRCLE
  5
B0
100
AcDbEntity
  8
PART_HOLES_LAYER_TOP
100
AcDbCircle
 10
10.7
 20
3.4
 30
0.0
 40
0.4
  0
HATCH
  5
B1
100
AcDbEntity
  8
PART_HOLES_LAYER_TOP
100
AcDbHatch
 10
0.0
 20
0.0
 30
0.0
210
0.0
220
0.0
230
1.0
  2
SOLID
 70
         1
 71
         1
 91
        1
 92
        1
 93
        1
 72
         2
 10
10.699999999999999
 20
3.3999999999999999
 40
0.4
 50
0.0
 51
360.0
 73
         1
 97
        1
330
B0
 75
         0
 76
         1
 98
        1
 10
0.0
 20
0.0
  0
CIRCLE
  5
B2
100
AcDbEntity
  8
PART_HOLES_LAYER_TOP
100
AcDbCircle
 10
10.7
 20
5.4
 30
0.0
 40
0.4
  0
HATCH
  5
B3
100
AcDbEntity
  8
PART_HOLES_LAYER_TOP
100
AcDbHatch
 10
0.0
 20
0.0
 30
0.0
210
0.0
220
0.0
230
1.0
  2
SOLID
 70
         1
 71
         1
 91
        1
 92
        1
 93
        1
 72
         2
 10
10.699999999999999
 20
5.4000000000000004
 40
0.4
 50
0.0
 51
360.0
 73
         1
 97
        1
330
B2
 75
         0
 76
         1
 98
        1
 10
0.0
 20
0.0
  0
CIRCLE
  5
B4
100
AcDbEntity
  8
PART_HOLES_LAYER_TOP
100
AcDbCircle
 10
12.7
 20
3.4
 30
0.0
 40
0.4
  0
HATCH
  5
B5
100
AcDbEntity
  8
PART_HOLES_LAYER_TOP
100
AcDbHatch
 10
0.0
 20
0.0
 30
0.0
210
0.0
220
0.0
230
1.0
  2
SOLID
 70
         1
 71
         1
 91
        1
 92
        1
 93
        1
 72
         2
 10
12.699999999999999
 20
3.3999999999999999
 40
0.4
 50
0.0
 51
360.0
 73
         1
 97
        1
330
B4
 75
         0
 76
         1
 98
        1
 10
0.0
 20
0.0
  0
CIRCLE
  5
B6
100
AcDbEntity
  8
PART_HOLES_LAYER_TOP
100
AcDbCircle
 10
12.7
 20
5.4
 30
0.0
 40
0.4
  0
HATCH
  5
B7
100
AcDbEntity
  8
PART_HOLES_LAYER_TOP
100
AcDbHatch
 10
0.0
 20
0.0
 30
0.0
210
0.0
220
0.0
230
1.0
  2
SOLID
 70
         1
 71
         1
 91
        1
 92
        1
 93
        1
 72
         2
 10
12.699999999999999
 20
5.4000000000000004
 40
0.4
 50
0.0
 51
360.0
 73
         1
 97
        1
330
B6
 75
         0
 76
         1
 98
        1
 10
0.0
 20
0.0
  0
CIRCLE
  5
B8
100
AcDbEntity
  8
PART_HOLES_LAYER_TOP
100
AcDbCircle
 10
14.7
 20
3.4
 30
0.0
 40
0.4
  0
HATCH
  5
B9
100
AcDbEntity
  8
PART_HOLES_LAYER_TOP
100
AcDbHatch
 10
0.0
 20
0.0
 30
0.0
210
0.0
220
0.0
230
1.0
  2
SOLID
 70
         1
 71
         1
 91
        1
 92
        1
 93
        1
 72
         2
 10
14.699999999999999
 20
3.3999999999999999
 40
0.4
 50
0.0
 51
360.0
 73
         1
 97
        1
330
B8
 75
         0
 76
         1
 98
        1
 10
0.0
 20
0.0
  0
CIRCLE
  5
BA
100
AcDbEntity
  8
PART_HOLES_LAYER_TOP
100
AcDbCircle
 10
14.7
 20
5.4
 30
0.0
 40
0.4
  0
HATCH
  5
BB
100
AcDbEntity
  8
PART_HOLES_LAYER_TOP
100
AcDbHatch
 10
0.0
 20
0.0
 30
0.0
210
0.0
220
0.0
230
1.0
  2
SOLID
 70
         1
 71
         1
 91
        1
 92
        1
 93
        1
 72
         2
 10
14.699999999999999
 20
5.4000000000000004
 40
0.4
 50
0.0
 51
360.0
 73
         1
 97
        1
330
BA
 75
         0
 76
         1
 98
        1
 10
0.0
 20
0.0
  0
CIRCLE
  5
BC
100
AcDbEntity
  8
PART_HOLES_LAYER_TOP
100
AcDbCircle
 10
16.7
 20
3.4
 30
0.0
 40
0.4
  0
HATCH
  5
BD
100
AcDbEntity
  8
PART_HOLES_LAYER_TOP
100
AcDbHatch
 10
0.0
 20
0.0
 30
0.0
210
0.0
220
0.0
230
1.0
  2
SOLID
 70
         1
 71
         1
 91
        1
 92
        1
 93
        1
 72
         2
 10
16.699999999999999
 20
3.3999999999999999
 40
0.4
 50
0.0
 51
360.0
 73
         1
 97
        1
330
BC
 75
         0
 76
         1
 98
        1
 10
0.0
 20
0.0
  0
CIRCLE
  5
BE
100
AcDbEntity
  8
PART_HOLES_LAYER_TOP
100
AcDbCircle
 10
16.7
 20
5.4
 30
0.0
 40
0.4
  0
HATCH
  5
BF
100
AcDbEntity
  8
PART_HOLES_LAYER_TOP
100
AcDbHatch
 10
0.0
 20
0.0
 30
0.0
210
0.0
220
0.0
230
1.0
  2
SOLID
 70
         1
 71
         1
 91
        1
 92
        1
 93
        1
 72
         2
 10
16.699999999999999
 20
5.4000000000000004
 40
0.4
 50
0.0
 51
360.0
 73
         1
 97
        1
330
BE
 75
         0
 76
         1
 98
        1
 10
0.0
 20
0.0
  0
CIRCLE
  5
C0
100
AcDbEntity
  8
PART_HOLES_LAYER_TOP
100
AcDbCircle
 10
18.7
 20
3.4
 30
0.0
 40
0.4
  0
HATCH
  5
C1
100
AcDbEntity
  8
PART_HOLES_LAYER_TOP
100
AcDbHatch
 10
0.0
 20
0.0
 30
0.0
210
0.0
220
0.0
230
1.0
  2
SOLID
 70
         1
 71
         1
 91
        1
 92
        1
 93
        1
 72
         2
 10
18.699999999999999
 20
3.3999999999999999
 40
0.4
 50
0.0
 51
360.0
 73
         1
 97
        1
330
C0
 75
         0
 76
         1
 98
        1
 10
0.0
 20
0.0
  0
CIRCLE
  5
C2
100
AcDbEntity
  8
PART_HOLES_LAYER_TOP
100
AcDbCircle
 10
18.7
 20
5.4
 30
0.0
 40
0.4
  0
HATCH
  5
C3
100
AcDbEntity
  8
PART_HOLES_LAYER_TOP
100
AcDbHatch
 10
0.0
 20
0.0
 30
0.0
210
0.0
220
0.0
230
1.0
  2
SOLID
 70
         1
 71
         1
 91
        1
 92
        1
 93
        1
 72
         2
 10
18.699999999999999
 20
5.4000000000000004
 40
0.4
 50
0.0
 51
360.0
 73
         1
 97
        1
330
C2
 75
         0
 76
         1
 98
        1
 10
0.0
 20
0.0
  0
CIRCLE
  5
C4
100
AcDbEntity
  8
PART_HOLES_LAYER_TOP
100
AcDbCircle
 10
20.7
 20
3.4
 30
0.0
 40
0.4
  0
HATCH
  5
C5
100
AcDbEntity
  8
PART_HOLES_LAYER_TOP
100
AcDbHatch
 10
0.0
 20
0.0
 30
0.0
210
0.0
220
0.0
230
1.0
  2
SOLID
 70
         1
 71
         1
 91
        1
 92
        1
 93
        1
 72
         2
 10
20.699999999999999
 20
3.3999999999999999
 40
0.4
 50
0.0
 51
360.0
 73
         1
 97
        1
330
C4
 75
         0
 76
         1
 98
        1
 10
0.0
 20
0.0
  0
CIRCLE
  5
C6
100
AcDbEntity
  8
PART_HOLES_LAYER_TOP
100
AcDbCircle
 10
20.7
 20
5.4
 30
0.0
 40
0.4
  0
HATCH
  5
C7
100
AcDbEntity
  8
PART_HOLES_LAYER_TOP
100
AcDbHatch
 10
0.0
 20
0.0
 30
0.0
210
0.0
220
0.0
230
1.0
  2
SOLID
 70
         1
 71
         1
 91
        1
 92
        1
 93
        1
 72
         2
 10
20.699999999999999
 20
5.4000000000000004
 40
0.4
 50
0.0
 51
360.0
 73
         1
 97
        1
330
C6
 75
         0
 76
         1
 98
        1
 10
0.0
 20
0.0
  0
CIRCLE
  5
C8
100
AcDbEntity
  8
PART_HOLES_LAYER_TOP
100
AcDbCircle
 10
3.0
 20
69.0
 30
0.0
 40
1.6
  0
HATCH
  5
C9
100
AcDbEntity
  8
PART_HOLES_LAYER_TOP
100
AcDbHatch
 10
0.0
 20
0.0
 30
0.0
210
0.0
220
0.0
230
1.0
  2
SOLID
 70
         1
 71
         1
 91
        1
 92
        1
 93
        1
 72
         2
 10
3.0
 20
69.0
 40
1.6000000000000001
 50
0.0
 51
360.0
 73
         1
 97
        1
330
C8
 75
         0
 76
         1
 98
        1
 10
0.0
 20
0.0
  0
CIRCLE
  5
CA
100
AcDbEntity
  8
PART_HOLES_LAYER_TOP
100
AcDbCircle
 10
24.0
 20
45.0
 30
0.0
 40
1.6
  0
HATCH
  5
CB
100
AcDbEntity
  8
PART_HOLES_LAYER_TOP
100
AcDbHatch
 10
0.0
 20
0.0
 30
0.0
210
0.0
220
0.0
230
1.0
  2
SOLID
 70
         1
 71
         1
 91
        1
 92
        1
 93
        1
 72
         2
 10
24.0
 20
45.0
 40
1.6000000000000001
 50
0.0
 51
360.0
 73
         1
 97
        1
330
CA
 75
         0
 76
         1
 98
        1
 10
0.0
 20
0.0
  0
CIRCLE
  5
CC
100
AcDbEntity
  8
PART_HOLES_LAYER_TOP
100
AcDbCircle
 10
24.0
 20
3.0
 30
0.0
 40
1.6
  0
HATCH
  5
CD
100
AcDbEntity
  8
PART_HOLES_LAYER_TOP
100
AcDbHatch
 10
0.0
 20
0.0
 30
0.0
210
0.0
220
0.0
230
1.0
  2
SOLID
 70
         1
 71
         1
 91
        1
 92
        1
 93
        1
 72
         2
 10
24.0
 20
3.0
 40
1.6000000000000001
 50
0.0
 51
360.0
 73
         1
 97
        1
330
CC
 75
         0
 76
         1
 98
        1
 10
0.0
 20
0.0
  0
CIRCLE
  5
CE
100
AcDbEntity
  8
PART_HOLES_LAYER_TOP
100
AcDbCircle
 10
2.8
 20
3.0
 30
0.0
 40
1.6
  0
HATCH
  5
CF
100
AcDbEntity
  8
PART_HOLES_LAYER_TOP
100
AcDbHatch
 10
0.0
 20
0.0
 30
0.0
210
0.0
220
0.0
230
1.0
  2
SOLID
 70
         1
 71
         1
 91
        1
 92
        1
 93
        1
 72
         2
 10
2.7999999999999998
 20
3.0
 40
1.6000000000000001
 50
0.0
 51
360.0
 73
         1
 97
        1
330
CE
 75
         0
 76
         1
 98
        1
 10
0.0
 20
0.0
  0
CIRCLE
  5
D0
100
AcDbEntity
  8
PART_HOLES_LAYER_TOP
100
AcDbCircle
 10
5.5
 20
11.93
 30
0.0
 40
0.4
  0
HATCH
  5
D1
100
AcDbEntity
  8
PART_HOLES_LAYER_TOP
100
AcDbHatch
 10
0.0
 20
0.0
 30
0.0
210
0.0
220
0.0
230
1.0
  2
SOLID
 70
         1
 71
         1
 91
        1
 92
        1
 93
        1
 72
         2
 10
5.5
 20
11.93
 40
0.4
 50
0.0
 51
360.0
 73
         1
 97
        1
330
D0
 75
         0
 76
         1
 98
        1
 10
0.0
 20
0.0
  0
CIRCLE
  5
D2
100
AcDbEntity
  8
PART_HOLES_LAYER_TOP
100
AcDbCircle
 10
3.5
 20
11.93
 30
0.0
 40
0.4
  0
HATCH
  5
D3
100
AcDbEntity
  8
PART_HOLES_LAYER_TOP
100
AcDbHatch
 10
0.0
 20
0.0
 30
0.0
210
0.0
220
0.0
230
1.0
  2
SOLID
 70
         1
 71
         1
 91
        1
 92
        1
 93
        1
 72
         2
 10
3.5
 20
11.93
 40
0.4
 50
0.0
 51
360.0
 73
         1
 97
        1
330
D2
 75
         0
 76
         1
 98
        1
 10
0.0
 20
0.0
  0
CIRCLE
  5
D4
100
AcDbEntity
  8
PART_HOLES_LAYER_TOP
100
AcDbCircle
 10
5.5
 20
13.93
 30
0.0
 40
0.4
  0
HATCH
  5
D5
100
AcDbEntity
  8
PART_HOLES_LAYER_TOP
100
AcDbHatch
 10
0.0
 20
0.0
 30
0.0
210
0.0
220
0.0
230
1.0
  2
SOLID
 70
         1
 71
         1
 91
        1
 92
        1
 93
        1
 72
         2
 10
5.5
 20
13.93
 40
0.4
 50
0.0
 51
360.0
 73
         1
 97
        1
330
D4
 75
         0
 76
         1
 98
        1
 10
0.0
 20
0.0
  0
CIRCLE
  5
D6
100
AcDbEntity
  8
PART_HOLES_LAYER_TOP
100
AcDbCircle
 10
3.5
 20
13.93
 30
0.0
 40
0.4
  0
HATCH
  5
D7
100
AcDbEntity
  8
PART_HOLES_LAYER_TOP
100
AcDbHatch
 10
0.0
 20
0.0
 30
0.0
210
0.0
220
0.0
230
1.0
  2
SOLID
 70
         1
 71
         1
 91
        1
 92
        1
 93
        1
 72
         2
 10
3.5
 20
13.93
 40
0.4
 50
0.0
 51
360.0
 73
         1
 97
        1
330
D6
 75
         0
 76
         1
 98
        1
 10
0.0
 20
0.0
  0
CIRCLE
  5
D8
100
AcDbEntity
  8
PART_HOLES_LAYER_TOP
100
AcDbCircle
 10
5.5
 20
15.93
 30
0.0
 40
0.4
  0
HATCH
  5
D9
100
AcDbEntity
  8
PART_HOLES_LAYER_TOP
100
AcDbHatch
 10
0.0
 20
0.0
 30
0.0
210
0.0
220
0.0
230
1.0
  2
SOLID
 70
         1
 71
         1
 91
        1
 92
        1
 93
        1
 72
         2
 10
5.5
 20
15.93
 40
0.4
 50
0.0
 51
360.0
 73
         1
 97
        1
330
D8
 75
         0
 76
         1
 98
        1
 10
0.0
 20
0.0
  0
CIRCLE
  5
DA
100
AcDbEntity
  8
PART_HOLES_LAYER_TOP
100
AcDbCircle
 10
3.5
 20
15.93
 30
0.0
 40
0.4
  0
HATCH
  5
DB
100
AcDbEntity
  8
PART_HOLES_LAYER_TOP
100
AcDbHatch
 10
0.0
 20
0.0
 30
0.0
210
0.0
220
0.0
230
1.0
  2
SOLID
 70
         1
 71
         1
 91
        1
 92
        1
 93
        1
 72
         2
 10
3.5
 20
15.93
 40
0.4
 50
0.0
 51
360.0
 73
         1
 97
        1
330
DA
 75
         0
 76
         1
 98
        1
 10
0.0
 20
0.0
  0
CIRCLE
  5
DC
100
AcDbEntity
  8
PART_HOLES_LAYER_TOP
100
AcDbCircle
 10
5.5
 20
17.93
 30
0.0
 40
0.4
  0
HATCH
  5
DD
100
AcDbEntity
  8
PART_HOLES_LAYER_TOP
100
AcDbHatch
 10
0.0
 20
0.0
 30
0.0
210
0.0
220
0.0
230
1.0
  2
SOLID
 70
         1
 71
         1
 91
        1
 92
        1
 93
        1
 72
         2
 10
5.5
 20
17.93
 40
0.4
 50
0.0
 51
360.0
 73
         1
 97
        1
330
DC
 75
         0
 76
         1
 98
        1
 10
0.0
 20
0.0
  0
CIRCLE
  5
DE
100
AcDbEntity
  8
PART_HOLES_LAYER_TOP
100
AcDbCircle
 10
3.5
 20
17.93
 30
0.0
 40
0.4
  0
HATCH
  5
DF
100
AcDbEntity
  8
PART_HOLES_LAYER_TOP
100
AcDbHatch
 10
0.0
 20
0.0
 30
0.0
210
0.0
220
0.0
230
1.0
  2
SOLID
 70
         1
 71
         1
 91
        1
 92
        1
 93
        1
 72
         2
 10
3.5
 20
17.93
 40
0.4
 50
0.0
 51
360.0
 73
         1
 97
        1
330
DE
 75
         0
 76
         1
 98
        1
 10
0.0
 20
0.0
  0
CIRCLE
  5
E0
100
AcDbEntity
  8
PART_HOLES_LAYER_TOP
100
AcDbCircle
 10
5.5
 20
19.93
 30
0.0
 40
0.4
  0
HATCH
  5
E1
100
AcDbEntity
  8
PART_HOLES_LAYER_TOP
100
AcDbHatch
 10
0.0
 20
0.0
 30
0.0
210
0.0
220
0.0
230
1.0
  2
SOLID
 70
         1
 71
         1
 91
        1
 92
        1
 93
        1
 72
         2
 10
5.5
 20
19.93
 40
0.4
 50
0.0
 51
360.0
 73
         1
 97
        1
330
E0
 75
         0
 76
         1
 98
        1
 10
0.0
 20
0.0
  0
CIRCLE
  5
E2
100
AcDbEntity
  8
PART_HOLES_LAYER_TOP
100
AcDbCircle
 10
3.5
 20
19.93
 30
0.0
 40
0.4
  0
HATCH
  5
E3
100
AcDbEntity
  8
PART_HOLES_LAYER_TOP
100
AcDbHatch
 10
0.0
 20
0.0
 30
0.0
210
0.0
220
0.0
230
1.0
  2
SOLID
 70
         1
 71
         1
 91
        1
 92
        1
 93
        1
 72
         2
 10
3.5
 20
19.93
 40
0.4
 50
0.0
 51
360.0
 73
         1
 97
        1
330
E2
 75
         0
 76
         1
 98
        1
 10
0.0
 20
0.0
  0
CIRCLE
  5
E4
100
AcDbEntity
  8
PART_HOLES_LAYER_TOP
100
AcDbCircle
 10
5.5
 20
21.93
 30
0.0
 40
0.4
  0
HATCH
  5
E5
100
AcDbEntity
  8
PART_HOLES_LAYER_TOP
100
AcDbHatch
 10
0.0
 20
0.0
 30
0.0
210
0.0
220
0.0
230
1.0
  2
SOLID
 70
         1
 71
         1
 91
        1
 92
        1
 93
        1
 72
         2
 10
5.5
 20
21.93
 40
0.4
 50
0.0
 51
360.0
 73
         1
 97
        1
330
E4
 75
         0
 76
         1
 98
        1
 10
0.0
 20
0.0
  0
CIRCLE
  5
E6
100
AcDbEntity
  8
PART_HOLES_LAYER_TOP
100
AcDbCircle
 10
3.5
 20
21.93
 30
0.0
 40
0.4
  0
HATCH
  5
E7
100
AcDbEntity
  8
PART_HOLES_LAYER_TOP
100
AcDbHatch
 10
0.0
 20
0.0
 30
0.0
210
0.0
220
0.0
230
1.0
  2
SOLID
 70
         1
 71
         1
 91
        1
 92
        1
 93
        1
 72
         2
 10
3.5
 20
21.93
 40
0.4
 50
0.0
 51
360.0
 73
         1
 97
        1
330
E6
 75
         0
 76
         1
 98
        1
 10
0.0
 20
0.0
  0
CIRCLE
  5
E8
100
AcDbEntity
  8
PART_HOLES_LAYER_TOP
100
AcDbCircle
 10
5.5
 20
23.93
 30
0.0
 40
0.4
  0
HATCH
  5
E9
100
AcDbEntity
  8
PART_HOLES_LAYER_TOP
100
AcDbHatch
 10
0.0
 20
0.0
 30
0.0
210
0.0
220
0.0
230
1.0
  2
SOLID
 70
         1
 71
         1
 91
        1
 92
        1
 93
        1
 72
         2
 10
5.5
 20
23.93
 40
0.4
 50
0.0
 51
360.0
 73
         1
 97
        1
330
E8
 75
         0
 76
         1
 98
        1
 10
0.0
 20
0.0
  0
CIRCLE
  5
EA
100
AcDbEntity
  8
PART_HOLES_LAYER_TOP
100
AcDbCircle
 10
3.5
 20
23.93
 30
0.0
 40
0.4
  0
HATCH
  5
EB
100
AcDbEntity
  8
PART_HOLES_LAYER_TOP
100
AcDbHatch
 10
0.0
 20
0.0
 30
0.0
210
0.0
220
0.0
230
1.0
  2
SOLID
 70
         1
 71
         1
 91
        1
 92
        1
 93
        1
 72
         2
 10
3.5
 20
23.93
 40
0.4
 50
0.0
 51
360.0
 73
         1
 97
        1
330
EA
 75
         0
 76
         1
 98
        1
 10
0.0
 20
0.0
  0
CIRCLE
  5
EC
100
AcDbEntity
  8
PART_HOLES_LAYER_TOP
100
AcDbCircle
 10
5.5
 20
25.93
 30
0.0
 40
0.4
  0
HATCH
  5
ED
100
AcDbEntity
  8
PART_HOLES_LAYER_TOP
100
AcDbHatch
 10
0.0
 20
0.0
 30
0.0
210
0.0
220
0.0
230
1.0
  2
SOLID
 70
         1
 71
         1
 91
        1
 92
        1
 93
        1
 72
         2
 10
5.5
 20
25.93
 40
0.4
 50
0.0
 51
360.0
 73
         1
 97
        1
330
EC
 75
         0
 76
         1
 98
        1
 10
0.0
 20
0.0
  0
CIRCLE
  5
EE
100
AcDbEntity
  8
PART_HOLES_LAYER_TOP
100
AcDbCircle
 10
3.5
 20
25.93
 30
0.0
 40
0.4
  0
HATCH
  5
EF
100
AcDbEntity
  8
PART_HOLES_LAYER_TOP
100
AcDbHatch
 10
0.0
 20
0.0
 30
0.0
210
0.0
220
0.0
230
1.0
  2
SOLID
 70
         1
 71
         1
 91
        1
 92
        1
 93
        1
 72
         2
 10
3.5
 20
25.93
 40
0.4
 50
0.0
 51
360.0
 73
         1
 97
        1
330
EE
 75
         0
 76
         1
 98
        1
 10
0.0
 20
0.0
  0
CIRCLE
  5
F0
100
AcDbEntity
  8
PART_HOLES_LAYER_TOP
100
AcDbCircle
 10
5.5
 20
27.93
 30
0.0
 40
0.4
  0
HATCH
  5
F1
100
AcDbEntity
  8
PART_HOLES_LAYER_TOP
100
AcDbHatch
 10
0.0
 20
0.0
 30
0.0
210
0.0
220
0.0
230
1.0
  2
SOLID
 70
         1
 71
         1
 91
        1
 92
        1
 93
        1
 72
         2
 10
5.5
 20
27.93
 40
0.4
 50
0.0
 51
360.0
 73
         1
 97
        1
330
F0
 75
         0
 76
         1
 98
        1
 10
0.0
 20
0.0
  0
CIRCLE
  5
F2
100
AcDbEntity
  8
PART_HOLES_LAYER_TOP
100
AcDbCircle
 10
3.5
 20
27.93
 30
0.0
 40
0.4
  0
HATCH
  5
F3
100
AcDbEntity
  8
PART_HOLES_LAYER_TOP
100
AcDbHatch
 10
0.0
 20
0.0
 30
0.0
210
0.0
220
0.0
230
1.0
  2
SOLID
 70
         1
 71
         1
 91
        1
 92
        1
 93
        1
 72
         2
 10
3.5
 20
27.93
 40
0.4
 50
0.0
 51
360.0
 73
         1
 97
        1
330
F2
 75
         0
 76
         1
 98
        1
 10
0.0
 20
0.0
  0
CIRCLE
  5
F4
100
AcDbEntity
  8
PART_HOLES_LAYER_TOP
100
AcDbCircle
 10
5.5
 20
29.93
 30
0.0
 40
0.4
  0
HATCH
  5
F5
100
AcDbEntity
  8
PART_HOLES_LAYER_TOP
100
AcDbHatch
 10
0.0
 20
0.0
 30
0.0
210
0.0
220
0.0
230
1.0
  2
SOLID
 70
         1
 71
         1
 91
        1
 92
        1
 93
        1
 72
         2
 10
5.5
 20
29.93
 40
0.4
 50
0.0
 51
360.0
 73
         1
 97
        1
330
F4
 75
         0
 76
         1
 98
        1
 10
0.0
 20
0.0
  0
CIRCLE
  5
F6
100
AcDbEntity
  8
PART_HOLES_LAYER_TOP
100
AcDbCircle
 10
3.5
 20
29.93
 30
0.0
 40
0.4
  0
HATCH
  5
F7
100
AcDbEntity
  8
PART_HOLES_LAYER_TOP
100
AcDbHatch
 10
0.0
 20
0.0
 30
0.0
210
0.0
220
0.0
230
1.0
  2
SOLID
 70
         1
 71
         1
 91
        1
 92
        1
 93
        1
 72
         2
 10
3.5
 20
29.93
 40
0.4
 50
0.0
 51
360.0
 73
         1
 97
        1
330
F6
 75
         0
 76
         1
 98
        1
 10
0.0
 20
0.0
  0
CIRCLE
  5
F8
100
AcDbEntity
  8
PART_HOLES_LAYER_TOP
100
AcDbCircle
 10
5.5
 20
31.93
 30
0.0
 40
0.4
  0
HATCH
  5
F9
100
AcDbEntity
  8
PART_HOLES_LAYER_TOP
100
AcDbHatch
 10
0.0
 20
0.0
 30
0.0
210
0.0
220
0.0
230
1.0
  2
SOLID
 70
         1
 71
         1
 91
        1
 92
        1
 93
        1
 72
         2
 10
5.5
 20
31.93
 40
0.4
 50
0.0
 51
360.0
 73
         1
 97
        1
330
F8
 75
         0
 76
         1
 98
        1
 10
0.0
 20
0.0
  0
CIRCLE
  5
FA
100
AcDbEntity
  8
PART_HOLES_LAYER_TOP
100
AcDbCircle
 10
3.5
 20
31.93
 30
0.0
 40
0.4
  0
HATCH
  5
FB
100
AcDbEntity
  8
PART_HOLES_LAYER_TOP
100
AcDbHatch
 10
0.0
 20
0.0
 30
0.0
210
0.0
220
0.0
230
1.0
  2
SOLID
 70
         1
 71
         1
 91
        1
 92
        1
 93
        1
 72
         2
 10
3.5
 20
31.93
 40
0.4
 50
0.0
 51
360.0
 73
         1
 97
        1
330
FA
 75
         0
 76
         1
 98
        1
 10
0.0
 20
0.0
  0
CIRCLE
  5
FC
100
AcDbEntity
  8
PART_HOLES_LAYER_TOP
100
AcDbCircle
 10
5.5
 20
33.93
 30
0.0
 40
0.4
  0
HATCH
  5
FD
100
AcDbEntity
  8
PART_HOLES_LAYER_TOP
100
AcDbHatch
 10
0.0
 20
0.0
 30
0.0
210
0.0
220
0.0
230
1.0
  2
SOLID
 70
         1
 71
         1
 91
        1
 92
        1
 93
        1
 72
         2
 10
5.5
 20
33.93
 40
0.4
 50
0.0
 51
360.0
 73
         1
 97
        1
330
FC
 75
         0
 76
         1
 98
        1
 10
0.0
 20
0.0
  0
CIRCLE
  5
FE
100
AcDbEntity
  8
PART_HOLES_LAYER_TOP
100
AcDbCircle
 10
3.5
 20
33.93
 30
0.0
 40
0.4
  0
HATCH
  5
FF
100
AcDbEntity
  8
PART_HOLES_LAYER_TOP
100
AcDbHatch
 10
0.0
 20
0.0
 30
0.0
210
0.0
220
0.0
230
1.0
  2
SOLID
 70
         1
 71
         1
 91
        1
 92
        1
 93
        1
 72
         2
 10
3.5
 20
33.93
 40
0.4
 50
0.0
 51
360.0
 73
         1
 97
        1
330
FE
 75
         0
 76
         1
 98
        1
 10
0.0
 20
0.0
  0
CIRCLE
  5
100
100
AcDbEntity
  8
PART_HOLES_LAYER_TOP
100
AcDbCircle
 10
5.5
 20
35.93
 30
0.0
 40
0.4
  0
HATCH
  5
101
100
AcDbEntity
  8
PART_HOLES_LAYER_TOP
100
AcDbHatch
 10
0.0
 20
0.0
 30
0.0
210
0.0
220
0.0
230
1.0
  2
SOLID
 70
         1
 71
         1
 91
        1
 92
        1
 93
        1
 72
         2
 10
5.5
 20
35.93
 40
0.4
 50
0.0
 51
360.0
 73
         1
 97
        1
330
100
 75
         0
 76
         1
 98
        1
 10
0.0
 20
0.0
  0
CIRCLE
  5
102
100
AcDbEntity
  8
PART_HOLES_LAYER_TOP
100
AcDbCircle
 10
3.5
 20
35.93
 30
0.0
 40
0.4
  0
HATCH
  5
103
100
AcDbEntity
  8
PART_HOLES_LAYER_TOP
100
AcDbHatch
 10
0.0
 20
0.0
 30
0.0
210
0.0
220
0.0
230
1.0
  2
SOLID
 70
         1
 71
         1
 91
        1
 92
        1
 93
        1
 72
         2
 10
3.5
 20
35.93
 40
0.4
 50
0.0
 51
360.0
 73
         1
 97
        1
330
102
 75
         0
 76
         1
 98
        1
 10
0.0
 20
0.0
  0
CIRCLE
  5
104
100
AcDbEntity
  8
PART_HOLES_LAYER_TOP
100
AcDbCircle
 10
5.5
 20
37.93
 30
0.0
 40
0.4
  0
HATCH
  5
105
100
AcDbEntity
  8
PART_HOLES_LAYER_TOP
100
AcDbHatch
 10
0.0
 20
0.0
 30
0.0
210
0.0
220
0.0
230
1.0
  2
SOLID
 70
         1
 71
         1
 91
        1
 92
        1
 93
        1
 72
         2
 10
5.5
 20
37.93
 40
0.4
 50
0.0
 51
360.0
 73
         1
 97
        1
330
104
 75
         0
 76
         1
 98
        1
 10
0.0
 20
0.0
  0
CIRCLE
  5
106
100
AcDbEntity
  8
PART_HOLES_LAYER_TOP
100
AcDbCircle
 10
3.5
 20
37.93
 30
0.0
 40
0.4
  0
HATCH
  5
107
100
AcDbEntity
  8
PART_HOLES_LAYER_TOP
100
AcDbHatch
 10
0.0
 20
0.0
 30
0.0
210
0.0
220
0.0
230
1.0
  2
SOLID
 70
         1
 71
         1
 91
        1
 92
        1
 93
        1
 72
         2
 10
3.5
 20
37.93
 40
0.4
 50
0.0
 51
360.0
 73
         1
 97
        1
330
106
 75
         0
 76
         1
 98
        1
 10
0.0
 20
0.0
  0
CIRCLE
  5
108
100
AcDbEntity
  8
PART_HOLES_LAYER_TOP
100
AcDbCircle
 10
5.5
 20
39.93
 30
0.0
 40
0.4
  0
HATCH
  5
109
100
AcDbEntity
  8
PART_HOLES_LAYER_TOP
100
AcDbHatch
 10
0.0
 20
0.0
 30
0.0
210
0.0
220
0.0
230
1.0
  2
SOLID
 70
         1
 71
         1
 91
        1
 92
        1
 93
        1
 72
         2
 10
5.5
 20
39.93
 40
0.4
 50
0.0
 51
360.0
 73
         1
 97
        1
330
108
 75
         0
 76
         1
 98
        1
 10
0.0
 20
0.0
  0
CIRCLE
  5
10A
100
AcDbEntity
  8
PART_HOLES_LAYER_TOP
100
AcDbCircle
 10
3.5
 20
39.93
 30
0.0
 40
0.4
  0
HATCH
  5
10B
100
AcDbEntity
  8
PART_HOLES_LAYER_TOP
100
AcDbHatch
 10
0.0
 20
0.0
 30
0.0
210
0.0
220
0.0
230
1.0
  2
SOLID
 70
         1
 71
         1
 91
        1
 92
        1
 93
        1
 72
         2
 10
3.5
 20
39.93
 40
0.4
 50
0.0
 51
360.0
 73
         1
 97
        1
330
10A
 75
         0
 76
         1
 98
        1
 10
0.0
 20
0.0
  0
CIRCLE
  5
10C
100
AcDbEntity
  8
PART_HOLES_LAYER_TOP
100
AcDbCircle
 10
5.5
 20
41.93
 30
0.0
 40
0.4
  0
HATCH
  5
10D
100
AcDbEntity
  8
PART_HOLES_LAYER_TOP
100
AcDbHatch
 10
0.0
 20
0.0
 30
0.0
210
0.0
220
0.0
230
1.0
  2
SOLID
 70
         1
 71
         1
 91
        1
 92
        1
 93
        1
 72
         2
 10
5.5
 20
41.93
 40
0.4
 50
0.0
 51
360.0
 73
         1
 97
        1
330
10C
 75
         0
 76
         1
 98
        1
 10
0.0
 20
0.0
  0
CIRCLE
  5
10E
100
AcDbEntity
  8
PART_HOLES_LAYER_TOP
100
AcDbCircle
 10
3.5
 20
41.93
 30
0.0
 40
0.4
  0
HATCH
  5
10F
100
AcDbEntity
  8
PART_HOLES_LAYER_TOP
100
AcDbHatch
 10
0.0
 20
0.0
 30
0.0
210
0.0
220
0.0
230
1.0
  2
SOLID
 70
         1
 71
         1
 91
        1
 92
        1
 93
        1
 72
         2
 10
3.5
 20
41.93
 40
0.4
 50
0.0
 51
360.0
 73
         1
 97
        1
330
10E
 75
         0
 76
         1
 98
        1
 10
0.0
 20
0.0
  0
CIRCLE
  5
110
100
AcDbEntity
  8
PART_HOLES_LAYER_TOP
100
AcDbCircle
 10
5.5
 20
43.93
 30
0.0
 40
0.4
  0
HATCH
  5
111
100
AcDbEntity
  8
PART_HOLES_LAYER_TOP
100
AcDbHatch
 10
0.0
 20
0.0
 30
0.0
210
0.0
220
0.0
230
1.0
  2
SOLID
 70
         1
 71
         1
 91
        1
 92
        1
 93
        1
 72
         2
 10
5.5
 20
43.93
 40
0.4
 50
0.0
 51
360.0
 73
         1
 97
        1
330
110
 75
         0
 76
         1
 98
        1
 10
0.0
 20
0.0
  0
CIRCLE
  5
112
100
AcDbEntity
  8
PART_HOLES_LAYER_TOP
100
AcDbCircle
 10
3.5
 20
43.93
 30
0.0
 40
0.4
  0
HATCH
  5
113
100
AcDbEntity
  8
PART_HOLES_LAYER_TOP
100
AcDbHatch
 10
0.0
 20
0.0
 30
0.0
210
0.0
220
0.0
230
1.0
  2
SOLID
 70
         1
 71
         1
 91
        1
 92
        1
 93
        1
 72
         2
 10
3.5
 20
43.93
 40
0.4
 50
0.0
 51
360.0
 73
         1
 97
        1
330
112
 75
         0
 76
         1
 98
        1
 10
0.0
 20
0.0
  0
CIRCLE
  5
114
100
AcDbEntity
  8
PART_HOLES_LAYER_TOP
100
AcDbCircle
 10
5.5
 20
45.93
 30
0.0
 40
0.4
  0
HATCH
  5
115
100
AcDbEntity
  8
PART_HOLES_LAYER_TOP
100
AcDbHatch
 10
0.0
 20
0.0
 30
0.0
210
0.0
220
0.0
230
1.0
  2
SOLID
 70
         1
 71
         1
 91
        1
 92
        1
 93
        1
 72
         2
 10
5.5
 20
45.93
 40
0.4
 50
0.0
 51
360.0
 73
         1
 97
        1
330
114
 75
         0
 76
         1
 98
        1
 10
0.0
 20
0.0
  0
CIRCLE
  5
116
100
AcDbEntity
  8
PART_HOLES_LAYER_TOP
100
AcDbCircle
 10
3.5
 20
45.93
 30
0.0
 40
0.4
  0
HATCH
  5
117
100
AcDbEntity
  8
PART_HOLES_LAYER_TOP
100
AcDbHatch
 10
0.0
 20
0.0
 30
0.0
210
0.0
220
0.0
230
1.0
  2
SOLID
 70
         1
 71
         1
 91
        1
 92
        1
 93
        1
 72
         2
 10
3.5
 20
45.93
 40
0.4
 50
0.0
 51
360.0
 73
         1
 97
        1
330
116
 75
         0
 76
         1
 98
        1
 10
0.0
 20
0.0
  0
CIRCLE
  5
118
100
AcDbEntity
  8
PART_HOLES_LAYER_TOP
100
AcDbCircle
 10
5.5
 20
47.93
 30
0.0
 40
0.4
  0
HATCH
  5
119
100
AcDbEntity
  8
PART_HOLES_LAYER_TOP
100
AcDbHatch
 10
0.0
 20
0.0
 30
0.0
210
0.0
220
0.0
230
1.0
  2
SOLID
 70
         1
 71
         1
 91
        1
 92
        1
 93
        1
 72
         2
 10
5.5
 20
47.93
 40
0.4
 50
0.0
 51
360.0
 73
         1
 97
        1
330
118
 75
         0
 76
         1
 98
        1
 10
0.0
 20
0.0
  0
CIRCLE
  5
11A
100
AcDbEntity
  8
PART_HOLES_LAYER_TOP
100
AcDbCircle
 10
3.5
 20
47.93
 30
0.0
 40
0.4
  0
HATCH
  5
11B
100
AcDbEntity
  8
PART_HOLES_LAYER_TOP
100
AcDbHatch
 10
0.0
 20
0.0
 30
0.0
210
0.0
220
0.0
230
1.0
  2
SOLID
 70
         1
 71
         1
 91
        1
 92
        1
 93
        1
 72
         2
 10
3.5
 20
47.93
 40
0.4
 50
0.0
 51
360.0
 73
         1
 97
        1
330
11A
 75
         0
 76
         1
 98
        1
 10
0.0
 20
0.0
  0
CIRCLE
  5
11C
100
AcDbEntity
  8
PART_HOLES_LAYER_TOP
100
AcDbCircle
 10
5.5
 20
49.93
 30
0.0
 40
0.4
  0
HATCH
  5
11D
100
AcDbEntity
  8
PART_HOLES_LAYER_TOP
100
AcDbHatch
 10
0.0
 20
0.0
 30
0.0
210
0.0
220
0.0
230
1.0
  2
SOLID
 70
         1
 71
         1
 91
        1
 92
        1
 93
        1
 72
         2
 10
5.5
 20
49.93
 40
0.4
 50
0.0
 51
360.0
 73
         1
 97
        1
330
11C
 75
         0
 76
         1
 98
        1
 10
0.0
 20
0.0
  0
CIRCLE
  5
11E
100
AcDbEntity
  8
PART_HOLES_LAYER_TOP
100
AcDbCircle
 10
3.5
 20
49.93
 30
0.0
 40
0.4
  0
HATCH
  5
11F
100
AcDbEntity
  8
PART_HOLES_LAYER_TOP
100
AcDbHatch
 10
0.0
 20
0.0
 30
0.0
210
0.0
220
0.0
230
1.0
  2
SOLID
 70
         1
 71
         1
 91
        1
 92
        1
 93
        1
 72
         2
 10
3.5
 20
49.93
 40
0.4
 50
0.0
 51
360.0
 73
         1
 97
        1
330
11E
 75
         0
 76
         1
 98
        1
 10
0.0
 20
0.0
  0
LWPOLYLINE
  5
120
100
AcDbEntity
  8
PART_PADS_SMD_TOP
100
AcDbPolyline
 90
        4
 70
         1
 10
8.25
 20
8.4
 10
8.25
 20
8.8
 10
8.75
 20
8.8
 10
8.75
 20
8.4
  0
LWPOLYLINE
  5
121
100
AcDbEntity
  8
PART_PADS_SMD_TOP
100
AcDbPolyline
 90
        4
 70
         1
 10
8.25
 20
9.2
 10
8.25
 20
9.6
 10
8.75
 20
9.6
 10
8.75
 20
9.2
  0
LWPOLYLINE
  5
122
100
AcDbEntity
  8
PART_PADS_SMD_TOP
100
AcDbPolyline
 90
        4
 70
         1
 10
23.2
 20
11.75
 10
23.2
 20
12.25
 10
23.6
 20
12.25
 10
23.6
 20
11.75
  0
LWPOLYLINE
  5
123
100
AcDbEntity
  8
PART_PADS_SMD_TOP
100
AcDbPolyline
 90
        4
 70
         1
 10
22.4
 20
11.75
 10
22.4
 20
12.25
 10
22.8
 20
12.25
 10
22.8
 20
11.75
  0
LWPOLYLINE
  5
124
100
AcDbEntity
  8
PART_PADS_SMD_TOP
100
AcDbPolyline
 90
        4
 70
         1
 10
23.2
 20
10.75
 10
23.2
 20
11.25
 10
23.6
 20
11.25
 10
23.6
 20
10.75
  0
LWPOLYLINE
  5
125
100
AcDbEntity
  8
PART_PADS_SMD_TOP
100
AcDbPolyline
 90
        4
 70
         1
 10
22.4
 20
10.75
 10
22.4
 20
11.25
 10
22.8
 20
11.25
 10
22.8
 20
10.75
  0
LWPOLYLINE
  5
126
100
AcDbEntity
  8
PART_PADS_SMD_TOP
100
AcDbPolyline
 90
        4
 70
         1
 10
23.2
 20
9.25
 10
23.2
 20
9.75
 10
23.6
 20
9.75
 10
23.6
 20
9.25
  0
LWPOLYLINE
  5
127
100
AcDbEntity
  8
PART_PADS_SMD_TOP
100
AcDbPolyline
 90
        4
 70
         1
 10
22.4
 20
9.25
 10
22.4
 20
9.75
 10
22.8
 20
9.75
 10
22.8
 20
9.25
  0
LWPOLYLINE
  5
128
100
AcDbEntity
  8
PART_PADS_SMD_TOP
100
AcDbPolyline
 90
        4
 70
         1
 10
23.2
 20
7.75
 10
23.2
 20
8.25
 10
23.6
 20
8.25
 10
23.6
 20
7.75
  0
LWPOLYLINE
  5
129
100
AcDbEntity
  8
PART_PADS_SMD_TOP
100
AcDbPolyline
 90
        4
 70
         1
 10
22.4
 20
7.75
 10
22.4
 20
8.25
 10
22.8
 20
8.25
 10
22.8
 20
7.75
  0
LWPOLYLINE
  5
12A
100
AcDbEntity
  8
PART_PADS_SMD_TOP
100
AcDbPolyline
 90
        4
 70
         1
 10
11.2
 20
10.25
 10
11.2
 20
10.75
 10
11.6
 20
10.75
 10
11.6
 20
10.25
  0
LWPOLYLINE
  5
12B
100
AcDbEntity
  8
PART_PADS_SMD_TOP
100
AcDbPolyline
 90
        4
 70
         1
 10
10.4
 20
10.25
 10
10.4
 20
10.75
 10
10.8
 20
10.75
 10
10.8
 20
10.25
  0
LWPOLYLINE
  5
12C
100
AcDbEntity
  8
PART_PADS_SMD_TOP
100
AcDbPolyline
 90
        4
 70
         1
 10
10.45
 20
32.5
 10
10.45
 20
33.6
 10
10.85
 20
33.6
 10
10.85
 20
32.5
  0
LWPOLYLINE
  5
12D
100
AcDbEntity
  8
PART_PADS_SMD_TOP
100
AcDbPolyline
 90
        4
 70
         1
 10
9.8
 20
32.5
 10
9.8
 20
33.6
 10
10.2
 20
33.6
 10
10.2
 20
32.5
  0
LWPOLYLINE
  5
12E
100
AcDbEntity
  8
PART_PADS_SMD_TOP
100
AcDbPolyline
 90
        4
 70
         1
 10
9.15
 20
32.5
 10
9.15
 20
33.6
 10
9.55
 20
33.6
 10
9.55
 20
32.5
  0
LWPOLYLINE
  5
12F
100
AcDbEntity
  8
PART_PADS_SMD_TOP
100
AcDbPolyline
 90
        4
 70
         1
 10
9.15
 20
30.4
 10
9.15
 20
31.5
 10
9.55
 20
31.5
 10
9.55
 20
30.4
  0
LWPOLYLINE
  5
130
100
AcDbEntity
  8
PART_PADS_SMD_TOP
100
AcDbPolyline
 90
        4
 70
         1
 10
10.45
 20
30.4
 10
10.45
 20
31.5
 10
10.85
 20
31.5
 10
10.85
 20
30.4
  0
LWPOLYLINE
  5
131
100
AcDbEntity
  8
PART_PADS_SMD_TOP
100
AcDbPolyline
 90
        4
 70
         1
 10
7.75
 20
32.2
 10
7.75
 20
32.6
 10
8.25
 20
32.6
 10
8.25
 20
32.2
  0
LWPOLYLINE
  5
132
100
AcDbEntity
  8
PART_PADS_SMD_TOP
100
AcDbPolyline
 90
        4
 70
         1
 10
7.75
 20
31.4
 10
7.75
 20
31.8
 10
8.25
 20
31.8
 10
8.25
 20
31.4
  0
LWPOLYLINE
  5
133
100
AcDbEntity
  8
PART_PADS_SMD_TOP
100
AcDbPolyline
 90
        4
 70
         1
 10
9.4
 20
19.25
 10
9.4
 20
19.75
 10
9.8
 20
19.75
 10
9.8
 20
19.25
  0
LWPOLYLINE
  5
134
100
AcDbEntity
  8
PART_PADS_SMD_TOP
100
AcDbPolyline
 90
        4
 70
         1
 10
10.2
 20
19.25
 10
10.2
 20
19.75
 10
10.6
 20
19.75
 10
10.6
 20
19.25
  0
LWPOLYLINE
  5
135
100
AcDbEntity
  8
PART_PADS_SMD_TOP
100
AcDbPolyline
 90
        4
 70
         1
 10
9.4
 20
21.25
 10
9.4
 20
21.75
 10
9.8
 20
21.75
 10
9.8
 20
21.25
  0
LWPOLYLINE
  5
136
100
AcDbEntity
  8
PART_PADS_SMD_TOP
100
AcDbPolyline
 90
        4
 70
         1
 10
10.2
 20
21.25
 10
10.2
 20
21.75
 10
10.6
 20
21.75
 10
10.6
 20
21.25
  0
LWPOLYLINE
  5
137
100
AcDbEntity
  8
PART_PADS_SMD_TOP
100
AcDbPolyline
 90
        4
 70
         1
 10
9.4
 20
20.25
 10
9.4
 20
20.75
 10
9.8
 20
20.75
 10
9.8
 20
20.25
  0
LWPOLYLINE
  5
138
100
AcDbEntity
  8
PART_PADS_SMD_TOP
100
AcDbPolyline
 90
        4
 70
         1
 10
10.2
 20
20.25
 10
10.2
 20
20.75
 10
10.6
 20
20.75
 10
10.6
 20
20.25
  0
LWPOLYLINE
  5
139
100
AcDbEntity
  8
PART_PADS_SMD_TOP
100
AcDbPolyline
 90
        4
 70
         1
 10
9.4
 20
25.25
 10
9.4
 20
25.75
 10
9.8
 20
25.75
 10
9.8
 20
25.25
  0
LWPOLYLINE
  5
13A
100
AcDbEntity
  8
PART_PADS_SMD_TOP
100
AcDbPolyline
 90
        4
 70
         1
 10
10.2
 20
25.25
 10
10.2
 20
25.75
 10
10.6
 20
25.75
 10
10.6
 20
25.25
  0
LWPOLYLINE
  5
13B
100
AcDbEntity
  8
PART_PADS_SMD_TOP
100
AcDbPolyline
 90
        4
 70
         1
 10
9.4
 20
24.25
 10
9.4
 20
24.75
 10
9.8
 20
24.75
 10
9.8
 20
24.25
  0
LWPOLYLINE
  5
13C
100
AcDbEntity
  8
PART_PADS_SMD_TOP
100
AcDbPolyline
 90
        4
 70
         1
 10
10.2
 20
24.25
 10
10.2
 20
24.75
 10
10.6
 20
24.75
 10
10.6
 20
24.25
  0
LWPOLYLINE
  5
13D
100
AcDbEntity
  8
PART_PADS_SMD_TOP
100
AcDbPolyline
 90
        4
 70
         1
 10
9.4
 20
22.25
 10
9.4
 20
22.75
 10
9.8
 20
22.75
 10
9.8
 20
22.25
  0
LWPOLYLINE
  5
13E
100
AcDbEntity
  8
PART_PADS_SMD_TOP
100
AcDbPolyline
 90
        4
 70
         1
 10
10.2
 20
22.25
 10
10.2
 20
22.75
 10
10.6
 20
22.75
 10
10.6
 20
22.25
  0
LWPOLYLINE
  5
13F
100
AcDbEntity
  8
PART_PADS_SMD_TOP
100
AcDbPolyline
 90
        4
 70
         1
 10
9.4
 20
23.25
 10
9.4
 20
23.75
 10
9.8
 20
23.75
 10
9.8
 20
23.25
  0
LWPOLYLINE
  5
140
100
AcDbEntity
  8
PART_PADS_SMD_TOP
100
AcDbPolyline
 90
        4
 70
         1
 10
10.2
 20
23.25
 10
10.2
 20
23.75
 10
10.6
 20
23.75
 10
10.6
 20
23.25
  0
LWPOLYLINE
  5
141
100
AcDbEntity
  8
PART_PADS_SMD_TOP
100
AcDbPolyline
 90
        4
 70
         1
 10
9.4
 20
29.25
 10
9.4
 20
29.75
 10
9.8
 20
29.75
 10
9.8
 20
29.25
  0
LWPOLYLINE
  5
142
100
AcDbEntity
  8
PART_PADS_SMD_TOP
100
AcDbPolyline
 90
        4
 70
         1
 10
10.2
 20
29.25
 10
10.2
 20
29.75
 10
10.6
 20
29.75
 10
10.6
 20
29.25
  0
LWPOLYLINE
  5
143
100
AcDbEntity
  8
PART_PADS_SMD_TOP
100
AcDbPolyline
 90
        4
 70
         1
 10
10.2
 20
17.75
 10
10.2
 20
18.25
 10
10.6
 20
18.25
 10
10.6
 20
17.75
  0
LWPOLYLINE
  5
144
100
AcDbEntity
  8
PART_PADS_SMD_TOP
100
AcDbPolyline
 90
        4
 70
         1
 10
9.4
 20
17.75
 10
9.4
 20
18.25
 10
9.8
 20
18.25
 10
9.8
 20
17.75
  0
LWPOLYLINE
  5
145
100
AcDbEntity
  8
PART_PADS_SMD_TOP
100
AcDbPolyline
 90
        4
 70
         1
 10
9.4
 20
26.25
 10
9.4
 20
26.75
 10
9.8
 20
26.75
 10
9.8
 20
26.25
  0
LWPOLYLINE
  5
146
100
AcDbEntity
  8
PART_PADS_SMD_TOP
100
AcDbPolyline
 90
        4
 70
         1
 10
10.2
 20
26.25
 10
10.2
 20
26.75
 10
10.6
 20
26.75
 10
10.6
 20
26.25
  0
LWPOLYLINE
  5
147
100
AcDbEntity
  8
PART_PADS_SMD_TOP
100
AcDbPolyline
 90
        4
 70
         1
 10
9.4
 20
27.25
 10
9.4
 20
27.75
 10
9.8
 20
27.75
 10
9.8
 20
27.25
  0
LWPOLYLINE
  5
148
100
AcDbEntity
  8
PART_PADS_SMD_TOP
100
AcDbPolyline
 90
        4
 70
         1
 10
10.2
 20
27.25
 10
10.2
 20
27.75
 10
10.6
 20
27.75
 10
10.6
 20
27.25
  0
LWPOLYLINE
  5
149
100
AcDbEntity
  8
PART_PADS_SMD_TOP
100
AcDbPolyline
 90
        4
 70
         1
 10
10.12875
 20
11.315
 10
10.12875
 20
12.515
 10
10.42875
 20
12.515
 10
10.42875
 20
11.315
  0
LWPOLYLINE
  5
14A
100
AcDbEntity
  8
PART_PADS_SMD_TOP
100
AcDbPolyline
 90
        4
 70
         1
 10
9.47875
 20
11.315
 10
9.47875
 20
12.515
 10
9.77875
 20
12.515
 10
9.77875
 20
11.315
  0
LWPOLYLINE
  5
14B
100
AcDbEntity
  8
PART_PADS_SMD_TOP
100
AcDbPolyline
 90
        4
 70
         1
 10
8.82875
 20
11.315
 10
8.82875
 20
12.515
 10
9.12875
 20
12.515
 10
9.12875
 20
11.315
  0
LWPOLYLINE
  5
14C
100
AcDbEntity
  8
PART_PADS_SMD_TOP
100
AcDbPolyline
 90
        4
 70
         1
 10
8.17875
 20
11.315
 10
8.17875
 20
12.515
 10
8.47875
 20
12.515
 10
8.47875
 20
11.315
  0
LWPOLYLINE
  5
14D
100
AcDbEntity
  8
PART_PADS_SMD_TOP
100
AcDbPolyline
 90
        4
 70
         1
 10
10.12875
 20
15.515
 10
10.12875
 20
16.715
 10
10.42875
 20
16.715
 10
10.42875
 20
15.515
  0
LWPOLYLINE
  5
14E
100
AcDbEntity
  8
PART_PADS_SMD_TOP
100
AcDbPolyline
 90
        4
 70
         1
 10
9.47875
 20
15.515
 10
9.47875
 20
16.715
 10
9.77875
 20
16.715
 10
9.77875
 20
15.515
  0
LWPOLYLINE
  5
14F
100
AcDbEntity
  8
PART_PADS_SMD_TOP
100
AcDbPolyline
 90
        4
 70
         1
 10
8.82875
 20
15.515
 10
8.82875
 20
16.715
 10
9.12875
 20
16.715
 10
9.12875
 20
15.515
  0
LWPOLYLINE
  5
150
100
AcDbEntity
  8
PART_PADS_SMD_TOP
100
AcDbPolyline
 90
        4
 70
         1
 10
8.17875
 20
15.515
 10
8.17875
 20
16.715
 10
8.47875
 20
16.715
 10
8.47875
 20
15.515
  0
LWPOLYLINE
  5
151
100
AcDbEntity
  8
PART_PADS_SMD_TOP
100
AcDbPolyline
 90
        4
 70
         1
 10
9.4
 20
37.75
 10
9.4
 20
38.25
 10
9.8
 20
38.25
 10
9.8
 20
37.75
  0
LWPOLYLINE
  5
152
100
AcDbEntity
  8
PART_PADS_SMD_TOP
100
AcDbPolyline
 90
        4
 70
         1
 10
10.2
 20
37.75
 10
10.2
 20
38.25
 10
10.6
 20
38.25
 10
10.6
 20
37.75
  0
LWPOLYLINE
  5
153
100
AcDbEntity
  8
PART_PADS_SMD_TOP
100
AcDbPolyline
 90
        4
 70
         1
 10
9.4
 20
38.75
 10
9.4
 20
39.25
 10
9.8
 20
39.25
 10
9.8
 20
38.75
  0
LWPOLYLINE
  5
154
100
AcDbEntity
  8
PART_PADS_SMD_TOP
100
AcDbPolyline
 90
        4
 70
         1
 10
10.2
 20
38.75
 10
10.2
 20
39.25
 10
10.6
 20
39.25
 10
10.6
 20
38.75
  0
LWPOLYLINE
  5
155
100
AcDbEntity
  8
PART_PADS_SMD_TOP
100
AcDbPolyline
 90
        4
 70
         1
 10
7.75
 20
35.2
 10
7.75
 20
35.6
 10
8.25
 20
35.6
 10
8.25
 20
35.2
  0
LWPOLYLINE
  5
156
100
AcDbEntity
  8
PART_PADS_SMD_TOP
100
AcDbPolyline
 90
        4
 70
         1
 10
7.75
 20
34.4
 10
7.75
 20
34.8
 10
8.25
 20
34.8
 10
8.25
 20
34.4
  0
LWPOLYLINE
  5
157
100
AcDbEntity
  8
PART_PADS_SMD_TOP
100
AcDbPolyline
 90
        4
 70
         1
 10
12.3
 20
19.385
 10
12.3
 20
19.615
 10
13.7
 20
19.615
 10
13.7
 20
19.385
  0
LWPOLYLINE
  5
158
100
AcDbEntity
  8
PART_PADS_SMD_TOP
100
AcDbPolyline
 90
        4
 70
         1
 10
12.3
 20
19.885
 10
12.3
 20
20.115
 10
13.7
 20
20.115
 10
13.7
 20
19.885
  0
LWPOLYLINE
  5
159
100
AcDbEntity
  8
PART_PADS_SMD_TOP
100
AcDbPolyline
 90
        4
 70
         1
 10
12.3
 20
20.385
 10
12.3
 20
20.615
 10
13.7
 20
20.615
 10
13.7
 20
20.385
  0
LWPOLYLINE
  5
15A
100
AcDbEntity
  8
PART_PADS_SMD_TOP
100
AcDbPolyline
 90
        4
 70
         1
 10
12.3
 20
20.885
 10
12.3
 20
21.115
 10
13.7
 20
21.115
 10
13.7
 20
20.885
  0
LWPOLYLINE
  5
15B
100
AcDbEntity
  8
PART_PADS_SMD_TOP
100
AcDbPolyline
 90
        4
 70
         1
 10
12.3
 20
21.385
 10
12.3
 20
21.615
 10
13.7
 20
21.615
 10
13.7
 20
21.385
  0
LWPOLYLINE
  5
15C
100
AcDbEntity
  8
PART_PADS_SMD_TOP
100
AcDbPolyline
 90
        4
 70
         1
 10
12.3
 20
21.885
 10
12.3
 20
22.115
 10
13.7
 20
22.115
 10
13.7
 20
21.885
  0
LWPOLYLINE
  5
15D
100
AcDbEntity
  8
PART_PADS_SMD_TOP
100
AcDbPolyline
 90
        4
 70
         1
 10
12.3
 20
22.385
 10
12.3
 20
22.615
 10
13.7
 20
22.615
 10
13.7
 20
22.385
  0
LWPOLYLINE
  5
15E
100
AcDbEntity
  8
PART_PADS_SMD_TOP
100
AcDbPolyline
 90
        4
 70
         1
 10
12.3
 20
22.885
 10
12.3
 20
23.115
 10
13.7
 20
23.115
 10
13.7
 20
22.885
  0
LWPOLYLINE
  5
15F
100
AcDbEntity
  8
PART_PADS_SMD_TOP
100
AcDbPolyline
 90
        4
 70
         1
 10
12.3
 20
23.385
 10
12.3
 20
23.615
 10
13.7
 20
23.615
 10
13.7
 20
23.385
  0
LWPOLYLINE
  5
160
100
AcDbEntity
  8
PART_PADS_SMD_TOP
100
AcDbPolyline
 90
        4
 70
         1
 10
12.3
 20
23.885
 10
12.3
 20
24.115
 10
13.7
 20
24.115
 10
13.7
 20
23.885
  0
LWPOLYLINE
  5
161
100
AcDbEntity
  8
PART_PADS_SMD_TOP
100
AcDbPolyline
 90
        4
 70
         1
 10
12.3
 20
24.385
 10
12.3
 20
24.615
 10
13.7
 20
24.615
 10
13.7
 20
24.385
  0
LWPOLYLINE
  5
162
100
AcDbEntity
  8
PART_PADS_SMD_TOP
100
AcDbPolyline
 90
        4
 70
         1
 10
12.3
 20
24.885
 10
12.3
 20
25.115
 10
13.7
 20
25.115
 10
13.7
 20
24.885
  0
LWPOLYLINE
  5
163
100
AcDbEntity
  8
PART_PADS_SMD_TOP
100
AcDbPolyline
 90
        4
 70
         1
 10
12.3
 20
25.385
 10
12.3
 20
25.615
 10
13.7
 20
25.615
 10
13.7
 20
25.385
  0
LWPOLYLINE
  5
164
100
AcDbEntity
  8
PART_PADS_SMD_TOP
100
AcDbPolyline
 90
        4
 70
         1
 10
12.3
 20
25.885
 10
12.3
 20
26.115
 10
13.7
 20
26.115
 10
13.7
 20
25.885
  0
LWPOLYLINE
  5
165
100
AcDbEntity
  8
PART_PADS_SMD_TOP
100
AcDbPolyline
 90
        4
 70
         1
 10
12.3
 20
26.385
 10
12.3
 20
26.615
 10
13.7
 20
26.615
 10
13.7
 20
26.385
  0
LWPOLYLINE
  5
166
100
AcDbEntity
  8
PART_PADS_SMD_TOP
100
AcDbPolyline
 90
        4
 70
         1
 10
12.3
 20
26.885
 10
12.3
 20
27.115
 10
13.7
 20
27.115
 10
13.7
 20
26.885
  0
LWPOLYLINE
  5
167
100
AcDbEntity
  8
PART_PADS_SMD_TOP
100
AcDbPolyline
 90
        4
 70
         1
 10
12.3
 20
27.385
 10
12.3
 20
27.615
 10
13.7
 20
27.615
 10
13.7
 20
27.385
  0
LWPOLYLINE
  5
168
100
AcDbEntity
  8
PART_PADS_SMD_TOP
100
AcDbPolyline
 90
        4
 70
         1
 10
12.3
 20
27.885
 10
12.3
 20
28.115
 10
13.7
 20
28.115
 10
13.7
 20
27.885
  0
LWPOLYLINE
  5
169
100
AcDbEntity
  8
PART_PADS_SMD_TOP
100
AcDbPolyline
 90
        4
 70
         1
 10
12.3
 20
28.385
 10
12.3
 20
28.615
 10
13.7
 20
28.615
 10
13.7
 20
28.385
  0
LWPOLYLINE
  5
16A
100
AcDbEntity
  8
PART_PADS_SMD_TOP
100
AcDbPolyline
 90
        4
 70
         1
 10
12.3
 20
28.885
 10
12.3
 20
29.115
 10
13.7
 20
29.115
 10
13.7
 20
28.885
  0
LWPOLYLINE
  5
16B
100
AcDbEntity
  8
PART_PADS_SMD_TOP
100
AcDbPolyline
 90
        4
 70
         1
 10
12.3
 20
29.385
 10
12.3
 20
29.615
 10
13.7
 20
29.615
 10
13.7
 20
29.385
  0
LWPOLYLINE
  5
16C
100
AcDbEntity
  8
PART_PADS_SMD_TOP
100
AcDbPolyline
 90
        4
 70
         1
 10
12.3
 20
29.885
 10
12.3
 20
30.115
 10
13.7
 20
30.115
 10
13.7
 20
29.885
  0
LWPOLYLINE
  5
16D
100
AcDbEntity
  8
PART_PADS_SMD_TOP
100
AcDbPolyline
 90
        4
 70
         1
 10
12.3
 20
30.385
 10
12.3
 20
30.615
 10
13.7
 20
30.615
 10
13.7
 20
30.385
  0
LWPOLYLINE
  5
16E
100
AcDbEntity
  8
PART_PADS_SMD_TOP
100
AcDbPolyline
 90
        4
 70
         1
 10
12.3
 20
30.885
 10
12.3
 20
31.115
 10
13.7
 20
31.115
 10
13.7
 20
30.885
  0
LWPOLYLINE
  5
16F
100
AcDbEntity
  8
PART_PADS_SMD_TOP
100
AcDbPolyline
 90
        4
 70
         1
 10
12.3
 20
31.385
 10
12.3
 20
31.615
 10
13.7
 20
31.615
 10
13.7
 20
31.385
  0
LWPOLYLINE
  5
170
100
AcDbEntity
  8
PART_PADS_SMD_TOP
100
AcDbPolyline
 90
        4
 70
         1
 10
12.3
 20
31.885
 10
12.3
 20
32.115
 10
13.7
 20
32.115
 10
13.7
 20
31.885
  0
LWPOLYLINE
  5
171
100
AcDbEntity
  8
PART_PADS_SMD_TOP
100
AcDbPolyline
 90
        4
 70
         1
 10
12.3
 20
32.385
 10
12.3
 20
32.615
 10
13.7
 20
32.615
 10
13.7
 20
32.385
  0
LWPOLYLINE
  5
172
100
AcDbEntity
  8
PART_PADS_SMD_TOP
100
AcDbPolyline
 90
        4
 70
         1
 10
12.3
 20
32.885
 10
12.3
 20
33.115
 10
13.7
 20
33.115
 10
13.7
 20
32.885
  0
LWPOLYLINE
  5
173
100
AcDbEntity
  8
PART_PADS_SMD_TOP
100
AcDbPolyline
 90
        4
 70
         1
 10
12.3
 20
33.385
 10
12.3
 20
33.615
 10
13.7
 20
33.615
 10
13.7
 20
33.385
  0
LWPOLYLINE
  5
174
100
AcDbEntity
  8
PART_PADS_SMD_TOP
100
AcDbPolyline
 90
        4
 70
         1
 10
12.3
 20
33.885
 10
12.3
 20
34.115
 10
13.7
 20
34.115
 10
13.7
 20
33.885
  0
LWPOLYLINE
  5
175
100
AcDbEntity
  8
PART_PADS_SMD_TOP
100
AcDbPolyline
 90
        4
 70
         1
 10
12.3
 20
34.385
 10
12.3
 20
34.615
 10
13.7
 20
34.615
 10
13.7
 20
34.385
  0
LWPOLYLINE
  5
176
100
AcDbEntity
  8
PART_PADS_SMD_TOP
100
AcDbPolyline
 90
        4
 70
         1
 10
12.3
 20
34.885
 10
12.3
 20
35.115
 10
13.7
 20
35.115
 10
13.7
 20
34.885
  0
LWPOLYLINE
  5
177
100
AcDbEntity
  8
PART_PADS_SMD_TOP
100
AcDbPolyline
 90
        4
 70
         1
 10
12.3
 20
35.385
 10
12.3
 20
35.615
 10
13.7
 20
35.615
 10
13.7
 20
35.385
  0
LWPOLYLINE
  5
178
100
AcDbEntity
  8
PART_PADS_SMD_TOP
100
AcDbPolyline
 90
        4
 70
         1
 10
12.3
 20
35.885
 10
12.3
 20
36.115
 10
13.7
 20
36.115
 10
13.7
 20
35.885
  0
LWPOLYLINE
  5
179
100
AcDbEntity
  8
PART_PADS_SMD_TOP
100
AcDbPolyline
 90
        4
 70
         1
 10
12.3
 20
36.385
 10
12.3
 20
36.615
 10
13.7
 20
36.615
 10
13.7
 20
36.385
  0
LWPOLYLINE
  5
17A
100
AcDbEntity
  8
PART_PADS_SMD_TOP
100
AcDbPolyline
 90
        4
 70
         1
 10
12.3
 20
36.885
 10
12.3
 20
37.115
 10
13.7
 20
37.115
 10
13.7
 20
36.885
  0
LWPOLYLINE
  5
17B
100
AcDbEntity
  8
PART_PADS_SMD_TOP
100
AcDbPolyline
 90
        4
 70
         1
 10
12.3
 20
37.385
 10
12.3
 20
37.615
 10
13.7
 20
37.615
 10
13.7
 20
37.385
  0
LWPOLYLINE
  5
17C
100
AcDbEntity
  8
PART_PADS_SMD_TOP
100
AcDbPolyline
 90
        4
 70
         1
 10
12.3
 20
37.885
 10
12.3
 20
38.115
 10
13.7
 20
38.115
 10
13.7
 20
37.885
  0
LWPOLYLINE
  5
17D
100
AcDbEntity
  8
PART_PADS_SMD_TOP
100
AcDbPolyline
 90
        4
 70
         1
 10
12.3
 20
38.385
 10
12.3
 20
38.615
 10
13.7
 20
38.615
 10
13.7
 20
38.385
  0
LWPOLYLINE
  5
17E
100
AcDbEntity
  8
PART_PADS_SMD_TOP
100
AcDbPolyline
 90
        4
 70
         1
 10
12.3
 20
38.885
 10
12.3
 20
39.115
 10
13.7
 20
39.115
 10
13.7
 20
38.885
  0
LWPOLYLINE
  5
17F
100
AcDbEntity
  8
PART_PADS_SMD_TOP
100
AcDbPolyline
 90
        4
 70
         1
 10
15.4
 20
16.2
 10
15.4
 20
18.6
 10
17.2
 20
18.6
 10
17.2
 20
16.2
  0
LWPOLYLINE
  5
180
100
AcDbEntity
  8
PART_PADS_SMD_TOP
100
AcDbPolyline
 90
        4
 70
         1
 10
15.4
 20
39.9
 10
15.4
 20
42.3
 10
17.2
 20
42.3
 10
17.2
 20
39.9
  0
LWPOLYLINE
  5
181
100
AcDbEntity
  8
PART_PADS_SMD_TOP
100
AcDbPolyline
 90
        4
 70
         1
 10
12.4
 20
15.75
 10
12.4
 20
16.25
 10
12.8
 20
16.25
 10
12.8
 20
15.75
  0
LWPOLYLINE
  5
182
100
AcDbEntity
  8
PART_PADS_SMD_TOP
100
AcDbPolyline
 90
        4
 70
         1
 10
13.2
 20
15.75
 10
13.2
 20
16.25
 10
13.6
 20
16.25
 10
13.6
 20
15.75
  0
LWPOLYLINE
  5
183
100
AcDbEntity
  8
PART_PADS_SMD_TOP
100
AcDbPolyline
 90
        4
 70
         1
 10
12.4
 20
59.25
 10
12.4
 20
59.75
 10
12.8
 20
59.75
 10
12.8
 20
59.25
  0
LWPOLYLINE
  5
184
100
AcDbEntity
  8
PART_PADS_SMD_TOP
100
AcDbPolyline
 90
        4
 70
         1
 10
13.2
 20
59.25
 10
13.2
 20
59.75
 10
13.6
 20
59.75
 10
13.6
 20
59.25
  0
LWPOLYLINE
  5
185
100
AcDbEntity
  8
PART_PADS_SMD_TOP
100
AcDbPolyline
 90
        4
 70
         1
 10
8.4
 20
52.75
 10
8.4
 20
53.25
 10
8.8
 20
53.25
 10
8.8
 20
52.75
  0
LWPOLYLINE
  5
186
100
AcDbEntity
  8
PART_PADS_SMD_TOP
100
AcDbPolyline
 90
        4
 70
         1
 10
9.2
 20
52.75
 10
9.2
 20
53.25
 10
9.6
 20
53.25
 10
9.6
 20
52.75
  0
LWPOLYLINE
  5
187
100
AcDbEntity
  8
PART_PADS_SMD_TOP
100
AcDbPolyline
 90
        4
 70
         1
 10
19.9845
 20
8.37
 10
19.9845
 20
8.82
 10
21.3845
 20
8.82
 10
21.3845
 20
8.37
  0
LWPOLYLINE
  5
188
100
AcDbEntity
  8
PART_PADS_SMD_TOP
100
AcDbPolyline
 90
        4
 70
         1
 10
19.9845
 20
9.64
 10
19.9845
 20
10.09
 10
21.3845
 20
10.09
 10
21.3845
 20
9.64
  0
LWPOLYLINE
  5
189
100
AcDbEntity
  8
PART_PADS_SMD_TOP
100
AcDbPolyline
 90
        4
 70
         1
 10
19.9845
 20
10.91
 10
19.9845
 20
11.36
 10
21.3845
 20
11.36
 10
21.3845
 20
10.91
  0
LWPOLYLINE
  5
18A
100
AcDbEntity
  8
PART_PADS_SMD_TOP
100
AcDbPolyline
 90
        4
 70
         1
 10
19.9845
 20
12.18
 10
19.9845
 20
12.63
 10
21.3845
 20
12.63
 10
21.3845
 20
12.18
  0
LWPOLYLINE
  5
18B
100
AcDbEntity
  8
PART_PADS_SMD_TOP
100
AcDbPolyline
 90
        4
 70
         1
 10
14.5845
 20
12.18
 10
14.5845
 20
12.63
 10
15.9845
 20
12.63
 10
15.9845
 20
12.18
  0
LWPOLYLINE
  5
18C
100
AcDbEntity
  8
PART_PADS_SMD_TOP
100
AcDbPolyline
 90
        4
 70
         1
 10
14.5845
 20
10.91
 10
14.5845
 20
11.36
 10
15.9845
 20
11.36
 10
15.9845
 20
10.91
  0
LWPOLYLINE
  5
18D
100
AcDbEntity
  8
PART_PADS_SMD_TOP
100
AcDbPolyline
 90
        4
 70
         1
 10
14.5845
 20
9.64
 10
14.5845
 20
10.09
 10
15.9845
 20
10.09
 10
15.9845
 20
9.64
  0
LWPOLYLINE
  5
18E
100
AcDbEntity
  8
PART_PADS_SMD_TOP
100
AcDbPolyline
 90
        4
 70
         1
 10
14.5845
 20
8.37
 10
14.5845
 20
8.82
 10
15.9845
 20
8.82
 10
15.9845
 20
8.37
  0
LWPOLYLINE
  5
18F
100
AcDbEntity
  8
PART_PADS_SMD_TOP
100
AcDbPolyline
 90
        4
 70
         1
 10
18.2
 20
13.75
 10
18.2
 20
14.25
 10
18.6
 20
14.25
 10
18.6
 20
13.75
  0
LWPOLYLINE
  5
190
100
AcDbEntity
  8
PART_PADS_SMD_TOP
100
AcDbPolyline
 90
        4
 70
         1
 10
17.4
 20
13.75
 10
17.4
 20
14.25
 10
17.8
 20
14.25
 10
17.8
 20
13.75
  0
LWPOLYLINE
  5
191
100
AcDbEntity
  8
PART_PADS_SMD_TOP
100
AcDbPolyline
 90
        4
 70
         1
 10
18.2
 20
14.75
 10
18.2
 20
15.25
 10
18.6
 20
15.25
 10
18.6
 20
14.75
  0
LWPOLYLINE
  5
192
100
AcDbEntity
  8
PART_PADS_SMD_TOP
100
AcDbPolyline
 90
        4
 70
         1
 10
17.4
 20
14.75
 10
17.4
 20
15.25
 10
17.8
 20
15.25
 10
17.8
 20
14.75
  0
LWPOLYLINE
  5
193
100
AcDbEntity
  8
PART_PADS_SMD_TOP
100
AcDbPolyline
 90
        4
 70
         1
 10
10.75
 20
7.9
 10
10.75
 20
8.3
 10
11.25
 20
8.3
 10
11.25
 20
7.9
  0
LWPOLYLINE
  5
194
100
AcDbEntity
  8
PART_PADS_SMD_TOP
100
AcDbPolyline
 90
        4
 70
         1
 10
10.75
 20
8.7
 10
10.75
 20
9.1
 10
11.25
 20
9.1
 10
11.25
 20
8.7
  0
LWPOLYLINE
  5
195
100
AcDbEntity
  8
PART_PADS_SMD_TOP
100
AcDbPolyline
 90
        4
 70
         1
 10
12.25
 20
13.7
 10
12.25
 20
14.1
 10
12.75
 20
14.1
 10
12.75
 20
13.7
  0
LWPOLYLINE
  5
196
100
AcDbEntity
  8
PART_PADS_SMD_TOP
100
AcDbPolyline
 90
        4
 70
         1
 10
12.25
 20
12.9
 10
12.25
 20
13.3
 10
12.75
 20
13.3
 10
12.75
 20
12.9
  0
LWPOLYLINE
  5
197
100
AcDbEntity
  8
PART_PADS_SMD_TOP
100
AcDbPolyline
 90
        4
 70
         1
 10
15.2
 20
56.75
 10
15.2
 20
57.25
 10
15.6
 20
57.25
 10
15.6
 20
56.75
  0
LWPOLYLINE
  5
198
100
AcDbEntity
  8
PART_PADS_SMD_TOP
100
AcDbPolyline
 90
        4
 70
         1
 10
14.4
 20
56.75
 10
14.4
 20
57.25
 10
14.8
 20
57.25
 10
14.8
 20
56.75
  0
LWPOLYLINE
  5
199
100
AcDbEntity
  8
PART_PADS_SMD_TOP
100
AcDbPolyline
 90
        4
 70
         1
 10
14.4
 20
55.75
 10
14.4
 20
56.25
 10
14.8
 20
56.25
 10
14.8
 20
55.75
  0
LWPOLYLINE
  5
19A
100
AcDbEntity
  8
PART_PADS_SMD_TOP
100
AcDbPolyline
 90
        4
 70
         1
 10
15.2
 20
55.75
 10
15.2
 20
56.25
 10
15.6
 20
56.25
 10
15.6
 20
55.75
  0
LWPOLYLINE
  5
19B
100
AcDbEntity
  8
PART_PADS_SMD_TOP
100
AcDbPolyline
 90
        4
 70
         1
 10
11.25
 20
56.2
 10
11.25
 20
56.6
 10
11.75
 20
56.6
 10
11.75
 20
56.2
  0
LWPOLYLINE
  5
19C
100
AcDbEntity
  8
PART_PADS_SMD_TOP
100
AcDbPolyline
 90
        4
 70
         1
 10
11.25
 20
55.4
 10
11.25
 20
55.8
 10
11.75
 20
55.8
 10
11.75
 20
55.4
  0
LWPOLYLINE
  5
19D
100
AcDbEntity
  8
PART_PADS_SMD_TOP
100
AcDbPolyline
 90
        4
 70
         1
 10
15.25
 20
45.4
 10
15.25
 20
45.8
 10
15.75
 20
45.8
 10
15.75
 20
45.4
  0
LWPOLYLINE
  5
19E
100
AcDbEntity
  8
PART_PADS_SMD_TOP
100
AcDbPolyline
 90
        4
 70
         1
 10
15.25
 20
46.2
 10
15.25
 20
46.6
 10
15.75
 20
46.6
 10
15.75
 20
46.2
  0
LWPOLYLINE
  5
19F
100
AcDbEntity
  8
PART_PADS_SMD_TOP
100
AcDbPolyline
 90
        4
 70
         1
 10
14.25
 20
46.2
 10
14.25
 20
46.6
 10
14.75
 20
46.6
 10
14.75
 20
46.2
  0
LWPOLYLINE
  5
1A0
100
AcDbEntity
  8
PART_PADS_SMD_TOP
100
AcDbPolyline
 90
        4
 70
         1
 10
14.25
 20
45.4
 10
14.25
 20
45.8
 10
14.75
 20
45.8
 10
14.75
 20
45.4
  0
LWPOLYLINE
  5
1A1
100
AcDbEntity
  8
PART_PADS_SMD_TOP
100
AcDbPolyline
 90
        4
 70
         1
 10
11.25
 20
45.4
 10
11.25
 20
45.8
 10
11.75
 20
45.8
 10
11.75
 20
45.4
  0
LWPOLYLINE
  5
1A2
100
AcDbEntity
  8
PART_PADS_SMD_TOP
100
AcDbPolyline
 90
        4
 70
         1
 10
11.25
 20
46.2
 10
11.25
 20
46.6
 10
11.75
 20
46.6
 10
11.75
 20
46.2
  0
LWPOLYLINE
  5
1A3
100
AcDbEntity
  8
PART_PADS_SMD_TOP
100
AcDbPolyline
 90
        4
 70
         1
 10
13.25
 20
45.4
 10
13.25
 20
45.8
 10
13.75
 20
45.8
 10
13.75
 20
45.4
  0
LWPOLYLINE
  5
1A4
100
AcDbEntity
  8
PART_PADS_SMD_TOP
100
AcDbPolyline
 90
        4
 70
         1
 10
13.25
 20
46.2
 10
13.25
 20
46.6
 10
13.75
 20
46.6
 10
13.75
 20
46.2
  0
LWPOLYLINE
  5
1A5
100
AcDbEntity
  8
PART_PADS_SMD_TOP
100
AcDbPolyline
 90
        4
 70
         1
 10
12.25
 20
45.4
 10
12.25
 20
45.8
 10
12.75
 20
45.8
 10
12.75
 20
45.4
  0
LWPOLYLINE
  5
1A6
100
AcDbEntity
  8
PART_PADS_SMD_TOP
100
AcDbPolyline
 90
        4
 70
         1
 10
12.25
 20
46.2
 10
12.25
 20
46.6
 10
12.75
 20
46.6
 10
12.75
 20
46.2
  0
LWPOLYLINE
  5
1A7
100
AcDbEntity
  8
PART_PADS_SMD_TOP
100
AcDbPolyline
 90
        4
 70
         1
 10
11.37
 20
48.1155
 10
11.37
 20
49.5155
 10
11.82
 20
49.5155
 10
11.82
 20
48.1155
  0
LWPOLYLINE
  5
1A8
100
AcDbEntity
  8
PART_PADS_SMD_TOP
100
AcDbPolyline
 90
        4
 70
         1
 10
12.64
 20
48.1155
 10
12.64
 20
49.5155
 10
13.09
 20
49.5155
 10
13.09
 20
48.1155
  0
LWPOLYLINE
  5
1A9
100
AcDbEntity
  8
PART_PADS_SMD_TOP
100
AcDbPolyline
 90
        4
 70
         1
 10
13.91
 20
48.1155
 10
13.91
 20
49.5155
 10
14.36
 20
49.5155
 10
14.36
 20
48.1155
  0
LWPOLYLINE
  5
1AA
100
AcDbEntity
  8
PART_PADS_SMD_TOP
100
AcDbPolyline
 90
        4
 70
         1
 10
15.18
 20
48.1155
 10
15.18
 20
49.5155
 10
15.63
 20
49.5155
 10
15.63
 20
48.1155
  0
LWPOLYLINE
  5
1AB
100
AcDbEntity
  8
PART_PADS_SMD_TOP
100
AcDbPolyline
 90
        4
 70
         1
 10
15.18
 20
53.5155
 10
15.18
 20
54.9155
 10
15.63
 20
54.9155
 10
15.63
 20
53.5155
  0
LWPOLYLINE
  5
1AC
100
AcDbEntity
  8
PART_PADS_SMD_TOP
100
AcDbPolyline
 90
        4
 70
         1
 10
13.91
 20
53.5155
 10
13.91
 20
54.9155
 10
14.36
 20
54.9155
 10
14.36
 20
53.5155
  0
LWPOLYLINE
  5
1AD
100
AcDbEntity
  8
PART_PADS_SMD_TOP
100
AcDbPolyline
 90
        4
 70
         1
 10
12.64
 20
53.5155
 10
12.64
 20
54.9155
 10
13.09
 20
54.9155
 10
13.09
 20
53.5155
  0
LWPOLYLINE
  5
1AE
100
AcDbEntity
  8
PART_PADS_SMD_TOP
100
AcDbPolyline
 90
        4
 70
         1
 10
11.37
 20
53.5155
 10
11.37
 20
54.9155
 10
11.82
 20
54.9155
 10
11.82
 20
53.5155
  0
LWPOLYLINE
  5
1AF
100
AcDbEntity
  8
PART_PADS_SMD_TOP
100
AcDbPolyline
 90
        4
 70
         1
 10
12.4
 20
10.25
 10
12.4
 20
10.75
 10
12.8
 20
10.75
 10
12.8
 20
10.25
  0
LWPOLYLINE
  5
1B0
100
AcDbEntity
  8
PART_PADS_SMD_TOP
100
AcDbPolyline
 90
        4
 70
         1
 10
13.2
 20
10.25
 10
13.2
 20
10.75
 10
13.6
 20
10.75
 10
13.6
 20
10.25
  0
LWPOLYLINE
  5
1B1
100
AcDbEntity
  8
PART_PADS_SMD_TOP
100
AcDbPolyline
 90
        4
 70
         1
 10
12.4
 20
8.75
 10
12.4
 20
9.25
 10
12.8
 20
9.25
 10
12.8
 20
8.75
  0
LWPOLYLINE
  5
1B2
100
AcDbEntity
  8
PART_PADS_SMD_TOP
100
AcDbPolyline
 90
        4
 70
         1
 10
13.2
 20
8.75
 10
13.2
 20
9.25
 10
13.6
 20
9.25
 10
13.6
 20
8.75
  0
LWPOLYLINE
  5
1B3
100
AcDbEntity
  8
PART_PADS_SMD_TOP
100
AcDbPolyline
 90
        4
 70
         1
 10
12.4
 20
7.75
 10
12.4
 20
8.25
 10
12.8
 20
8.25
 10
12.8
 20
7.75
  0
LWPOLYLINE
  5
1B4
100
AcDbEntity
  8
PART_PADS_SMD_TOP
100
AcDbPolyline
 90
        4
 70
         1
 10
13.2
 20
7.75
 10
13.2
 20
8.25
 10
13.6
 20
8.25
 10
13.6
 20
7.75
  0
TEXT
  5
1B6
100
AcDbEntity
  8
PIN_NUMBERS_TOP
100
AcDbText
 10
8.282068
 20
8.377496
 30
0.0
 40
0.508
  1
2
  7
COURIER_NEW
 72
         1
 11
8.5
 21
8.6
 31
0.0
100
AcDbText
 73
         2
  0
TEXT
  5
1B7
100
AcDbEntity
  8
PIN_NUMBERS_TOP
100
AcDbText
 10
8.282068
 20
9.177496
 30
0.0
 40
0.508
  1
1
  7
COURIER_NEW
 72
         1
 11
8.5
 21
9.4
 31
0.0
100
AcDbText
 73
         2
  0
TEXT
  5
1B8
100
AcDbEntity
  8
PIN_NUMBERS_TOP
100
AcDbText
 10
23.182068
 20
11.777496
 30
0.0
 40
0.508
  1
2
  7
COURIER_NEW
 72
         1
 11
23.4
 21
12.0
 31
0.0
100
AcDbText
 73
         2
  0
TEXT
  5
1B9
100
AcDbEntity
  8
PIN_NUMBERS_TOP
100
AcDbText
 10
22.382068
 20
11.777496
 30
0.0
 40
0.508
  1
1
  7
COURIER_NEW
 72
         1
 11
22.6
 21
12.0
 31
0.0
100
AcDbText
 73
         2
  0
TEXT
  5
1BA
100
AcDbEntity
  8
PIN_NUMBERS_TOP
100
AcDbText
 10
23.182068
 20
10.777496
 30
0.0
 40
0.508
  1
2
  7
COURIER_NEW
 72
         1
 11
23.4
 21
11.0
 31
0.0
100
AcDbText
 73
         2
  0
TEXT
  5
1BB
100
AcDbEntity
  8
PIN_NUMBERS_TOP
100
AcDbText
 10
22.382068
 20
10.777496
 30
0.0
 40
0.508
  1
1
  7
COURIER_NEW
 72
         1
 11
22.6
 21
11.0
 31
0.0
100
AcDbText
 73
         2
  0
TEXT
  5
1BC
100
AcDbEntity
  8
PIN_NUMBERS_TOP
100
AcDbText
 10
23.182068
 20
9.277496
 30
0.0
 40
0.508
  1
2
  7
COURIER_NEW
 72
         1
 11
23.4
 21
9.5
 31
0.0
100
AcDbText
 73
         2
  0
TEXT
  5
1BD
100
AcDbEntity
  8
PIN_NUMBERS_TOP
100
AcDbText
 10
22.382068
 20
9.277496
 30
0.0
 40
0.508
  1
1
  7
COURIER_NEW
 72
         1
 11
22.6
 21
9.5
 31
0.0
100
AcDbText
 73
         2
  0
TEXT
  5
1BE
100
AcDbEntity
  8
PIN_NUMBERS_TOP
100
AcDbText
 10
23.182068
 20
7.777496
 30
0.0
 40
0.508
  1
2
  7
COURIER_NEW
 72
         1
 11
23.4
 21
8.0
 31
0.0
100
AcDbText
 73
         2
  0
TEXT
  5
1BF
100
AcDbEntity
  8
PIN_NUMBERS_TOP
100
AcDbText
 10
22.382068
 20
7.777496
 30
0.0
 40
0.508
  1
1
  7
COURIER_NEW
 72
         1
 11
22.6
 21
8.0
 31
0.0
100
AcDbText
 73
         2
  0
TEXT
  5
1C0
100
AcDbEntity
  8
PIN_NUMBERS_TOP
100
AcDbText
 10
11.182068
 20
10.277496
 30
0.0
 40
0.508
  1
2
  7
COURIER_NEW
 72
         1
 11
11.4
 21
10.5
 31
0.0
100
AcDbText
 73
         2
  0
TEXT
  5
1C1
100
AcDbEntity
  8
PIN_NUMBERS_TOP
100
AcDbText
 10
10.382068
 20
10.277496
 30
0.0
 40
0.508
  1
1
  7
COURIER_NEW
 72
         1
 11
10.6
 21
10.5
 31
0.0
100
AcDbText
 73
         2
  0
TEXT
  5
1C2
100
AcDbEntity
  8
PIN_NUMBERS_TOP
100
AcDbText
 10
10.432068
 20
32.827496
 30
0.0
 40
0.508
  1
1
  7
COURIER_NEW
 72
         1
 11
10.65
 21
33.05
 31
0.0
100
AcDbText
 73
         2
  0
TEXT
  5
1C3
100
AcDbEntity
  8
PIN_NUMBERS_TOP
100
AcDbText
 10
9.782068
 20
32.827496
 30
0.0
 40
0.508
  1
2
  7
COURIER_NEW
 72
         1
 11
10.0
 21
33.05
 31
0.0
100
AcDbText
 73
         2
  0
TEXT
  5
1C4
100
AcDbEntity
  8
PIN_NUMBERS_TOP
100
AcDbText
 10
9.132068
 20
32.827496
 30
0.0
 40
0.508
  1
3
  7
COURIER_NEW
 72
         1
 11
9.35
 21
33.05
 31
0.0
100
AcDbText
 73
         2
  0
TEXT
  5
1C5
100
AcDbEntity
  8
PIN_NUMBERS_TOP
100
AcDbText
 10
9.132068
 20
30.727496
 30
0.0
 40
0.508
  1
4
  7
COURIER_NEW
 72
         1
 11
9.35
 21
30.95
 31
0.0
100
AcDbText
 73
         2
  0
TEXT
  5
1C6
100
AcDbEntity
  8
PIN_NUMBERS_TOP
100
AcDbText
 10
10.432068
 20
30.727496
 30
0.0
 40
0.508
  1
5
  7
COURIER_NEW
 72
         1
 11
10.65
 21
30.95
 31
0.0
100
AcDbText
 73
         2
  0
TEXT
  5
1C7
100
AcDbEntity
  8
PIN_NUMBERS_TOP
100
AcDbText
 10
7.782068
 20
32.177496
 30
0.0
 40
0.508
  1
2
  7
COURIER_NEW
 72
         1
 11
8.0
 21
32.4
 31
0.0
100
AcDbText
 73
         2
  0
TEXT
  5
1C8
100
AcDbEntity
  8
PIN_NUMBERS_TOP
100
AcDbText
 10
7.782068
 20
31.377496
 30
0.0
 40
0.508
  1
1
  7
COURIER_NEW
 72
         1
 11
8.0
 21
31.6
 31
0.0
100
AcDbText
 73
         2
  0
TEXT
  5
1C9
100
AcDbEntity
  8
PIN_NUMBERS_TOP
100
AcDbText
 10
9.382068
 20
19.277496
 30
0.0
 40
0.508
  1
2
  7
COURIER_NEW
 72
         1
 11
9.6
 21
19.5
 31
0.0
100
AcDbText
 73
         2
  0
TEXT
  5
1CA
100
AcDbEntity
  8
PIN_NUMBERS_TOP
100
AcDbText
 10
10.182068
 20
19.277496
 30
0.0
 40
0.508
  1
1
  7
COURIER_NEW
 72
         1
 11
10.4
 21
19.5
 31
0.0
100
AcDbText
 73
         2
  0
TEXT
  5
1CB
100
AcDbEntity
  8
PIN_NUMBERS_TOP
100
AcDbText
 10
9.382068
 20
21.277496
 30
0.0
 40
0.508
  1
2
  7
COURIER_NEW
 72
         1
 11
9.6
 21
21.5
 31
0.0
100
AcDbText
 73
         2
  0
TEXT
  5
1CC
100
AcDbEntity
  8
PIN_NUMBERS_TOP
100
AcDbText
 10
10.182068
 20
21.277496
 30
0.0
 40
0.508
  1
1
  7
COURIER_NEW
 72
         1
 11
10.4
 21
21.5
 31
0.0
100
AcDbText
 73
         2
  0
TEXT
  5
1CD
100
AcDbEntity
  8
PIN_NUMBERS_TOP
100
AcDbText
 10
9.382068
 20
20.277496
 30
0.0
 40
0.508
  1
2
  7
COURIER_NEW
 72
         1
 11
9.6
 21
20.5
 31
0.0
100
AcDbText
 73
         2
  0
TEXT
  5
1CE
100
AcDbEntity
  8
PIN_NUMBERS_TOP
100
AcDbText
 10
10.182068
 20
20.277496
 30
0.0
 40
0.508
  1
1
  7
COURIER_NEW
 72
         1
 11
10.4
 21
20.5
 31
0.0
100
AcDbText
 73
         2
  0
TEXT
  5
1CF
100
AcDbEntity
  8
PIN_NUMBERS_TOP
100
AcDbText
 10
9.382068
 20
25.277496
 30
0.0
 40
0.508
  1
2
  7
COURIER_NEW
 72
         1
 11
9.6
 21
25.5
 31
0.0
100
AcDbText
 73
         2
  0
TEXT
  5
1D0
100
AcDbEntity
  8
PIN_NUMBERS_TOP
100
AcDbText
 10
10.182068
 20
25.277496
 30
0.0
 40
0.508
  1
1
  7
COURIER_NEW
 72
         1
 11
10.4
 21
25.5
 31
0.0
100
AcDbText
 73
         2
  0
TEXT
  5
1D1
100
AcDbEntity
  8
PIN_NUMBERS_TOP
100
AcDbText
 10
9.382068
 20
24.277496
 30
0.0
 40
0.508
  1
2
  7
COURIER_NEW
 72
         1
 11
9.6
 21
24.5
 31
0.0
100
AcDbText
 73
         2
  0
TEXT
  5
1D2
100
AcDbEntity
  8
PIN_NUMBERS_TOP
100
AcDbText
 10
10.182068
 20
24.277496
 30
0.0
 40
0.508
  1
1
  7
COURIER_NEW
 72
         1
 11
10.4
 21
24.5
 31
0.0
100
AcDbText
 73
         2
  0
TEXT
  5
1D3
100
AcDbEntity
  8
PIN_NUMBERS_TOP
100
AcDbText
 10
9.382068
 20
22.277496
 30
0.0
 40
0.508
  1
2
  7
COURIER_NEW
 72
         1
 11
9.6
 21
22.5
 31
0.0
100
AcDbText
 73
         2
  0
TEXT
  5
1D4
100
AcDbEntity
  8
PIN_NUMBERS_TOP
100
AcDbText
 10
10.182068
 20
22.277496
 30
0.0
 40
0.508
  1
1
  7
COURIER_NEW
 72
         1
 11
10.4
 21
22.5
 31
0.0
100
AcDbText
 73
         2
  0
TEXT
  5
1D5
100
AcDbEntity
  8
PIN_NUMBERS_TOP
100
AcDbText
 10
9.382068
 20
23.277496
 30
0.0
 40
0.508
  1
2
  7
COURIER_NEW
 72
         1
 11
9.6
 21
23.5
 31
0.0
100
AcDbText
 73
         2
  0
TEXT
  5
1D6
100
AcDbEntity
  8
PIN_NUMBERS_TOP
100
AcDbText
 10
10.182068
 20
23.277496
 30
0.0
 40
0.508
  1
1
  7
COURIER_NEW
 72
         1
 11
10.4
 21
23.5
 31
0.0
100
AcDbText
 73
         2
  0
TEXT
  5
1D7
100
AcDbEntity
  8
PIN_NUMBERS_TOP
100
AcDbText
 10
9.382068
 20
29.277496
 30
0.0
 40
0.508
  1
2
  7
COURIER_NEW
 72
         1
 11
9.6
 21
29.5
 31
0.0
100
AcDbText
 73
         2
  0
TEXT
  5
1D8
100
AcDbEntity
  8
PIN_NUMBERS_TOP
100
AcDbText
 10
10.182068
 20
29.277496
 30
0.0
 40
0.508
  1
1
  7
COURIER_NEW
 72
         1
 11
10.4
 21
29.5
 31
0.0
100
AcDbText
 73
         2
  0
TEXT
  5
1D9
100
AcDbEntity
  8
PIN_NUMBERS_TOP
100
AcDbText
 10
10.182068
 20
17.777496
 30
0.0
 40
0.508
  1
2
  7
COURIER_NEW
 72
         1
 11
10.4
 21
18.0
 31
0.0
100
AcDbText
 73
         2
  0
TEXT
  5
1DA
100
AcDbEntity
  8
PIN_NUMBERS_TOP
100
AcDbText
 10
9.382068
 20
17.777496
 30
0.0
 40
0.508
  1
1
  7
COURIER_NEW
 72
         1
 11
9.6
 21
18.0
 31
0.0
100
AcDbText
 73
         2
  0
TEXT
  5
1DB
100
AcDbEntity
  8
PIN_NUMBERS_TOP
100
AcDbText
 10
9.382068
 20
26.277496
 30
0.0
 40
0.508
  1
2
  7
COURIER_NEW
 72
         1
 11
9.6
 21
26.5
 31
0.0
100
AcDbText
 73
         2
  0
TEXT
  5
1DC
100
AcDbEntity
  8
PIN_NUMBERS_TOP
100
AcDbText
 10
10.182068
 20
26.277496
 30
0.0
 40
0.508
  1
1
  7
COURIER_NEW
 72
         1
 11
10.4
 21
26.5
 31
0.0
100
AcDbText
 73
         2
  0
TEXT
  5
1DD
100
AcDbEntity
  8
PIN_NUMBERS_TOP
100
AcDbText
 10
9.382068
 20
27.277496
 30
0.0
 40
0.508
  1
2
  7
COURIER_NEW
 72
         1
 11
9.6
 21
27.5
 31
0.0
100
AcDbText
 73
         2
  0
TEXT
  5
1DE
100
AcDbEntity
  8
PIN_NUMBERS_TOP
100
AcDbText
 10
10.182068
 20
27.277496
 30
0.0
 40
0.508
  1
1
  7
COURIER_NEW
 72
         1
 11
10.4
 21
27.5
 31
0.0
100
AcDbText
 73
         2
  0
TEXT
  5
1DF
100
AcDbEntity
  8
PIN_NUMBERS_TOP
100
AcDbText
 10
10.060818
 20
11.692496
 30
0.0
 40
0.508
  1
8
  7
COURIER_NEW
 72
         1
 11
10.27875
 21
11.915
 31
0.0
100
AcDbText
 73
         2
  0
TEXT
  5
1E0
100
AcDbEntity
  8
PIN_NUMBERS_TOP
100
AcDbText
 10
9.410818
 20
11.692496
 30
0.0
 40
0.508
  1
7
  7
COURIER_NEW
 72
         1
 11
9.62875
 21
11.915
 31
0.0
100
AcDbText
 73
         2
  0
TEXT
  5
1E1
100
AcDbEntity
  8
PIN_NUMBERS_TOP
100
AcDbText
 10
8.760818
 20
11.692496
 30
0.0
 40
0.508
  1
6
  7
COURIER_NEW
 72
         1
 11
8.97875
 21
11.915
 31
0.0
100
AcDbText
 73
         2
  0
TEXT
  5
1E2
100
AcDbEntity
  8
PIN_NUMBERS_TOP
100
AcDbText
 10
8.110818
 20
11.692496
 30
0.0
 40
0.508
  1
5
  7
COURIER_NEW
 72
         1
 11
8.32875
 21
11.915
 31
0.0
100
AcDbText
 73
         2
  0
TEXT
  5
1E3
100
AcDbEntity
  8
PIN_NUMBERS_TOP
100
AcDbText
 10
10.060818
 20
15.892496
 30
0.0
 40
0.508
  1
1
  7
COURIER_NEW
 72
         1
 11
10.27875
 21
16.115
 31
0.0
100
AcDbText
 73
         2
  0
TEXT
  5
1E4
100
AcDbEntity
  8
PIN_NUMBERS_TOP
100
AcDbText
 10
9.410818
 20
15.892496
 30
0.0
 40
0.508
  1
2
  7
COURIER_NEW
 72
         1
 11
9.62875
 21
16.115
 31
0.0
100
AcDbText
 73
         2
  0
TEXT
  5
1E5
100
AcDbEntity
  8
PIN_NUMBERS_TOP
100
AcDbText
 10
8.760818
 20
15.892496
 30
0.0
 40
0.508
  1
3
  7
COURIER_NEW
 72
         1
 11
8.97875
 21
16.115
 31
0.0
100
AcDbText
 73
         2
  0
TEXT
  5
1E6
100
AcDbEntity
  8
PIN_NUMBERS_TOP
100
AcDbText
 10
8.110818
 20
15.892496
 30
0.0
 40
0.508
  1
4
  7
COURIER_NEW
 72
         1
 11
8.32875
 21
16.115
 31
0.0
100
AcDbText
 73
         2
  0
TEXT
  5
1E7
100
AcDbEntity
  8
PIN_NUMBERS_TOP
100
AcDbText
 10
9.382068
 20
37.777496
 30
0.0
 40
0.508
  1
2
  7
COURIER_NEW
 72
         1
 11
9.6
 21
38.0
 31
0.0
100
AcDbText
 73
         2
  0
TEXT
  5
1E8
100
AcDbEntity
  8
PIN_NUMBERS_TOP
100
AcDbText
 10
10.182068
 20
37.777496
 30
0.0
 40
0.508
  1
1
  7
COURIER_NEW
 72
         1
 11
10.4
 21
38.0
 31
0.0
100
AcDbText
 73
         2
  0
TEXT
  5
1E9
100
AcDbEntity
  8
PIN_NUMBERS_TOP
100
AcDbText
 10
9.382068
 20
38.777496
 30
0.0
 40
0.508
  1
2
  7
COURIER_NEW
 72
         1
 11
9.6
 21
39.0
 31
0.0
100
AcDbText
 73
         2
  0
TEXT
  5
1EA
100
AcDbEntity
  8
PIN_NUMBERS_TOP
100
AcDbText
 10
10.182068
 20
38.777496
 30
0.0
 40
0.508
  1
1
  7
COURIER_NEW
 72
         1
 11
10.4
 21
39.0
 31
0.0
100
AcDbText
 73
         2
  0
TEXT
  5
1EB
100
AcDbEntity
  8
PIN_NUMBERS_TOP
100
AcDbText
 10
7.782068
 20
35.177496
 30
0.0
 40
0.508
  1
2
  7
COURIER_NEW
 72
         1
 11
8.0
 21
35.4
 31
0.0
100
AcDbText
 73
         2
  0
TEXT
  5
1EC
100
AcDbEntity
  8
PIN_NUMBERS_TOP
100
AcDbText
 10
7.782068
 20
34.377496
 30
0.0
 40
0.508
  1
1
  7
COURIER_NEW
 72
         1
 11
8.0
 21
34.6
 31
0.0
100
AcDbText
 73
         2
  0
TEXT
  5
1ED
100
AcDbEntity
  8
PIN_NUMBERS_TOP
100
AcDbText
 10
12.782068
 20
19.277496
 30
0.0
 40
0.508
  1
1
  7
COURIER_NEW
 72
         1
 11
13.0
 21
19.5
 31
0.0
100
AcDbText
 73
         2
  0
TEXT
  5
1EE
100
AcDbEntity
  8
PIN_NUMBERS_TOP
100
AcDbText
 10
12.782068
 20
19.777496
 30
0.0
 40
0.508
  1
2
  7
COURIER_NEW
 72
         1
 11
13.0
 21
20.0
 31
0.0
100
AcDbText
 73
         2
  0
TEXT
  5
1EF
100
AcDbEntity
  8
PIN_NUMBERS_TOP
100
AcDbText
 10
12.782068
 20
20.277496
 30
0.0
 40
0.508
  1
3
  7
COURIER_NEW
 72
         1
 11
13.0
 21
20.5
 31
0.0
100
AcDbText
 73
         2
  0
TEXT
  5
1F0
100
AcDbEntity
  8
PIN_NUMBERS_TOP
100
AcDbText
 10
12.782068
 20
20.777496
 30
0.0
 40
0.508
  1
4
  7
COURIER_NEW
 72
         1
 11
13.0
 21
21.0
 31
0.0
100
AcDbText
 73
         2
  0
TEXT
  5
1F1
100
AcDbEntity
  8
PIN_NUMBERS_TOP
100
AcDbText
 10
12.782068
 20
21.277496
 30
0.0
 40
0.508
  1
5
  7
COURIER_NEW
 72
         1
 11
13.0
 21
21.5
 31
0.0
100
AcDbText
 73
         2
  0
TEXT
  5
1F2
100
AcDbEntity
  8
PIN_NUMBERS_TOP
100
AcDbText
 10
12.782068
 20
21.777496
 30
0.0
 40
0.508
  1
6
  7
COURIER_NEW
 72
         1
 11
13.0
 21
22.0
 31
0.0
100
AcDbText
 73
         2
  0
TEXT
  5
1F3
100
AcDbEntity
  8
PIN_NUMBERS_TOP
100
AcDbText
 10
12.782068
 20
22.277496
 30
0.0
 40
0.508
  1
7
  7
COURIER_NEW
 72
         1
 11
13.0
 21
22.5
 31
0.0
100
AcDbText
 73
         2
  0
TEXT
  5
1F4
100
AcDbEntity
  8
PIN_NUMBERS_TOP
100
AcDbText
 10
12.782068
 20
22.777496
 30
0.0
 40
0.508
  1
8
  7
COURIER_NEW
 72
         1
 11
13.0
 21
23.0
 31
0.0
100
AcDbText
 73
         2
  0
TEXT
  5
1F5
100
AcDbEntity
  8
PIN_NUMBERS_TOP
100
AcDbText
 10
12.782068
 20
23.277496
 30
0.0
 40
0.508
  1
9
  7
COURIER_NEW
 72
         1
 11
13.0
 21
23.5
 31
0.0
100
AcDbText
 73
         2
  0
TEXT
  5
1F6
100
AcDbEntity
  8
PIN_NUMBERS_TOP
100
AcDbText
 10
12.564136
 20
23.777496
 30
0.0
 40
0.508
  1
10
  7
COURIER_NEW
 72
         1
 11
13.0
 21
24.0
 31
0.0
100
AcDbText
 73
         2
  0
TEXT
  5
1F7
100
AcDbEntity
  8
PIN_NUMBERS_TOP
100
AcDbText
 10
12.564136
 20
24.277496
 30
0.0
 40
0.508
  1
11
  7
COURIER_NEW
 72
         1
 11
13.0
 21
24.5
 31
0.0
100
AcDbText
 73
         2
  0
TEXT
  5
1F8
100
AcDbEntity
  8
PIN_NUMBERS_TOP
100
AcDbText
 10
12.564136
 20
24.777496
 30
0.0
 40
0.508
  1
12
  7
COURIER_NEW
 72
         1
 11
13.0
 21
25.0
 31
0.0
100
AcDbText
 73
         2
  0
TEXT
  5
1F9
100
AcDbEntity
  8
PIN_NUMBERS_TOP
100
AcDbText
 10
12.564136
 20
25.277496
 30
0.0
 40
0.508
  1
13
  7
COURIER_NEW
 72
         1
 11
13.0
 21
25.5
 31
0.0
100
AcDbText
 73
         2
  0
TEXT
  5
1FA
100
AcDbEntity
  8
PIN_NUMBERS_TOP
100
AcDbText
 10
12.564136
 20
25.777496
 30
0.0
 40
0.508
  1
14
  7
COURIER_NEW
 72
         1
 11
13.0
 21
26.0
 31
0.0
100
AcDbText
 73
         2
  0
TEXT
  5
1FB
100
AcDbEntity
  8
PIN_NUMBERS_TOP
100
AcDbText
 10
12.564136
 20
26.277496
 30
0.0
 40
0.508
  1
15
  7
COURIER_NEW
 72
         1
 11
13.0
 21
26.5
 31
0.0
100
AcDbText
 73
         2
  0
TEXT
  5
1FC
100
AcDbEntity
  8
PIN_NUMBERS_TOP
100
AcDbText
 10
12.564136
 20
26.777496
 30
0.0
 40
0.508
  1
16
  7
COURIER_NEW
 72
         1
 11
13.0
 21
27.0
 31
0.0
100
AcDbText
 73
         2
  0
TEXT
  5
1FD
100
AcDbEntity
  8
PIN_NUMBERS_TOP
100
AcDbText
 10
12.564136
 20
27.277496
 30
0.0
 40
0.508
  1
17
  7
COURIER_NEW
 72
         1
 11
13.0
 21
27.5
 31
0.0
100
AcDbText
 73
         2
  0
TEXT
  5
1FE
100
AcDbEntity
  8
PIN_NUMBERS_TOP
100
AcDbText
 10
12.564136
 20
27.777496
 30
0.0
 40
0.508
  1
18
  7
COURIER_NEW
 72
         1
 11
13.0
 21
28.0
 31
0.0
100
AcDbText
 73
         2
  0
TEXT
  5
1FF
100
AcDbEntity
  8
PIN_NUMBERS_TOP
100
AcDbText
 10
12.564136
 20
28.277496
 30
0.0
 40
0.508
  1
19
  7
COURIER_NEW
 72
         1
 11
13.0
 21
28.5
 31
0.0
100
AcDbText
 73
         2
  0
TEXT
  5
200
100
AcDbEntity
  8
PIN_NUMBERS_TOP
100
AcDbText
 10
12.564136
 20
28.777496
 30
0.0
 40
0.508
  1
20
  7
COURIER_NEW
 72
         1
 11
13.0
 21
29.0
 31
0.0
100
AcDbText
 73
         2
  0
TEXT
  5
201
100
AcDbEntity
  8
PIN_NUMBERS_TOP
100
AcDbText
 10
12.564136
 20
29.277496
 30
0.0
 40
0.508
  1
21
  7
COURIER_NEW
 72
         1
 11
13.0
 21
29.5
 31
0.0
100
AcDbText
 73
         2
  0
TEXT
  5
202
100
AcDbEntity
  8
PIN_NUMBERS_TOP
100
AcDbText
 10
12.564136
 20
29.777496
 30
0.0
 40
0.508
  1
22
  7
COURIER_NEW
 72
         1
 11
13.0
 21
30.0
 31
0.0
100
AcDbText
 73
         2
  0
TEXT
  5
203
100
AcDbEntity
  8
PIN_NUMBERS_TOP
100
AcDbText
 10
12.564136
 20
30.277496
 30
0.0
 40
0.508
  1
23
  7
COURIER_NEW
 72
         1
 11
13.0
 21
30.5
 31
0.0
100
AcDbText
 73
         2
  0
TEXT
  5
204
100
AcDbEntity
  8
PIN_NUMBERS_TOP
100
AcDbText
 10
12.564136
 20
30.777496
 30
0.0
 40
0.508
  1
24
  7
COURIER_NEW
 72
         1
 11
13.0
 21
31.0
 31
0.0
100
AcDbText
 73
         2
  0
TEXT
  5
205
100
AcDbEntity
  8
PIN_NUMBERS_TOP
100
AcDbText
 10
12.564136
 20
31.277496
 30
0.0
 40
0.508
  1
25
  7
COURIER_NEW
 72
         1
 11
13.0
 21
31.5
 31
0.0
100
AcDbText
 73
         2
  0
TEXT
  5
206
100
AcDbEntity
  8
PIN_NUMBERS_TOP
100
AcDbText
 10
12.564136
 20
31.777496
 30
0.0
 40
0.508
  1
26
  7
COURIER_NEW
 72
         1
 11
13.0
 21
32.0
 31
0.0
100
AcDbText
 73
         2
  0
TEXT
  5
207
100
AcDbEntity
  8
PIN_NUMBERS_TOP
100
AcDbText
 10
12.564136
 20
32.277496
 30
0.0
 40
0.508
  1
27
  7
COURIER_NEW
 72
         1
 11
13.0
 21
32.5
 31
0.0
100
AcDbText
 73
         2
  0
TEXT
  5
208
100
AcDbEntity
  8
PIN_NUMBERS_TOP
100
AcDbText
 10
12.564136
 20
32.777496
 30
0.0
 40
0.508
  1
28
  7
COURIER_NEW
 72
         1
 11
13.0
 21
33.0
 31
0.0
100
AcDbText
 73
         2
  0
TEXT
  5
209
100
AcDbEntity
  8
PIN_NUMBERS_TOP
100
AcDbText
 10
12.564136
 20
33.277496
 30
0.0
 40
0.508
  1
29
  7
COURIER_NEW
 72
         1
 11
13.0
 21
33.5
 31
0.0
100
AcDbText
 73
         2
  0
TEXT
  5
20A
100
AcDbEntity
  8
PIN_NUMBERS_TOP
100
AcDbText
 10
12.564136
 20
33.777496
 30
0.0
 40
0.508
  1
30
  7
COURIER_NEW
 72
         1
 11
13.0
 21
34.0
 31
0.0
100
AcDbText
 73
         2
  0
TEXT
  5
20B
100
AcDbEntity
  8
PIN_NUMBERS_TOP
100
AcDbText
 10
12.564136
 20
34.277496
 30
0.0
 40
0.508
  1
31
  7
COURIER_NEW
 72
         1
 11
13.0
 21
34.5
 31
0.0
100
AcDbText
 73
         2
  0
TEXT
  5
20C
100
AcDbEntity
  8
PIN_NUMBERS_TOP
100
AcDbText
 10
12.564136
 20
34.777496
 30
0.0
 40
0.508
  1
32
  7
COURIER_NEW
 72
         1
 11
13.0
 21
35.0
 31
0.0
100
AcDbText
 73
         2
  0
TEXT
  5
20D
100
AcDbEntity
  8
PIN_NUMBERS_TOP
100
AcDbText
 10
12.564136
 20
35.277496
 30
0.0
 40
0.508
  1
33
  7
COURIER_NEW
 72
         1
 11
13.0
 21
35.5
 31
0.0
100
AcDbText
 73
         2
  0
TEXT
  5
20E
100
AcDbEntity
  8
PIN_NUMBERS_TOP
100
AcDbText
 10
12.564136
 20
35.777496
 30
0.0
 40
0.508
  1
34
  7
COURIER_NEW
 72
         1
 11
13.0
 21
36.0
 31
0.0
100
AcDbText
 73
         2
  0
TEXT
  5
20F
100
AcDbEntity
  8
PIN_NUMBERS_TOP
100
AcDbText
 10
12.564136
 20
36.277496
 30
0.0
 40
0.508
  1
35
  7
COURIER_NEW
 72
         1
 11
13.0
 21
36.5
 31
0.0
100
AcDbText
 73
         2
  0
TEXT
  5
210
100
AcDbEntity
  8
PIN_NUMBERS_TOP
100
AcDbText
 10
12.564136
 20
36.777496
 30
0.0
 40
0.508
  1
36
  7
COURIER_NEW
 72
         1
 11
13.0
 21
37.0
 31
0.0
100
AcDbText
 73
         2
  0
TEXT
  5
211
100
AcDbEntity
  8
PIN_NUMBERS_TOP
100
AcDbText
 10
12.564136
 20
37.277496
 30
0.0
 40
0.508
  1
37
  7
COURIER_NEW
 72
         1
 11
13.0
 21
37.5
 31
0.0
100
AcDbText
 73
         2
  0
TEXT
  5
212
100
AcDbEntity
  8
PIN_NUMBERS_TOP
100
AcDbText
 10
12.564136
 20
37.777496
 30
0.0
 40
0.508
  1
38
  7
COURIER_NEW
 72
         1
 11
13.0
 21
38.0
 31
0.0
100
AcDbText
 73
         2
  0
TEXT
  5
213
100
AcDbEntity
  8
PIN_NUMBERS_TOP
100
AcDbText
 10
12.564136
 20
38.277496
 30
0.0
 40
0.508
  1
39
  7
COURIER_NEW
 72
         1
 11
13.0
 21
38.5
 31
0.0
100
AcDbText
 73
         2
  0
TEXT
  5
214
100
AcDbEntity
  8
PIN_NUMBERS_TOP
100
AcDbText
 10
12.564136
 20
38.777496
 30
0.0
 40
0.508
  1
40
  7
COURIER_NEW
 72
         1
 11
13.0
 21
39.0
 31
0.0
100
AcDbText
 73
         2
  0
TEXT
  5
215
100
AcDbEntity
  8
PIN_NUMBERS_TOP
100
AcDbText
 10
15.864136
 20
17.177496
 30
0.0
 40
0.508
  1
41
  7
COURIER_NEW
 72
         1
 11
16.3
 21
17.4
 31
0.0
100
AcDbText
 73
         2
  0
TEXT
  5
216
100
AcDbEntity
  8
PIN_NUMBERS_TOP
100
AcDbText
 10
15.864136
 20
40.877496
 30
0.0
 40
0.508
  1
42
  7
COURIER_NEW
 72
         1
 11
16.3
 21
41.1
 31
0.0
100
AcDbText
 73
         2
  0
TEXT
  5
217
100
AcDbEntity
  8
PIN_NUMBERS_TOP
100
AcDbText
 10
12.382068
 20
15.777496
 30
0.0
 40
0.508
  1
2
  7
COURIER_NEW
 72
         1
 11
12.6
 21
16.0
 31
0.0
100
AcDbText
 73
         2
  0
TEXT
  5
218
100
AcDbEntity
  8
PIN_NUMBERS_TOP
100
AcDbText
 10
13.182068
 20
15.777496
 30
0.0
 40
0.508
  1
1
  7
COURIER_NEW
 72
         1
 11
13.4
 21
16.0
 31
0.0
100
AcDbText
 73
         2
  0
TEXT
  5
219
100
AcDbEntity
  8
PIN_NUMBERS_TOP
100
AcDbText
 10
12.382068
 20
59.277496
 30
0.0
 40
0.508
  1
2
  7
COURIER_NEW
 72
         1
 11
12.6
 21
59.5
 31
0.0
100
AcDbText
 73
         2
  0
TEXT
  5
21A
100
AcDbEntity
  8
PIN_NUMBERS_TOP
100
AcDbText
 10
13.182068
 20
59.277496
 30
0.0
 40
0.508
  1
1
  7
COURIER_NEW
 72
         1
 11
13.4
 21
59.5
 31
0.0
100
AcDbText
 73
         2
  0
TEXT
  5
21B
100
AcDbEntity
  8
PIN_NUMBERS_TOP
100
AcDbText
 10
8.382068
 20
52.777496
 30
0.0
 40
0.508
  1
2
  7
COURIER_NEW
 72
         1
 11
8.6
 21
53.0
 31
0.0
100
AcDbText
 73
         2
  0
TEXT
  5
21C
100
AcDbEntity
  8
PIN_NUMBERS_TOP
100
AcDbText
 10
9.182068
 20
52.777496
 30
0.0
 40
0.508
  1
1
  7
COURIER_NEW
 72
         1
 11
9.4
 21
53.0
 31
0.0
100
AcDbText
 73
         2
  0
TEXT
  5
21D
100
AcDbEntity
  8
PIN_NUMBERS_TOP
100
AcDbText
 10
20.466568
 20
8.372496
 30
0.0
 40
0.508
  1
1
  7
COURIER_NEW
 72
         1
 11
20.6845
 21
8.595
 31
0.0
100
AcDbText
 73
         2
  0
TEXT
  5
21E
100
AcDbEntity
  8
PIN_NUMBERS_TOP
100
AcDbText
 10
20.466568
 20
9.642496
 30
0.0
 40
0.508
  1
2
  7
COURIER_NEW
 72
         1
 11
20.6845
 21
9.865
 31
0.0
100
AcDbText
 73
         2
  0
TEXT
  5
21F
100
AcDbEntity
  8
PIN_NUMBERS_TOP
100
AcDbText
 10
20.466568
 20
10.912496
 30
0.0
 40
0.508
  1
3
  7
COURIER_NEW
 72
         1
 11
20.6845
 21
11.135
 31
0.0
100
AcDbText
 73
         2
  0
TEXT
  5
220
100
AcDbEntity
  8
PIN_NUMBERS_TOP
100
AcDbText
 10
20.466568
 20
12.182496
 30
0.0
 40
0.508
  1
4
  7
COURIER_NEW
 72
         1
 11
20.6845
 21
12.405
 31
0.0
100
AcDbText
 73
         2
  0
TEXT
  5
221
100
AcDbEntity
  8
PIN_NUMBERS_TOP
100
AcDbText
 10
15.066568
 20
12.182496
 30
0.0
 40
0.508
  1
5
  7
COURIER_NEW
 72
         1
 11
15.2845
 21
12.405
 31
0.0
100
AcDbText
 73
         2
  0
TEXT
  5
222
100
AcDbEntity
  8
PIN_NUMBERS_TOP
100
AcDbText
 10
15.066568
 20
10.912496
 30
0.0
 40
0.508
  1
6
  7
COURIER_NEW
 72
         1
 11
15.2845
 21
11.135
 31
0.0
100
AcDbText
 73
         2
  0
TEXT
  5
223
100
AcDbEntity
  8
PIN_NUMBERS_TOP
100
AcDbText
 10
15.066568
 20
9.642496
 30
0.0
 40
0.508
  1
7
  7
COURIER_NEW
 72
         1
 11
15.2845
 21
9.865
 31
0.0
100
AcDbText
 73
         2
  0
TEXT
  5
224
100
AcDbEntity
  8
PIN_NUMBERS_TOP
100
AcDbText
 10
15.066568
 20
8.372496
 30
0.0
 40
0.508
  1
8
  7
COURIER_NEW
 72
         1
 11
15.2845
 21
8.595
 31
0.0
100
AcDbText
 73
         2
  0
TEXT
  5
225
100
AcDbEntity
  8
PIN_NUMBERS_TOP
100
AcDbText
 10
18.182068
 20
13.777496
 30
0.0
 40
0.508
  1
2
  7
COURIER_NEW
 72
         1
 11
18.4
 21
14.0
 31
0.0
100
AcDbText
 73
         2
  0
TEXT
  5
226
100
AcDbEntity
  8
PIN_NUMBERS_TOP
100
AcDbText
 10
17.382068
 20
13.777496
 30
0.0
 40
0.508
  1
1
  7
COURIER_NEW
 72
         1
 11
17.6
 21
14.0
 31
0.0
100
AcDbText
 73
         2
  0
TEXT
  5
227
100
AcDbEntity
  8
PIN_NUMBERS_TOP
100
AcDbText
 10
18.182068
 20
14.777496
 30
0.0
 40
0.508
  1
2
  7
COURIER_NEW
 72
         1
 11
18.4
 21
15.0
 31
0.0
100
AcDbText
 73
         2
  0
TEXT
  5
228
100
AcDbEntity
  8
PIN_NUMBERS_TOP
100
AcDbText
 10
17.382068
 20
14.777496
 30
0.0
 40
0.508
  1
1
  7
COURIER_NEW
 72
         1
 11
17.6
 21
15.0
 31
0.0
100
AcDbText
 73
         2
  0
TEXT
  5
229
100
AcDbEntity
  8
PIN_NUMBERS_TOP
100
AcDbText
 10
10.782068
 20
7.877496
 30
0.0
 40
0.508
  1
2
  7
COURIER_NEW
 72
         1
 11
11.0
 21
8.1
 31
0.0
100
AcDbText
 73
         2
  0
TEXT
  5
22A
100
AcDbEntity
  8
PIN_NUMBERS_TOP
100
AcDbText
 10
10.782068
 20
8.677496
 30
0.0
 40
0.508
  1
1
  7
COURIER_NEW
 72
         1
 11
11.0
 21
8.9
 31
0.0
100
AcDbText
 73
         2
  0
TEXT
  5
22B
100
AcDbEntity
  8
PIN_NUMBERS_TOP
100
AcDbText
 10
12.282068
 20
13.677496
 30
0.0
 40
0.508
  1
2
  7
COURIER_NEW
 72
         1
 11
12.5
 21
13.9
 31
0.0
100
AcDbText
 73
         2
  0
TEXT
  5
22C
100
AcDbEntity
  8
PIN_NUMBERS_TOP
100
AcDbText
 10
12.282068
 20
12.877496
 30
0.0
 40
0.508
  1
1
  7
COURIER_NEW
 72
         1
 11
12.5
 21
13.1
 31
0.0
100
AcDbText
 73
         2
  0
TEXT
  5
22D
100
AcDbEntity
  8
PIN_NUMBERS_TOP
100
AcDbText
 10
15.182068
 20
56.777496
 30
0.0
 40
0.508
  1
2
  7
COURIER_NEW
 72
         1
 11
15.4
 21
57.0
 31
0.0
100
AcDbText
 73
         2
  0
TEXT
  5
22E
100
AcDbEntity
  8
PIN_NUMBERS_TOP
100
AcDbText
 10
14.382068
 20
56.777496
 30
0.0
 40
0.508
  1
1
  7
COURIER_NEW
 72
         1
 11
14.6
 21
57.0
 31
0.0
100
AcDbText
 73
         2
  0
TEXT
  5
22F
100
AcDbEntity
  8
PIN_NUMBERS_TOP
100
AcDbText
 10
14.382068
 20
55.777496
 30
0.0
 40
0.508
  1
2
  7
COURIER_NEW
 72
         1
 11
14.6
 21
56.0
 31
0.0
100
AcDbText
 73
         2
  0
TEXT
  5
230
100
AcDbEntity
  8
PIN_NUMBERS_TOP
100
AcDbText
 10
15.182068
 20
55.777496
 30
0.0
 40
0.508
  1
1
  7
COURIER_NEW
 72
         1
 11
15.4
 21
56.0
 31
0.0
100
AcDbText
 73
         2
  0
TEXT
  5
231
100
AcDbEntity
  8
PIN_NUMBERS_TOP
100
AcDbText
 10
11.282068
 20
56.177496
 30
0.0
 40
0.508
  1
2
  7
COURIER_NEW
 72
         1
 11
11.5
 21
56.4
 31
0.0
100
AcDbText
 73
         2
  0
TEXT
  5
232
100
AcDbEntity
  8
PIN_NUMBERS_TOP
100
AcDbText
 10
11.282068
 20
55.377496
 30
0.0
 40
0.508
  1
1
  7
COURIER_NEW
 72
         1
 11
11.5
 21
55.6
 31
0.0
100
AcDbText
 73
         2
  0
TEXT
  5
233
100
AcDbEntity
  8
PIN_NUMBERS_TOP
100
AcDbText
 10
15.282068
 20
45.377496
 30
0.0
 40
0.508
  1
2
  7
COURIER_NEW
 72
         1
 11
15.5
 21
45.6
 31
0.0
100
AcDbText
 73
         2
  0
TEXT
  5
234
100
AcDbEntity
  8
PIN_NUMBERS_TOP
100
AcDbText
 10
15.282068
 20
46.177496
 30
0.0
 40
0.508
  1
1
  7
COURIER_NEW
 72
         1
 11
15.5
 21
46.4
 31
0.0
100
AcDbText
 73
         2
  0
TEXT
  5
235
100
AcDbEntity
  8
PIN_NUMBERS_TOP
100
AcDbText
 10
14.282068
 20
46.177496
 30
0.0
 40
0.508
  1
2
  7
COURIER_NEW
 72
         1
 11
14.5
 21
46.4
 31
0.0
100
AcDbText
 73
         2
  0
TEXT
  5
236
100
AcDbEntity
  8
PIN_NUMBERS_TOP
100
AcDbText
 10
14.282068
 20
45.377496
 30
0.0
 40
0.508
  1
1
  7
COURIER_NEW
 72
         1
 11
14.5
 21
45.6
 31
0.0
100
AcDbText
 73
         2
  0
TEXT
  5
237
100
AcDbEntity
  8
PIN_NUMBERS_TOP
100
AcDbText
 10
11.282068
 20
45.377496
 30
0.0
 40
0.508
  1
2
  7
COURIER_NEW
 72
         1
 11
11.5
 21
45.6
 31
0.0
100
AcDbText
 73
         2
  0
TEXT
  5
238
100
AcDbEntity
  8
PIN_NUMBERS_TOP
100
AcDbText
 10
11.282068
 20
46.177496
 30
0.0
 40
0.508
  1
1
  7
COURIER_NEW
 72
         1
 11
11.5
 21
46.4
 31
0.0
100
AcDbText
 73
         2
  0
TEXT
  5
239
100
AcDbEntity
  8
PIN_NUMBERS_TOP
100
AcDbText
 10
13.282068
 20
45.377496
 30
0.0
 40
0.508
  1
2
  7
COURIER_NEW
 72
         1
 11
13.5
 21
45.6
 31
0.0
100
AcDbText
 73
         2
  0
TEXT
  5
23A
100
AcDbEntity
  8
PIN_NUMBERS_TOP
100
AcDbText
 10
13.282068
 20
46.177496
 30
0.0
 40
0.508
  1
1
  7
COURIER_NEW
 72
         1
 11
13.5
 21
46.4
 31
0.0
100
AcDbText
 73
         2
  0
TEXT
  5
23B
100
AcDbEntity
  8
PIN_NUMBERS_TOP
100
AcDbText
 10
12.282068
 20
45.377496
 30
0.0
 40
0.508
  1
2
  7
COURIER_NEW
 72
         1
 11
12.5
 21
45.6
 31
0.0
100
AcDbText
 73
         2
  0
TEXT
  5
23C
100
AcDbEntity
  8
PIN_NUMBERS_TOP
100
AcDbText
 10
12.282068
 20
46.177496
 30
0.0
 40
0.508
  1
1
  7
COURIER_NEW
 72
         1
 11
12.5
 21
46.4
 31
0.0
100
AcDbText
 73
         2
  0
TEXT
  5
23D
100
AcDbEntity
  8
PIN_NUMBERS_TOP
100
AcDbText
 10
11.377068
 20
48.592996
 30
0.0
 40
0.508
  1
1
  7
COURIER_NEW
 72
         1
 11
11.595
 21
48.8155
 31
0.0
100
AcDbText
 73
         2
  0
TEXT
  5
23E
100
AcDbEntity
  8
PIN_NUMBERS_TOP
100
AcDbText
 10
12.647068
 20
48.592996
 30
0.0
 40
0.508
  1
2
  7
COURIER_NEW
 72
         1
 11
12.865
 21
48.8155
 31
0.0
100
AcDbText
 73
         2
  0
TEXT
  5
23F
100
AcDbEntity
  8
PIN_NUMBERS_TOP
100
AcDbText
 10
13.917068
 20
48.592996
 30
0.0
 40
0.508
  1
3
  7
COURIER_NEW
 72
         1
 11
14.135
 21
48.8155
 31
0.0
100
AcDbText
 73
         2
  0
TEXT
  5
240
100
AcDbEntity
  8
PIN_NUMBERS_TOP
100
AcDbText
 10
15.187068
 20
48.592996
 30
0.0
 40
0.508
  1
4
  7
COURIER_NEW
 72
         1
 11
15.405
 21
48.8155
 31
0.0
100
AcDbText
 73
         2
  0
TEXT
  5
241
100
AcDbEntity
  8
PIN_NUMBERS_TOP
100
AcDbText
 10
15.187068
 20
53.992996
 30
0.0
 40
0.508
  1
5
  7
COURIER_NEW
 72
         1
 11
15.405
 21
54.2155
 31
0.0
100
AcDbText
 73
         2
  0
TEXT
  5
242
100
AcDbEntity
  8
PIN_NUMBERS_TOP
100
AcDbText
 10
13.917068
 20
53.992996
 30
0.0
 40
0.508
  1
6
  7
COURIER_NEW
 72
         1
 11
14.135
 21
54.2155
 31
0.0
100
AcDbText
 73
         2
  0
TEXT
  5
243
100
AcDbEntity
  8
PIN_NUMBERS_TOP
100
AcDbText
 10
12.647068
 20
53.992996
 30
0.0
 40
0.508
  1
7
  7
COURIER_NEW
 72
         1
 11
12.865
 21
54.2155
 31
0.0
100
AcDbText
 73
         2
  0
TEXT
  5
244
100
AcDbEntity
  8
PIN_NUMBERS_TOP
100
AcDbText
 10
11.377068
 20
53.992996
 30
0.0
 40
0.508
  1
8
  7
COURIER_NEW
 72
         1
 11
11.595
 21
54.2155
 31
0.0
100
AcDbText
 73
         2
  0
TEXT
  5
245
100
AcDbEntity
  8
PIN_NUMBERS_TOP
100
AcDbText
 10
12.382068
 20
10.277496
 30
0.0
 40
0.508
  1
2
  7
COURIER_NEW
 72
         1
 11
12.6
 21
10.5
 31
0.0
100
AcDbText
 73
         2
  0
TEXT
  5
246
100
AcDbEntity
  8
PIN_NUMBERS_TOP
100
AcDbText
 10
13.182068
 20
10.277496
 30
0.0
 40
0.508
  1
1
  7
COURIER_NEW
 72
         1
 11
13.4
 21
10.5
 31
0.0
100
AcDbText
 73
         2
  0
TEXT
  5
247
100
AcDbEntity
  8
PIN_NUMBERS_TOP
100
AcDbText
 10
12.382068
 20
8.777496
 30
0.0
 40
0.508
  1
2
  7
COURIER_NEW
 72
         1
 11
12.6
 21
9.0
 31
0.0
100
AcDbText
 73
         2
  0
TEXT
  5
248
100
AcDbEntity
  8
PIN_NUMBERS_TOP
100
AcDbText
 10
13.182068
 20
8.777496
 30
0.0
 40
0.508
  1
1
  7
COURIER_NEW
 72
         1
 11
13.4
 21
9.0
 31
0.0
100
AcDbText
 73
         2
  0
TEXT
  5
249
100
AcDbEntity
  8
PIN_NUMBERS_TOP
100
AcDbText
 10
12.382068
 20
7.777496
 30
0.0
 40
0.508
  1
2
  7
COURIER_NEW
 72
         1
 11
12.6
 21
8.0
 31
0.0
100
AcDbText
 73
         2
  0
TEXT
  5
24A
100
AcDbEntity
  8
PIN_NUMBERS_TOP
100
AcDbText
 10
13.182068
 20
7.777496
 30
0.0
 40
0.508
  1
1
  7
COURIER_NEW
 72
         1
 11
13.4
 21
8.0
 31
0.0
100
AcDbText
 73
         2
  0
TEXT
  5
24B
100
AcDbEntity
  8
PIN_NUMBERS_TOP
100
AcDbText
 10
6.482068
 20
3.177496
 30
0.0
 40
0.508
  1
1
  7
COURIER_NEW
 72
         1
 11
6.7
 21
3.4
 31
0.0
100
AcDbText
 73
         2
  0
TEXT
  5
24C
100
AcDbEntity
  8
PIN_NUMBERS_TOP
100
AcDbText
 10
6.482068
 20
5.177496
 30
0.0
 40
0.508
  1
2
  7
COURIER_NEW
 72
         1
 11
6.7
 21
5.4
 31
0.0
100
AcDbText
 73
         2
  0
TEXT
  5
24D
100
AcDbEntity
  8
PIN_NUMBERS_TOP
100
AcDbText
 10
8.482068
 20
3.177496
 30
0.0
 40
0.508
  1
3
  7
COURIER_NEW
 72
         1
 11
8.7
 21
3.4
 31
0.0
100
AcDbText
 73
         2
  0
TEXT
  5
24E
100
AcDbEntity
  8
PIN_NUMBERS_TOP
100
AcDbText
 10
8.482068
 20
5.177496
 30
0.0
 40
0.508
  1
4
  7
COURIER_NEW
 72
         1
 11
8.7
 21
5.4
 31
0.0
100
AcDbText
 73
         2
  0
TEXT
  5
24F
100
AcDbEntity
  8
PIN_NUMBERS_TOP
100
AcDbText
 10
10.482068
 20
3.177496
 30
0.0
 40
0.508
  1
5
  7
COURIER_NEW
 72
         1
 11
10.7
 21
3.4
 31
0.0
100
AcDbText
 73
         2
  0
TEXT
  5
250
100
AcDbEntity
  8
PIN_NUMBERS_TOP
100
AcDbText
 10
10.482068
 20
5.177496
 30
0.0
 40
0.508
  1
6
  7
COURIER_NEW
 72
         1
 11
10.7
 21
5.4
 31
0.0
100
AcDbText
 73
         2
  0
TEXT
  5
251
100
AcDbEntity
  8
PIN_NUMBERS_TOP
100
AcDbText
 10
12.482068
 20
3.177496
 30
0.0
 40
0.508
  1
7
  7
COURIER_NEW
 72
         1
 11
12.7
 21
3.4
 31
0.0
100
AcDbText
 73
         2
  0
TEXT
  5
252
100
AcDbEntity
  8
PIN_NUMBERS_TOP
100
AcDbText
 10
12.482068
 20
5.177496
 30
0.0
 40
0.508
  1
8
  7
COURIER_NEW
 72
         1
 11
12.7
 21
5.4
 31
0.0
100
AcDbText
 73
         2
  0
TEXT
  5
253
100
AcDbEntity
  8
PIN_NUMBERS_TOP
100
AcDbText
 10
14.482068
 20
3.177496
 30
0.0
 40
0.508
  1
9
  7
COURIER_NEW
 72
         1
 11
14.7
 21
3.4
 31
0.0
100
AcDbText
 73
         2
  0
TEXT
  5
254
100
AcDbEntity
  8
PIN_NUMBERS_TOP
100
AcDbText
 10
14.264136
 20
5.177496
 30
0.0
 40
0.508
  1
10
  7
COURIER_NEW
 72
         1
 11
14.7
 21
5.4
 31
0.0
100
AcDbText
 73
         2
  0
TEXT
  5
255
100
AcDbEntity
  8
PIN_NUMBERS_TOP
100
AcDbText
 10
16.264136
 20
3.177496
 30
0.0
 40
0.508
  1
11
  7
COURIER_NEW
 72
         1
 11
16.7
 21
3.4
 31
0.0
100
AcDbText
 73
         2
  0
TEXT
  5
256
100
AcDbEntity
  8
PIN_NUMBERS_TOP
100
AcDbText
 10
16.264136
 20
5.177496
 30
0.0
 40
0.508
  1
12
  7
COURIER_NEW
 72
         1
 11
16.7
 21
5.4
 31
0.0
100
AcDbText
 73
         2
  0
TEXT
  5
257
100
AcDbEntity
  8
PIN_NUMBERS_TOP
100
AcDbText
 10
18.264136
 20
3.177496
 30
0.0
 40
0.508
  1
13
  7
COURIER_NEW
 72
         1
 11
18.7
 21
3.4
 31
0.0
100
AcDbText
 73
         2
  0
TEXT
  5
258
100
AcDbEntity
  8
PIN_NUMBERS_TOP
100
AcDbText
 10
18.264136
 20
5.177496
 30
0.0
 40
0.508
  1
14
  7
COURIER_NEW
 72
         1
 11
18.7
 21
5.4
 31
0.0
100
AcDbText
 73
         2
  0
TEXT
  5
259
100
AcDbEntity
  8
PIN_NUMBERS_TOP
100
AcDbText
 10
20.264136
 20
3.177496
 30
0.0
 40
0.508
  1
15
  7
COURIER_NEW
 72
         1
 11
20.7
 21
3.4
 31
0.0
100
AcDbText
 73
         2
  0
TEXT
  5
25A
100
AcDbEntity
  8
PIN_NUMBERS_TOP
100
AcDbText
 10
20.264136
 20
5.177496
 30
0.0
 40
0.508
  1
16
  7
COURIER_NEW
 72
         1
 11
20.7
 21
5.4
 31
0.0
100
AcDbText
 73
         2
  0
TEXT
  5
25B
100
AcDbEntity
  8
PIN_NUMBERS_TOP
100
AcDbText
 10
2.782068
 20
68.777496
 30
0.0
 40
0.508
  1
1
  7
COURIER_NEW
 72
         1
 11
3.0
 21
69.0
 31
0.0
100
AcDbText
 73
         2
  0
TEXT
  5
25C
100
AcDbEntity
  8
PIN_NUMBERS_TOP
100
AcDbText
 10
23.782068
 20
44.777496
 30
0.0
 40
0.508
  1
1
  7
COURIER_NEW
 72
         1
 11
24.0
 21
45.0
 31
0.0
100
AcDbText
 73
         2
  0
TEXT
  5
25D
100
AcDbEntity
  8
PIN_NUMBERS_TOP
100
AcDbText
 10
23.782068
 20
2.777496
 30
0.0
 40
0.508
  1
1
  7
COURIER_NEW
 72
         1
 11
24.0
 21
3.0
 31
0.0
100
AcDbText
 73
         2
  0
TEXT
  5
25E
100
AcDbEntity
  8
PIN_NUMBERS_TOP
100
AcDbText
 10
2.582068
 20
2.777496
 30
0.0
 40
0.508
  1
1
  7
COURIER_NEW
 72
         1
 11
2.8
 21
3.0
 31
0.0
100
AcDbText
 73
         2
  0
TEXT
  5
25F
100
AcDbEntity
  8
PIN_NUMBERS_TOP
100
AcDbText
 10
5.282068
 20
11.707496
 30
0.0
 40
0.508
  1
1
  7
COURIER_NEW
 72
         1
 11
5.5
 21
11.93
 31
0.0
100
AcDbText
 73
         2
  0
TEXT
  5
260
100
AcDbEntity
  8
PIN_NUMBERS_TOP
100
AcDbText
 10
3.282068
 20
11.707496
 30
0.0
 40
0.508
  1
2
  7
COURIER_NEW
 72
         1
 11
3.5
 21
11.93
 31
0.0
100
AcDbText
 73
         2
  0
TEXT
  5
261
100
AcDbEntity
  8
PIN_NUMBERS_TOP
100
AcDbText
 10
5.282068
 20
13.707496
 30
0.0
 40
0.508
  1
3
  7
COURIER_NEW
 72
         1
 11
5.5
 21
13.93
 31
0.0
100
AcDbText
 73
         2
  0
TEXT
  5
262
100
AcDbEntity
  8
PIN_NUMBERS_TOP
100
AcDbText
 10
3.282068
 20
13.707496
 30
0.0
 40
0.508
  1
4
  7
COURIER_NEW
 72
         1
 11
3.5
 21
13.93
 31
0.0
100
AcDbText
 73
         2
  0
TEXT
  5
263
100
AcDbEntity
  8
PIN_NUMBERS_TOP
100
AcDbText
 10
5.282068
 20
15.707496
 30
0.0
 40
0.508
  1
5
  7
COURIER_NEW
 72
         1
 11
5.5
 21
15.93
 31
0.0
100
AcDbText
 73
         2
  0
TEXT
  5
264
100
AcDbEntity
  8
PIN_NUMBERS_TOP
100
AcDbText
 10
3.282068
 20
15.707496
 30
0.0
 40
0.508
  1
6
  7
COURIER_NEW
 72
         1
 11
3.5
 21
15.93
 31
0.0
100
AcDbText
 73
         2
  0
TEXT
  5
265
100
AcDbEntity
  8
PIN_NUMBERS_TOP
100
AcDbText
 10
5.282068
 20
17.707496
 30
0.0
 40
0.508
  1
7
  7
COURIER_NEW
 72
         1
 11
5.5
 21
17.93
 31
0.0
100
AcDbText
 73
         2
  0
TEXT
  5
266
100
AcDbEntity
  8
PIN_NUMBERS_TOP
100
AcDbText
 10
3.282068
 20
17.707496
 30
0.0
 40
0.508
  1
8
  7
COURIER_NEW
 72
         1
 11
3.5
 21
17.93
 31
0.0
100
AcDbText
 73
         2
  0
TEXT
  5
267
100
AcDbEntity
  8
PIN_NUMBERS_TOP
100
AcDbText
 10
5.282068
 20
19.707496
 30
0.0
 40
0.508
  1
9
  7
COURIER_NEW
 72
         1
 11
5.5
 21
19.93
 31
0.0
100
AcDbText
 73
         2
  0
TEXT
  5
268
100
AcDbEntity
  8
PIN_NUMBERS_TOP
100
AcDbText
 10
3.064136
 20
19.707496
 30
0.0
 40
0.508
  1
10
  7
COURIER_NEW
 72
         1
 11
3.5
 21
19.93
 31
0.0
100
AcDbText
 73
         2
  0
TEXT
  5
269
100
AcDbEntity
  8
PIN_NUMBERS_TOP
100
AcDbText
 10
5.064136
 20
21.707496
 30
0.0
 40
0.508
  1
11
  7
COURIER_NEW
 72
         1
 11
5.5
 21
21.93
 31
0.0
100
AcDbText
 73
         2
  0
TEXT
  5
26A
100
AcDbEntity
  8
PIN_NUMBERS_TOP
100
AcDbText
 10
3.064136
 20
21.707496
 30
0.0
 40
0.508
  1
12
  7
COURIER_NEW
 72
         1
 11
3.5
 21
21.93
 31
0.0
100
AcDbText
 73
         2
  0
TEXT
  5
26B
100
AcDbEntity
  8
PIN_NUMBERS_TOP
100
AcDbText
 10
5.064136
 20
23.707496
 30
0.0
 40
0.508
  1
13
  7
COURIER_NEW
 72
         1
 11
5.5
 21
23.93
 31
0.0
100
AcDbText
 73
         2
  0
TEXT
  5
26C
100
AcDbEntity
  8
PIN_NUMBERS_TOP
100
AcDbText
 10
3.064136
 20
23.707496
 30
0.0
 40
0.508
  1
14
  7
COURIER_NEW
 72
         1
 11
3.5
 21
23.93
 31
0.0
100
AcDbText
 73
         2
  0
TEXT
  5
26D
100
AcDbEntity
  8
PIN_NUMBERS_TOP
100
AcDbText
 10
5.064136
 20
25.707496
 30
0.0
 40
0.508
  1
15
  7
COURIER_NEW
 72
         1
 11
5.5
 21
25.93
 31
0.0
100
AcDbText
 73
         2
  0
TEXT
  5
26E
100
AcDbEntity
  8
PIN_NUMBERS_TOP
100
AcDbText
 10
3.064136
 20
25.707496
 30
0.0
 40
0.508
  1
16
  7
COURIER_NEW
 72
         1
 11
3.5
 21
25.93
 31
0.0
100
AcDbText
 73
         2
  0
TEXT
  5
26F
100
AcDbEntity
  8
PIN_NUMBERS_TOP
100
AcDbText
 10
5.064136
 20
27.707496
 30
0.0
 40
0.508
  1
17
  7
COURIER_NEW
 72
         1
 11
5.5
 21
27.93
 31
0.0
100
AcDbText
 73
         2
  0
TEXT
  5
270
100
AcDbEntity
  8
PIN_NUMBERS_TOP
100
AcDbText
 10
3.064136
 20
27.707496
 30
0.0
 40
0.508
  1
18
  7
COURIER_NEW
 72
         1
 11
3.5
 21
27.93
 31
0.0
100
AcDbText
 73
         2
  0
TEXT
  5
271
100
AcDbEntity
  8
PIN_NUMBERS_TOP
100
AcDbText
 10
5.064136
 20
29.707496
 30
0.0
 40
0.508
  1
19
  7
COURIER_NEW
 72
         1
 11
5.5
 21
29.93
 31
0.0
100
AcDbText
 73
         2
  0
TEXT
  5
272
100
AcDbEntity
  8
PIN_NUMBERS_TOP
100
AcDbText
 10
3.064136
 20
29.707496
 30
0.0
 40
0.508
  1
20
  7
COURIER_NEW
 72
         1
 11
3.5
 21
29.93
 31
0.0
100
AcDbText
 73
         2
  0
TEXT
  5
273
100
AcDbEntity
  8
PIN_NUMBERS_TOP
100
AcDbText
 10
5.064136
 20
31.707496
 30
0.0
 40
0.508
  1
21
  7
COURIER_NEW
 72
         1
 11
5.5
 21
31.93
 31
0.0
100
AcDbText
 73
         2
  0
TEXT
  5
274
100
AcDbEntity
  8
PIN_NUMBERS_TOP
100
AcDbText
 10
3.064136
 20
31.707496
 30
0.0
 40
0.508
  1
22
  7
COURIER_NEW
 72
         1
 11
3.5
 21
31.93
 31
0.0
100
AcDbText
 73
         2
  0
TEXT
  5
275
100
AcDbEntity
  8
PIN_NUMBERS_TOP
100
AcDbText
 10
5.064136
 20
33.707496
 30
0.0
 40
0.508
  1
23
  7
COURIER_NEW
 72
         1
 11
5.5
 21
33.93
 31
0.0
100
AcDbText
 73
         2
  0
TEXT
  5
276
100
AcDbEntity
  8
PIN_NUMBERS_TOP
100
AcDbText
 10
3.064136
 20
33.707496
 30
0.0
 40
0.508
  1
24
  7
COURIER_NEW
 72
         1
 11
3.5
 21
33.93
 31
0.0
100
AcDbText
 73
         2
  0
TEXT
  5
277
100
AcDbEntity
  8
PIN_NUMBERS_TOP
100
AcDbText
 10
5.064136
 20
35.707496
 30
0.0
 40
0.508
  1
25
  7
COURIER_NEW
 72
         1
 11
5.5
 21
35.93
 31
0.0
100
AcDbText
 73
         2
  0
TEXT
  5
278
100
AcDbEntity
  8
PIN_NUMBERS_TOP
100
AcDbText
 10
3.064136
 20
35.707496
 30
0.0
 40
0.508
  1
26
  7
COURIER_NEW
 72
         1
 11
3.5
 21
35.93
 31
0.0
100
AcDbText
 73
         2
  0
TEXT
  5
279
100
AcDbEntity
  8
PIN_NUMBERS_TOP
100
AcDbText
 10
5.064136
 20
37.707496
 30
0.0
 40
0.508
  1
27
  7
COURIER_NEW
 72
         1
 11
5.5
 21
37.93
 31
0.0
100
AcDbText
 73
         2
  0
TEXT
  5
27A
100
AcDbEntity
  8
PIN_NUMBERS_TOP
100
AcDbText
 10
3.064136
 20
37.707496
 30
0.0
 40
0.508
  1
28
  7
COURIER_NEW
 72
         1
 11
3.5
 21
37.93
 31
0.0
100
AcDbText
 73
         2
  0
TEXT
  5
27B
100
AcDbEntity
  8
PIN_NUMBERS_TOP
100
AcDbText
 10
5.064136
 20
39.707496
 30
0.0
 40
0.508
  1
29
  7
COURIER_NEW
 72
         1
 11
5.5
 21
39.93
 31
0.0
100
AcDbText
 73
         2
  0
TEXT
  5
27C
100
AcDbEntity
  8
PIN_NUMBERS_TOP
100
AcDbText
 10
3.064136
 20
39.707496
 30
0.0
 40
0.508
  1
30
  7
COURIER_NEW
 72
         1
 11
3.5
 21
39.93
 31
0.0
100
AcDbText
 73
         2
  0
TEXT
  5
27D
100
AcDbEntity
  8
PIN_NUMBERS_TOP
100
AcDbText
 10
5.064136
 20
41.707496
 30
0.0
 40
0.508
  1
31
  7
COURIER_NEW
 72
         1
 11
5.5
 21
41.93
 31
0.0
100
AcDbText
 73
         2
  0
TEXT
  5
27E
100
AcDbEntity
  8
PIN_NUMBERS_TOP
100
AcDbText
 10
3.064136
 20
41.707496
 30
0.0
 40
0.508
  1
32
  7
COURIER_NEW
 72
         1
 11
3.5
 21
41.93
 31
0.0
100
AcDbText
 73
         2
  0
TEXT
  5
27F
100
AcDbEntity
  8
PIN_NUMBERS_TOP
100
AcDbText
 10
5.064136
 20
43.707496
 30
0.0
 40
0.508
  1
33
  7
COURIER_NEW
 72
         1
 11
5.5
 21
43.93
 31
0.0
100
AcDbText
 73
         2
  0
TEXT
  5
280
100
AcDbEntity
  8
PIN_NUMBERS_TOP
100
AcDbText
 10
3.064136
 20
43.707496
 30
0.0
 40
0.508
  1
34
  7
COURIER_NEW
 72
         1
 11
3.5
 21
43.93
 31
0.0
100
AcDbText
 73
         2
  0
TEXT
  5
281
100
AcDbEntity
  8
PIN_NUMBERS_TOP
100
AcDbText
 10
5.064136
 20
45.707496
 30
0.0
 40
0.508
  1
35
  7
COURIER_NEW
 72
         1
 11
5.5
 21
45.93
 31
0.0
100
AcDbText
 73
         2
  0
TEXT
  5
282
100
AcDbEntity
  8
PIN_NUMBERS_TOP
100
AcDbText
 10
3.064136
 20
45.707496
 30
0.0
 40
0.508
  1
36
  7
COURIER_NEW
 72
         1
 11
3.5
 21
45.93
 31
0.0
100
AcDbText
 73
         2
  0
TEXT
  5
283
100
AcDbEntity
  8
PIN_NUMBERS_TOP
100
AcDbText
 10
5.064136
 20
47.707496
 30
0.0
 40
0.508
  1
37
  7
COURIER_NEW
 72
         1
 11
5.5
 21
47.93
 31
0.0
100
AcDbText
 73
         2
  0
TEXT
  5
284
100
AcDbEntity
  8
PIN_NUMBERS_TOP
100
AcDbText
 10
3.064136
 20
47.707496
 30
0.0
 40
0.508
  1
38
  7
COURIER_NEW
 72
         1
 11
3.5
 21
47.93
 31
0.0
100
AcDbText
 73
         2
  0
TEXT
  5
285
100
AcDbEntity
  8
PIN_NUMBERS_TOP
100
AcDbText
 10
5.064136
 20
49.707496
 30
0.0
 40
0.508
  1
39
  7
COURIER_NEW
 72
         1
 11
5.5
 21
49.93
 31
0.0
100
AcDbText
 73
         2
  0
TEXT
  5
286
100
AcDbEntity
  8
PIN_NUMBERS_TOP
100
AcDbText
 10
3.064136
 20
49.707496
 30
0.0
 40
0.508
  1
40
  7
COURIER_NEW
 72
         1
 11
3.5
 21
49.93
 31
0.0
100
AcDbText
 73
         2
  0
ENDSEC
  0
SECTION
  2
OBJECTS
  0
DICTIONARY
  5
19
100
AcDbDictionary
  3
ACAD_GROUP
350
1A
  3
ACAD_MLINESTYLE
350
1B
  0
DICTIONARY
  5
1A
102
{ACAD_REACTORS
330
19
102
}
100
AcDbDictionary
  0
DICTIONARY
  5
1B
102
{ACAD_REACTORS
330
19
102
}
100
AcDbDictionary
  3
STANDARD
350
1C
  0
MLINESTYLE
  5
1C
102
{ACAD_REACTORS
330
1B
102
}
100
AcDbMlineStyle
  2
STANDARD
 70
         0
  3

 62
         0
 51
90.0
 52
90.0
 71
         2
 49
0.5
 62
       256
  6
BYLAYER
 49
-0.5
 62
       256
  6
BYLAYER
  0
DICTIONARY
  5
22
102
{ACAD_REACTORS
330
19
102
}
100
AcDbDictionary
  0
ENDSEC
  0
EOF
