  0
SECTION
  2
HEADER
  9
$ACADVER
  1
AC1014
  9
$ACADMAINTVER
 70
         0
  9
$DWGCODEPAGE
  3
ANSI_1252
  9
$INSBASE
 10
0.0
 20
0.0
 30
0.0
  9
$EXTMIN
 10
0.0
 20
0.0
 30
0.0
  9
$EXTMAX
 10
26900.0
 20
52000.0
 30
0.0
  9
$LIMMIN
 10
0.0
 20
0.0
  9
$LIMMAX
 10
0.0
 20
0.0
  9
$ORTHOMODE
 70
         0
  9
$REGENMODE
 70
         1
  9
$FILLMODE
 70
         1
  9
$QTEXTMODE
 70
         0
  9
$MIRRTEXT
 70
         1
  9
$DRAGMODE
 70
         2
  9
$LTSCALE
 40
1.0
  9
$OSMODE
 70
         0
  9
$ATTMODE
 70
         1
  9
$TEXTSIZE
 40
0.2
  9
$TRACEWID
 40
0.05
  9
$TEXTSTYLE
  7
STANDARD
  9
$CLAYER
  8
0
  9
$CELTYPE
  6
CONTINUOUS
  9
$CECOLOR
 62
       256
  9
$CELTSCALE
 40
1.0
  9
$DELOBJ
 70
         1
  9
$DISPSILH
 70
         0
  9
$DIMSCALE
 40
1.0
  9
$DIMASZ
 40
0.18
  9
$DIMEXO
 40
0.0625
  9
$DIMDLI
 40
0.38
  9
$DIMRND
 40
0.0
  9
$DIMDLE
 40
0.0
  9
$DIMEXE
 40
0.18
  9
$DIMTP
 40
0.0
  9
$DIMTM
 40
0.0
  9
$DIMTXT
 40
0.18
  9
$DIMCEN
 40
0.09
  9
$DIMTSZ
 40
0.0
  9
$DIMTOL
 70
         0
  9
$DIMLIM
 70
         0
  9
$DIMTIH
 70
         1
  9
$DIMTOH
 70
         1
  9
$DIMSE1
 70
         0
  9
$DIMSE2
 70
         0
  9
$DIMTAD
 70
         0
  9
$DIMZIN
 70
         0
  9
$DIMBLK
  1

  9
$DIMASO
 70
         1
  9
$DIMSHO
 70
         1
  9
$DIMPOST
  1

  9
$DIMAPOST
  1

  9
$DIMALT
 70
         0
  9
$DIMALTD
 70
         2
  9
$DIMALTF
 40
25.4
  9
$DIMLFAC
 40
1.0
  9
$DIMTOFL
 70
         0
  9
$DIMTVP
 40
0.0
  9
$DIMTIX
 70
         0
  9
$DIMSOXD
 70
         0
  9
$DIMSAH
 70
         0
  9
$DIMBLK1
  1

  9
$DIMBLK2
  1

  9
$DIMSTYLE
  2
STANDARD
  9
$DIMCLRD
 70
         0
  9
$DIMCLRE
 70
         0
  9
$DIMCLRT
 70
         0
  9
$DIMTFAC
 40
1.0
  9
$DIMGAP
 40
0.09
  9
$DIMJUST
 70
         0
  9
$DIMSD1
 70
         0
  9
$DIMSD2
 70
         0
  9
$DIMTOLJ
 70
         1
  9
$DIMTZIN
 70
         0
  9
$DIMALTZ
 70
         0
  9
$DIMALTTZ
 70
         0
  9
$DIMFIT
 70
         3
  9
$DIMUPT
 70
         0
  9
$DIMUNIT
 70
         2
  9
$DIMDEC
 70
         4
  9
$DIMTDEC
 70
         4
  9
$DIMALTU
 70
         2
  9
$DIMALTTD
 70
         2
  9
$DIMTXSTY
  7
STANDARD
  9
$DIMAUNIT
 70
         0
  9
$LUNITS
 70
         2
  9
$LUPREC
 70
         4
  9
$SKETCHINC
 40
0.1
  9
$FILLETRAD
 40
0.0
  9
$AUNITS
 70
         0
  9
$AUPREC
 70
         0
  9
$MENU
  1
acad
  9
$ELEVATION
 40
0.0
  9
$PELEVATION
 40
0.0
  9
$THICKNESS
 40
0.0
  9
$LIMCHECK
 70
         0
  9
$BLIPMODE
 70
         1
  9
$CHAMFERA
 40
0.0
  9
$CHAMFERB
 40
0.0
  9
$CHAMFERC
 40
0.0
  9
$CHAMFERD
 40
0.0
  9
$SKPOLY
 70
         0
  9
$TDCREATE
 40
2456665.430543982
  9
$TDUPDATE
 40
0.000000000
  9
$TDINDWG
 40
0.0000000000
  9
$TDUSRTIMER
 40
0.0000000000
  9
$USRTIMER
 70
         1
  9
$ANGBASE
 50
0.0
  9
$ANGDIR
 70
         0
  9
$PDMODE
 70
         0
  9
$PDSIZE
 40
0.0
  9
$PLINEWID
 40
0.0
  9
$COORDS
 70
         0
  9
$SPLFRAME
 70
         0
  9
$SPLINETYPE
 70
         6
  9
$SPLINESEGS
 70
         8
  9
$ATTDIA
 70
         0
  9
$ATTREQ
 70
         1
  9
$HANDLING
 70
         1
  9
$HANDSEED
  5
371
  9
$SURFTAB1
 70
         6
  9
$SURFTAB2
 70
         6
  9
$SURFTYPE
 70
         6
  9
$SURFU
 70
         6
  9
$SURFV
 70
         6
  9
$UCSNAME
  2

  9
$UCSORG
 10
0.0
 20
0.0
 30
0.0
  9
$UCSXDIR
 10
1.0
 20
0.0
 30
0.0
  9
$UCSYDIR
 10
0.0
 20
1.0
 30
0.0
  9
$PUCSNAME
  2

  9
$PUCSORG
 10
0.0
 20
0.0
 30
0.0
  9
$PUCSXDIR
 10
1.0
 20
0.0
 30
0.0
  9
$PUCSYDIR
 10
0.0
 20
1.0
 30
0.0
  9
$USERI1
 70
        -4
  9
$USERI2
 70
         0
  9
$USERI3
 70
         0
  9
$USERI4
 70
         0
  9
$USERI5
 70
         0
  9
$USERR1
 40
0.0
  9
$USERR2
 40
0.0
  9
$USERR3
 40
0.0
  9
$USERR4
 40
0.0
  9
$USERR5
 40
0.0
  9
$WORLDVIEW
 70
         1
  9
$SHADEDGE
 70
         3
  9
$SHADEDIF
 70
        70
  9
$TILEMODE
 70
         1
  9
$MAXACTVP
 70
        16
  9
$PINSBASE
 10
0.0
 20
0.0
 30
0.0
  9
$PLIMCHECK
 70
         0
  9
$PEXTMIN
 10
1.0000000000E+20
 20
1.0000000000E+20
 30
1.0000000000E+20
  9
$PEXTMAX
 10
-1.0000000000E+20
 20
-1.0000000000E+20
 30
-1.0000000000E+20
  9
$PLIMMIN
 10
0.0
 20
0.0
  9
$PLIMMAX
 10
12.0
 20
9.0
  9
$UNITMODE
 70
         0
  9
$VISRETAIN
 70
         0
  9
$PLINEGEN
 70
         1
  9
$PSLTSCALE
 70
         0
  9
$TREEDEPTH
 70
      3020
  9
$PICKSTYLE
 70
         1
  9
$CMLSTYLE
  2
STANDARD
  9
$CMLJUST
 70
         0
  9
$CMLSCALE
 40
1.0
  9
$PROXYGRAPHICS
 70
         0
  9
$MEASUREMENT
 70
         0
  0
ENDSEC
  0
SECTION
  2
CLASSES
  0
CLASS
  1
LWPOLYLINE
  2
AcDbPolyline
  3
"AutoCAD"
 90
        0
280
         0
281
         1
  0
CLASS
  1
IMAGE
  2
AcDbRasterImage
  3
ISM
 90
      127
280
         0
281
         1
  0
CLASS
  1
OLE2FRAME
  2
AcDbOle2Frame
  3
""
 90
        0
280
         0
281
         1
  0
CLASS
  1
HATCH
  2
AcDbHatch
  3
"ACAD_SEDONA"
 90
        0
280
         0
281
         1
  0
CLASS
  1
DICTIONARYVAR
  2
AcDbDictionaryVar
  3
"AutoCAD"
 90
        0
280
         0
281
         0
  0
CLASS
  1
RASTERVARIABLES
  2
AcDbRasterVariables
  3
ISM
 90
        0
280
         0
281
         0
  0
CLASS
  1
IMAGEDEF
  2
AcDbRasterImageDef
  3
ISM
 90
        0
280
         0
281
         0
  0
CLASS
  1
IMAGEDEF_REACTOR
  2
AcDbRasterImageDefReactor
  3
ISM
 90
        1
280
         0
281
         0
  0
CLASS
  1
IDBUFFER
  2
AcDbIdBuffer
  3
"Acad"
 90
        0
280
         0
281
         0
  0
CLASS
  1
SPATIAL_FILTER
  2
AcDbSpatialFilter
  3
"Acad"
 90
        0
280
         0
281
         0
  0
CLASS
  1
XRECORD
  2
AcDbXrecord
  3
"<Built In>"
 90
        0
280
         0
281
         0
  0
CLASS
  1
SORTENTSTABLE
  2
AcDbSortentsTable
  3
"AutoCAD"
 90
        0
280
         0
281
         0
  0
CLASS
  1
LAYER_INDEX
  2
AcDbLayerIndex
  3
"Acad"
 90
        0
280
         0
281
         0
  0
CLASS
  1
SPATIAL_INDEX
  2
AcDbSpatialIndex
  3
"Acad"
 90
        0
280
         0
281
         0
  0
CLASS
  1
OBJECT_PTR
  2
CAseDLPNTableRecord
  3
"ASE-LPNTableRecord"
 90
        1
280
         0
281
         0
  0
CLASS
  1
LAYOUT
  2
AcDbLayout
  3
"AutoCAD 2000"
 90
        0
280
         0
281
         0
  0
CLASS
  1
PLOTSETTINGS
  2
AcDbPlotSettings
  3
"AutoCAD 2000"
 90
        0
280
         0
281
         0
  0
CLASS
  1
ACDBDICTIONARYWDFLT
  2
AcDbDictionaryWithDefault
  3
"AutoCAD 2000"
 90
        0
280
         0
281
         0
  0
CLASS
  1
ACDBPLACEHOLDER
  2
AcDbPlaceHolder
  3
"AutoCAD 2000"
 90
        0
280
         0
281
         0
  0
CLASS
  1
VBA_PROJECT
  2
AcDbVbaProject
  3
"acadvba"
 90
        0
280
         0
281
         0
  0
CLASS
  1
WIPEOUT
  2
AcDbWipeout
  3
WipeOut|AutoCAD Express Tool|expresstools@autodesk.com
 90
      127
280
         0
281
         1
  0
CLASS
  1
WIPEOUTVARIABLES
  2
AcDbWipeoutVariables
  3
WipeOut|AutoCAD Express Tool|expresstools@autodesk.com
 90
        0
280
         0
281
         0
  0
CLASS
  1
RTEXT
  2
RText
  3
RText|AutoCAD Express Tool|expresstools@autodesk.com
 90
        0
280
         0
281
         1
  0
CLASS
  1
ARCALIGNEDTEXT
  2
AcDbArcAlignedText
  3
ATEXT|AutoCAD Express Tool|expresstools@autodesk.com
 90
        0
280
         0
281
         1
  0
ENDSEC
  0
SECTION
  2
TABLES
  0
TABLE
  2
VPORT
  5
7
100
AcDbSymbolTable
 70
         1
  0
VPORT
  5
15
100
AcDbSymbolTableRecord
100
AcDbViewportTableRecord
  2
*ACTIVE
 70
         0
 10
0.0
 20
0.0
 11
1.0
 21
1.0
 12
6.591288
 22
4.579184
 13
0.0
 23
0.0
 14
1.0
 24
1.0
 15
0.0
 25
0.0
 16
0.0
 26
0.0
 36
1.0
 17
0.0
 27
0.0
 37
0.0
 40
9.158369
 41
0.688564
 42
50.0
 43
0.0
 44
0.0
 50
0.0
 51
0.0
 71
         0
 72
       100
 73
         1
 74
         1
 75
         0
 76
         0
 77
         0
 78
         0
  0
ENDTAB
  0
TABLE
  2
LTYPE
  5
4
100
AcDbSymbolTable
 70
         3
  0
LTYPE
  5
11
100
AcDbSymbolTableRecord
100
AcDbLinetypeTableRecord
  2
BYBLOCK
 70
        64
  3

 72
        65
 73
         0
 40
0.0
  0
LTYPE
  5
12
100
AcDbSymbolTableRecord
100
AcDbLinetypeTableRecord
  2
BYLAYER
 70
        64
  3

 72
        65
 73
         0
 40
0.0
  0
LTYPE
  5
13
100
AcDbSymbolTableRecord
100
AcDbLinetypeTableRecord
  2
CONTINUOUS
 70
        64
  3
Solid line
 72
        65
 73
         0
 40
0.0
  0
ENDTAB
  0
TABLE
  2
LAYER
  5
2
100
AcDbSymbolTable
 70
         8
  0
LAYER
  5
14
100
AcDbSymbolTableRecord
100
AcDbLayerTableRecord
  2
0
 70
         0
 62
         7
  6
CONTINUOUS
  0
LAYER
  5
24
100
AcDbSymbolTableRecord
100
AcDbLayerTableRecord
  2
ASSEMBLY_OUTLINES_BTM
 70
         0
 62
       170
  6
CONTINUOUS
  0
LAYER
  5
25
100
AcDbSymbolTableRecord
100
AcDbLayerTableRecord
  2
ASSEMBLY_OUTLINES_TOP
 70
         0
 62
       104
  6
CONTINUOUS
  0
LAYER
  5
26
100
AcDbSymbolTableRecord
100
AcDbLayerTableRecord
  2
ASSEMBLY_REF_DES_BTM
 70
         0
 62
        10
  6
CONTINUOUS
  0
LAYER
  5
27
100
AcDbSymbolTableRecord
100
AcDbLayerTableRecord
  2
ASSEMBLY_REF_DES_TOP
 70
         0
 62
        30
  6
CONTINUOUS
  0
LAYER
  5
28
100
AcDbSymbolTableRecord
100
AcDbLayerTableRecord
  2
BOARD_OUTLINE
 70
         0
 62
        10
  6
CONTINUOUS
  0
LAYER
  5
29
100
AcDbSymbolTableRecord
100
AcDbLayerTableRecord
  2
SOLDERMASK_PADS_BTM
 70
         0
 62
       151
  6
CONTINUOUS
  0
LAYER
  5
2A
100
AcDbSymbolTableRecord
100
AcDbLayerTableRecord
  2
SOLDERMASK_PADS_TOP
 70
         0
 62
        81
  6
CONTINUOUS
  0
ENDTAB
  0
TABLE
  2
STYLE
  5
3
100
AcDbSymbolTable
 70
         2
  0
STYLE
  5
17
100
AcDbSymbolTableRecord
100
AcDbTextStyleTableRecord
  2
STANDARD
 70
         0
 40
0.0
 41
1.0
 50
0.0
 71
         0
 42
0.0
  3
txt
  4

  0
STYLE
  5
9C
100
AcDbSymbolTableRecord
100
AcDbTextStyleTableRecord
  2
ARIAL
 70
         0
 40
0.0
 41
1.0
 50
0.0
 71
         0
 42
0.0
  3
ARIAL.TTF
  4

  0
ENDTAB
  0
TABLE
  2
VIEW
  5
5
100
AcDbSymbolTable
 70
         0
  0
ENDTAB
  0
TABLE
  2
UCS
  5
6
100
AcDbSymbolTable
 70
         0
  0
ENDTAB
  0
TABLE
  2
APPID
  5
8
100
AcDbSymbolTable
 70
         1
  0
APPID
  5
16
100
AcDbSymbolTableRecord
100
AcDbRegAppTableRecord
  2
ACAD
 70
         0
  0
ENDTAB
  0
TABLE
  2
DIMSTYLE
  5
9
100
AcDbSymbolTable
 70
         1
  0
DIMSTYLE
105
18
100
AcDbSymbolTableRecord
100
AcDbDimStyleTableRecord
  2
STANDARD
 70
         0
  3

  4

  5

  6

  7

 40
1.0
 41
0.18
 42
0.0625
 43
0.38
 44
0.18
 45
0.0
 46
0.0
 47
0.0
 48
0.0
 71
         0
 72
         0
 73
         1
 74
         1
 75
         0
 76
         0
 77
         0
 78
         0
140
0.18
141
0.09
142
0.0
143
25.4
144
1.0
145
0.0
146
1.0
147
0.09
170
         0
171
         2
172
         0
173
         0
174
         0
175
         0
176
         0
177
         0
178
         0
270
         2
271
         4
272
         4
273
         2
274
         2
275
         0
280
         0
281
         0
282
         0
283
         1
284
         0
285
         0
286
         0
287
         3
288
         0
340
17
  0
ENDTAB
  0
TABLE
  2
BLOCK_RECORD
  5
1
100
AcDbSymbolTable
 70
         0
  0
BLOCK_RECORD
  5
A
100
AcDbSymbolTableRecord
100
AcDbBlockTableRecord
  2
*MODEL_SPACE
  0
BLOCK_RECORD
  5
B
100
AcDbSymbolTableRecord
100
AcDbBlockTableRecord
  2
*PAPER_SPACE
  0
ENDTAB
  0
ENDSEC
  0
SECTION
  2
BLOCKS
  0
BLOCK
  5
D
100
AcDbEntity
  8
0
100
AcDbBlockBegin
  2
*MODEL_SPACE
 70
         0
 10
0.0
 20
0.0
 30
0.0
  3
*MODEL_SPACE
  1

  0
ENDBLK
  5
E
100
AcDbEntity
  8
0
100
AcDbBlockEnd
  0
BLOCK
  5
F
100
AcDbEntity
 67
         1
  8
0
100
AcDbBlockBegin
  2
*PAPER_SPACE
 70
         0
 10
0.0
 20
0.0
 30
0.0
  3
*PAPER_SPACE
  1

  0
ENDBLK
  5
10
100
AcDbEntity
 67
         1
  8
0
100
AcDbBlockEnd
  0
ENDSEC
  0
SECTION
  2
ENTITIES
  0
LWPOLYLINE
  5
2B
100
AcDbEntity
  8
ASSEMBLY_OUTLINES_BTM
100
AcDbPolyline
 90
        5
 70
         1
 43
200.0
 10
21900.0
 20
2400.0
 10
21900.0
 20
6400.0
 10
5700.0
 20
6400.0
 10
5700.0
 20
3400.0
 10
6700.0
 20
2400.0
  0
LWPOLYLINE
  5
2C
100
AcDbEntity
  8
ASSEMBLY_OUTLINES_BTM
100
AcDbPolyline
 90
        5
 70
         1
 43
200.0
 10
6500.0
 20
50930.0
 10
2500.0
 20
50930.0
 10
2500.0
 20
10930.0
 10
5500.0
 20
10930.0
 10
6500.0
 20
11930.0
  0
LWPOLYLINE
  5
2D
100
AcDbEntity
  8
ASSEMBLY_OUTLINES_BTM
100
AcDbPolyline
 90
        3
 70
         0
 43
200.0
 10
9980.0
 20
11920.0
 10
10615.0
 20
11920.0
 10
10615.0
 20
13190.0
  0
LWPOLYLINE
  5
2E
100
AcDbEntity
  8
ASSEMBLY_OUTLINES_BTM
100
AcDbPolyline
 90
        2
 70
         0
 43
200.0
 10
9662.5
 20
13825.0
 10
9027.5
 20
13825.0
  0
LWPOLYLINE
  5
2F
100
AcDbEntity
  8
ASSEMBLY_OUTLINES_BTM
100
AcDbPolyline
 90
        3
 70
         0
 43
200.0
 10
8075.0
 20
13190.0
 10
8075.0
 20
11920.0
 10
8710.0
 20
11920.0
  0
LWPOLYLINE
  5
30
100
AcDbEntity
  8
ASSEMBLY_OUTLINES_BTM
100
AcDbPolyline
 90
        3
 70
         0
 43
200.0
 10
9802.072
 20
15466.751
 10
9802.072
 20
14831.751
 10
11072.072
 20
14831.751
  0
LWPOLYLINE
  5
31
100
AcDbEntity
  8
ASSEMBLY_OUTLINES_BTM
100
AcDbPolyline
 90
        2
 70
         0
 43
200.0
 10
11707.072
 20
15784.251
 10
11707.072
 20
16419.251
  0
LWPOLYLINE
  5
32
100
AcDbEntity
  8
ASSEMBLY_OUTLINES_BTM
100
AcDbPolyline
 90
        3
 70
         0
 43
200.0
 10
11072.072
 20
17371.751
 10
9802.072
 20
17371.751
 10
9802.072
 20
16736.751
  0
LWPOLYLINE
  5
33
100
AcDbEntity
  8
ASSEMBLY_OUTLINES_BTM
100
AcDbPolyline
 90
        4
 70
         0
 43
250.0
 10
9900.0
 20
31000.0
 10
10100.0
 20
31000.0
 10
10100.0
 20
30600.0
 10
9900.0
 20
30600.0
  0
LWPOLYLINE
  5
34
100
AcDbEntity
  8
ASSEMBLY_OUTLINES_BTM
100
AcDbPolyline
 90
        4
 70
         0
 43
250.0
 10
8270.0
 20
15140.0
 10
8470.0
 20
15140.0
 10
8470.0
 20
14740.0
 10
8270.0
 20
14740.0
  0
LWPOLYLINE
  5
35
100
AcDbEntity
  8
ASSEMBLY_OUTLINES_BTM
100
AcDbPolyline
 90
        4
 70
         0
 43
250.0
 10
9180.0
 20
10910.0
 10
9380.0
 20
10910.0
 10
9380.0
 20
10510.0
 10
9180.0
 20
10510.0
  0
LWPOLYLINE
  5
36
100
AcDbEntity
  8
ASSEMBLY_OUTLINES_BTM
100
AcDbPolyline
 90
        4
 70
         0
 43
250.0
 10
9800.0
 20
35900.0
 10
10000.0
 20
35900.0
 10
10000.0
 20
35500.0
 10
9800.0
 20
35500.0
  0
LWPOLYLINE
  5
37
100
AcDbEntity
  8
ASSEMBLY_OUTLINES_BTM
100
AcDbPolyline
 90
        4
 70
         0
 43
250.0
 10
9800.0
 20
34900.0
 10
10000.0
 20
34900.0
 10
10000.0
 20
34500.0
 10
9800.0
 20
34500.0
  0
LWPOLYLINE
  5
38
100
AcDbEntity
  8
ASSEMBLY_OUTLINES_BTM
100
AcDbPolyline
 90
        4
 70
         0
 43
250.0
 10
9800.0
 20
33900.0
 10
10000.0
 20
33900.0
 10
10000.0
 20
33500.0
 10
9800.0
 20
33500.0
  0
LWPOLYLINE
  5
39
100
AcDbEntity
  8
ASSEMBLY_OUTLINES_BTM
100
AcDbPolyline
 90
        4
 70
         0
 43
250.0
 10
9800.0
 20
32900.0
 10
10000.0
 20
32900.0
 10
10000.0
 20
32500.0
 10
9800.0
 20
32500.0
  0
LWPOLYLINE
  5
3A
100
AcDbEntity
  8
ASSEMBLY_OUTLINES_BTM
100
AcDbPolyline
 90
        4
 70
         0
 43
250.0
 10
9800.0
 20
36900.0
 10
10000.0
 20
36900.0
 10
10000.0
 20
36500.0
 10
9800.0
 20
36500.0
  0
LWPOLYLINE
  5
3B
100
AcDbEntity
  8
ASSEMBLY_OUTLINES_BTM
100
AcDbPolyline
 90
        4
 70
         0
 43
250.0
 10
9800.0
 20
37900.0
 10
10000.0
 20
37900.0
 10
10000.0
 20
37500.0
 10
9800.0
 20
37500.0
  0
LWPOLYLINE
  5
3C
100
AcDbEntity
  8
ASSEMBLY_OUTLINES_BTM
100
AcDbPolyline
 90
        2
 70
         0
 43
150.0
 10
12900.0
 20
39200.0
 10
12900.0
 20
40900.0
  0
LWPOLYLINE
  5
3D
100
AcDbEntity
  8
ASSEMBLY_OUTLINES_BTM
100
AcDbPolyline
 90
        2
 70
         0
 43
150.0
 10
12900.0
 20
40900.0
 10
18600.0
 20
40900.0
  0
LWPOLYLINE
  5
3E
100
AcDbEntity
  8
ASSEMBLY_OUTLINES_BTM
100
AcDbPolyline
 90
        2
 70
         0
 43
150.0
 10
18600.0
 20
40900.0
 10
18600.0
 20
17600.0
  0
LWPOLYLINE
  5
3F
100
AcDbEntity
  8
ASSEMBLY_OUTLINES_BTM
100
AcDbPolyline
 90
        2
 70
         0
 43
150.0
 10
18600.0
 20
17600.0
 10
12900.0
 20
17600.0
  0
LWPOLYLINE
  5
40
100
AcDbEntity
  8
ASSEMBLY_OUTLINES_BTM
100
AcDbPolyline
 90
        2
 70
         0
 43
150.0
 10
12900.0
 20
17600.0
 10
12900.0
 20
19200.0
  0
LWPOLYLINE
  5
41
100
AcDbEntity
  8
ASSEMBLY_OUTLINES_BTM
100
AcDbPolyline
 90
        2
 70
         0
 43
150.0
 10
22000.0
 20
36100.0
 10
18700.0
 20
36100.0
  0
LWPOLYLINE
  5
42
100
AcDbEntity
  8
ASSEMBLY_OUTLINES_BTM
100
AcDbPolyline
 90
        2
 70
         0
 43
150.0
 10
21900.0
 20
22800.0
 10
18600.0
 20
22800.0
  0
LWPOLYLINE
  5
43
100
AcDbEntity
  8
ASSEMBLY_OUTLINES_BTM
100
AcDbPolyline
 90
        2
 70
         0
 43
150.0
 10
18700.0
 20
36100.0
 10
19500.0
 20
36900.0
  0
LWPOLYLINE
  5
44
100
AcDbEntity
  8
ASSEMBLY_OUTLINES_BTM
100
AcDbPolyline
 90
        2
 70
         0
 43
150.0
 10
18700.0
 20
36100.0
 10
19500.0
 20
35300.0
  0
LWPOLYLINE
  5
45
100
AcDbEntity
  8
ASSEMBLY_OUTLINES_BTM
100
AcDbPolyline
 90
        2
 70
         0
 43
150.0
 10
18600.0
 20
22800.0
 10
19400.0
 20
23600.0
  0
LWPOLYLINE
  5
46
100
AcDbEntity
  8
ASSEMBLY_OUTLINES_BTM
100
AcDbPolyline
 90
        2
 70
         0
 43
150.0
 10
18600.0
 20
22800.0
 10
19400.0
 20
22000.0
  0
LWPOLYLINE
  5
47
100
AcDbEntity
  8
ASSEMBLY_OUTLINES_BTM
100
AcDbPolyline
 90
        2
 70
         1
 43
150.0
 10
13239.44
 20
40500.0
 42
-1.0
 10
13960.56
 20
40500.0
 42
-1.0
  0
LWPOLYLINE
  5
48
100
AcDbEntity
  8
ASSEMBLY_OUTLINES_BTM
100
AcDbPolyline
 90
        2
 70
         0
 43
150.0
 10
14800.0
 20
39500.0
 10
14300.0
 20
39000.0
  0
LWPOLYLINE
  5
49
100
AcDbEntity
  8
ASSEMBLY_OUTLINES_BTM
100
AcDbPolyline
 90
        2
 70
         0
 43
150.0
 10
14300.0
 20
39000.0
 10
15700.0
 20
39000.0
  0
LWPOLYLINE
  5
4A
100
AcDbEntity
  8
ASSEMBLY_OUTLINES_TOP
100
AcDbPolyline
 90
        4
 70
         0
 43
250.0
 10
5300.0
 20
9700.0
 10
5300.0
 20
9500.0
 10
5700.0
 20
9500.0
 10
5700.0
 20
9700.0
  0
LWPOLYLINE
  5
4B
100
AcDbEntity
  8
ASSEMBLY_OUTLINES_TOP
100
AcDbPolyline
 90
        4
 70
         0
 43
250.0
 10
23100.0
 20
7200.0
 10
22900.0
 20
7200.0
 10
22900.0
 20
6800.0
 10
23100.0
 20
6800.0
  0
LWPOLYLINE
  5
4C
100
AcDbEntity
  8
ASSEMBLY_OUTLINES_TOP
100
AcDbPolyline
 90
        4
 70
         0
 43
250.0
 10
10000.0
 20
18100.0
 10
10200.0
 20
18100.0
 10
10200.0
 20
18500.0
 10
10000.0
 20
18500.0
  0
LWPOLYLINE
  5
4D
100
AcDbEntity
  8
ASSEMBLY_OUTLINES_TOP
100
AcDbPolyline
 90
        4
 70
         0
 43
250.0
 10
10000.0
 20
17300.0
 10
10200.0
 20
17300.0
 10
10200.0
 20
17700.0
 10
10000.0
 20
17700.0
  0
LWPOLYLINE
  5
4E
100
AcDbEntity
  8
ASSEMBLY_OUTLINES_TOP
100
AcDbPolyline
 90
        4
 70
         0
 43
250.0
 10
11500.0
 20
17700.0
 10
11500.0
 20
17900.0
 10
11100.0
 20
17900.0
 10
11100.0
 20
17700.0
  0
LWPOLYLINE
  5
4F
100
AcDbEntity
  8
ASSEMBLY_OUTLINES_TOP
100
AcDbPolyline
 90
        5
 70
         1
 43
100.0
 10
10866.25
 20
14807.5
 10
10231.25
 20
15442.5
 10
7691.25
 20
15442.5
 10
7691.25
 20
12585.0
 10
10866.25
 20
12585.0
  0
LWPOLYLINE
  5
50
100
AcDbEntity
  8
ASSEMBLY_OUTLINES_TOP
100
AcDbPolyline
 90
        4
 70
         0
 43
250.0
 10
12900.0
 20
10100.0
 10
13100.0
 20
10100.0
 10
13100.0
 20
10500.0
 10
12900.0
 20
10500.0
  0
LWPOLYLINE
  5
51
100
AcDbEntity
  8
ASSEMBLY_OUTLINES_TOP
100
AcDbPolyline
 90
        4
 70
         0
 43
250.0
 10
10900.0
 20
10300.0
 10
10700.0
 20
10300.0
 10
10700.0
 20
9900.0
 10
10900.0
 20
9900.0
  0
LWPOLYLINE
  5
52
100
AcDbEntity
  8
ASSEMBLY_OUTLINES_TOP
100
AcDbPolyline
 90
        4
 70
         0
 43
100.0
 10
11440.0
 20
13750.0
 10
13510.0
 20
13750.0
 10
13510.0
 20
13040.0
 10
11440.0
 20
13040.0
  0
LWPOLYLINE
  5
53
100
AcDbEntity
  8
ASSEMBLY_OUTLINES_TOP
100
AcDbPolyline
 90
        2
 70
         0
 43
100.0
 10
11280.0
 20
13240.0
 10
11280.0
 20
13560.0
  0
LWPOLYLINE
  5
54
100
AcDbEntity
  8
ASSEMBLY_OUTLINES_TOP
100
AcDbPolyline
 90
        4
 70
         0
 43
100.0
 10
11440.0
 20
14750.0
 10
13510.0
 20
14750.0
 10
13510.0
 20
14040.0
 10
11440.0
 20
14040.0
  0
LWPOLYLINE
  5
55
100
AcDbEntity
  8
ASSEMBLY_OUTLINES_TOP
100
AcDbPolyline
 90
        2
 70
         0
 43
100.0
 10
11280.0
 20
14240.0
 10
11280.0
 20
14560.0
  0
LWPOLYLINE
  5
56
100
AcDbEntity
  8
ASSEMBLY_OUTLINES_TOP
100
AcDbPolyline
 90
        4
 70
         0
 43
150.0
 10
14550.0
 20
14140.0
 10
14550.0
 20
15410.0
 10
15260.0
 20
15410.0
 10
15260.0
 20
14140.0
  0
LWPOLYLINE
  5
57
100
AcDbEntity
  8
ASSEMBLY_OUTLINES_TOP
100
AcDbPolyline
 90
        2
 70
         0
 43
150.0
 10
15060.0
 20
13980.0
 10
14740.0
 20
13980.0
  0
LWPOLYLINE
  5
58
100
AcDbEntity
  8
ASSEMBLY_OUTLINES_TOP
100
AcDbPolyline
 90
        4
 70
         0
 43
150.0
 10
15550.0
 20
14140.0
 10
15550.0
 20
15410.0
 10
16260.0
 20
15410.0
 10
16260.0
 20
14140.0
  0
LWPOLYLINE
  5
59
100
AcDbEntity
  8
ASSEMBLY_OUTLINES_TOP
100
AcDbPolyline
 90
        2
 70
         0
 43
150.0
 10
16060.0
 20
13980.0
 10
15740.0
 20
13980.0
  0
LWPOLYLINE
  5
5A
100
AcDbEntity
  8
ASSEMBLY_OUTLINES_TOP
100
AcDbPolyline
 90
        4
 70
         0
 43
250.0
 10
9900.0
 20
26700.0
 10
10100.0
 20
26700.0
 10
10100.0
 20
27100.0
 10
9900.0
 20
27100.0
  0
LWPOLYLINE
  5
5B
100
AcDbEntity
  8
ASSEMBLY_OUTLINES_TOP
100
AcDbPolyline
 90
        4
 70
         0
 43
250.0
 10
9900.0
 20
25900.0
 10
10100.0
 20
25900.0
 10
10100.0
 20
26300.0
 10
9900.0
 20
26300.0
  0
LWPOLYLINE
  5
5C
100
AcDbEntity
  8
ASSEMBLY_OUTLINES_TOP
100
AcDbPolyline
 90
        4
 70
         0
 43
250.0
 10
9900.0
 20
25000.0
 10
10100.0
 20
25000.0
 10
10100.0
 20
25400.0
 10
9900.0
 20
25400.0
  0
LWPOLYLINE
  5
5D
100
AcDbEntity
  8
ASSEMBLY_OUTLINES_TOP
100
AcDbPolyline
 90
        4
 70
         0
 43
250.0
 10
9900.0
 20
24100.0
 10
10100.0
 20
24100.0
 10
10100.0
 20
24500.0
 10
9900.0
 20
24500.0
  0
LWPOLYLINE
  5
5E
100
AcDbEntity
  8
ASSEMBLY_OUTLINES_TOP
100
AcDbPolyline
 90
        4
 70
         0
 43
250.0
 10
7700.0
 20
29100.0
 10
7900.0
 20
29100.0
 10
7900.0
 20
29500.0
 10
7700.0
 20
29500.0
  0
LWPOLYLINE
  5
5F
100
AcDbEntity
  8
ASSEMBLY_OUTLINES_TOP
100
AcDbPolyline
 90
        4
 70
         0
 43
250.0
 10
7800.0
 20
35900.0
 10
7800.0
 20
35700.0
 10
8200.0
 20
35700.0
 10
8200.0
 20
35900.0
  0
LWPOLYLINE
  5
60
100
AcDbEntity
  8
ASSEMBLY_OUTLINES_TOP
100
AcDbPolyline
 90
        4
 70
         1
 43
100.0
 10
8900.0
 20
31525.0
 10
8900.0
 20
32875.0
 10
11100.0
 20
32875.0
 10
11100.0
 20
31525.0
  0
LWPOLYLINE
  5
61
100
AcDbEntity
  8
ASSEMBLY_OUTLINES_TOP
100
AcDbPolyline
 90
        2
 70
         0
 43
100.0
 10
11000.0
 20
32875.0
 10
11100.0
 20
32775.0
  0
LWPOLYLINE
  5
62
100
AcDbEntity
  8
ASSEMBLY_OUTLINES_TOP
100
AcDbPolyline
 90
        2
 70
         0
 43
100.0
 10
10900.0
 20
32875.0
 10
11100.0
 20
32675.0
  0
LWPOLYLINE
  5
63
100
AcDbEntity
  8
ASSEMBLY_OUTLINES_TOP
100
AcDbPolyline
 90
        2
 70
         0
 43
100.0
 10
10800.0
 20
32875.0
 10
11100.0
 20
32575.0
  0
LWPOLYLINE
  5
64
100
AcDbEntity
  8
ASSEMBLY_OUTLINES_TOP
100
AcDbPolyline
 90
        2
 70
         0
 43
100.0
 10
10700.0
 20
32875.0
 10
11100.0
 20
32475.0
  0
LWPOLYLINE
  5
65
100
AcDbEntity
  8
ASSEMBLY_OUTLINES_TOP
100
AcDbPolyline
 90
        2
 70
         0
 43
100.0
 10
10600.0
 20
32875.0
 10
11100.0
 20
32375.0
  0
LWPOLYLINE
  5
66
100
AcDbEntity
  8
ASSEMBLY_OUTLINES_TOP
100
AcDbPolyline
 90
        2
 70
         0
 43
100.0
 10
10500.0
 20
32875.0
 10
11100.0
 20
32275.0
  0
LWPOLYLINE
  5
67
100
AcDbEntity
  8
ASSEMBLY_OUTLINES_TOP
100
AcDbPolyline
 90
        2
 70
         1
 43
250.0
 10
11175.0
 20
33400.0
 42
-1.0
 10
11425.0
 20
33400.0
 42
-1.0
  0
LWPOLYLINE
  5
68
100
AcDbEntity
  8
ASSEMBLY_OUTLINES_TOP
100
AcDbPolyline
 90
        4
 70
         0
 43
250.0
 10
7600.0
 20
32700.0
 10
7600.0
 20
32500.0
 10
8000.0
 20
32500.0
 10
8000.0
 20
32700.0
  0
LWPOLYLINE
  5
69
100
AcDbEntity
  8
ASSEMBLY_OUTLINES_TOP
100
AcDbPolyline
 90
        4
 70
         0
 43
250.0
 10
10600.0
 20
39600.0
 10
10600.0
 20
39800.0
 10
10200.0
 20
39800.0
 10
10200.0
 20
39600.0
  0
LWPOLYLINE
  5
6A
100
AcDbEntity
  8
ASSEMBLY_OUTLINES_TOP
100
AcDbPolyline
 90
        4
 70
         0
 43
250.0
 10
10200.0
 20
41400.0
 10
10200.0
 20
41200.0
 10
10600.0
 20
41200.0
 10
10600.0
 20
41400.0
  0
LWPOLYLINE
  5
6B
100
AcDbEntity
  8
ASSEMBLY_OUTLINES_TOP
100
AcDbPolyline
 90
        4
 70
         0
 43
250.0
 10
9000.0
 20
40700.0
 10
9200.0
 20
40700.0
 10
9200.0
 20
41100.0
 10
9000.0
 20
41100.0
  0
LWPOLYLINE
  5
6C
100
AcDbEntity
  8
ASSEMBLY_OUTLINES_TOP
100
AcDbPolyline
 90
        4
 70
         0
 43
250.0
 10
9000.0
 20
39900.0
 10
9200.0
 20
39900.0
 10
9200.0
 20
40300.0
 10
9000.0
 20
40300.0
  0
LWPOLYLINE
  5
6D
100
AcDbEntity
  8
ASSEMBLY_OUTLINES_TOP
100
AcDbPolyline
 90
        4
 70
         0
 43
250.0
 10
8500.0
 20
50100.0
 10
8300.0
 20
50100.0
 10
8300.0
 20
49700.0
 10
8500.0
 20
49700.0
  0
LWPOLYLINE
  5
6E
100
AcDbEntity
  8
ASSEMBLY_OUTLINES_TOP
100
AcDbPolyline
 90
        4
 70
         0
 43
250.0
 10
8600.0
 20
47100.0
 10
8800.0
 20
47100.0
 10
8800.0
 20
47500.0
 10
8600.0
 20
47500.0
  0
LWPOLYLINE
  5
6F
100
AcDbEntity
  8
ASSEMBLY_OUTLINES_TOP
100
AcDbPolyline
 90
        4
 70
         0
 43
250.0
 10
8800.0
 20
48500.0
 10
8600.0
 20
48500.0
 10
8600.0
 20
48100.0
 10
8800.0
 20
48100.0
  0
LWPOLYLINE
  5
70
100
AcDbEntity
  8
ASSEMBLY_OUTLINES_TOP
100
AcDbPolyline
 90
        4
 70
         0
 43
250.0
 10
14000.0
 20
12000.0
 10
14000.0
 20
12200.0
 10
13600.0
 20
12200.0
 10
13600.0
 20
12000.0
  0
LWPOLYLINE
  5
71
100
AcDbEntity
  8
ASSEMBLY_OUTLINES_TOP
100
AcDbPolyline
 90
        4
 70
         0
 43
250.0
 10
22900.0
 20
49600.0
 10
22900.0
 20
49400.0
 10
23300.0
 20
49400.0
 10
23300.0
 20
49600.0
  0
LWPOLYLINE
  5
72
100
AcDbEntity
  8
ASSEMBLY_OUTLINES_TOP
100
AcDbPolyline
 90
        4
 70
         0
 43
250.0
 10
21600.0
 20
15400.0
 10
21600.0
 20
15200.0
 10
22000.0
 20
15200.0
 10
22000.0
 20
15400.0
  0
LWPOLYLINE
  5
73
100
AcDbEntity
  8
ASSEMBLY_OUTLINES_TOP
100
AcDbPolyline
 90
        5
 70
         1
 43
200.0
 10
11812.5
 20
44960.0
 10
11812.5
 20
50040.0
 10
14987.5
 20
50040.0
 10
14987.5
 20
45595.0
 10
14352.5
 20
44960.0
  0
LWPOLYLINE
  5
74
100
AcDbEntity
  8
ASSEMBLY_OUTLINES_TOP
100
AcDbPolyline
 90
        4
 70
         0
 43
250.0
 10
19000.0
 20
46700.0
 10
18800.0
 20
46700.0
 10
18800.0
 20
46300.0
 10
19000.0
 20
46300.0
  0
LWPOLYLINE
  5
75
100
AcDbEntity
  8
ASSEMBLY_OUTLINES_TOP
100
AcDbPolyline
 90
        4
 70
         0
 43
250.0
 10
19000.0
 20
45700.0
 10
18800.0
 20
45700.0
 10
18800.0
 20
45300.0
 10
19000.0
 20
45300.0
  0
LWPOLYLINE
  5
76
100
AcDbEntity
  8
ASSEMBLY_OUTLINES_TOP
100
AcDbPolyline
 90
        4
 70
         0
 43
250.0
 10
18800.0
 20
48300.0
 10
19000.0
 20
48300.0
 10
19000.0
 20
48700.0
 10
18800.0
 20
48700.0
  0
LWPOLYLINE
  5
77
100
AcDbEntity
  8
ASSEMBLY_OUTLINES_TOP
100
AcDbPolyline
 90
        4
 70
         0
 43
250.0
 10
19000.0
 20
49700.0
 10
18800.0
 20
49700.0
 10
18800.0
 20
49300.0
 10
19000.0
 20
49300.0
  0
LWPOLYLINE
  5
78
100
AcDbEntity
  8
ASSEMBLY_OUTLINES_TOP
100
AcDbPolyline
 90
        4
 70
         0
 43
250.0
 10
18800.0
 20
47300.0
 10
19000.0
 20
47300.0
 10
19000.0
 20
47700.0
 10
18800.0
 20
47700.0
  0
LWPOLYLINE
  5
79
100
AcDbEntity
  8
ASSEMBLY_OUTLINES_TOP
100
AcDbPolyline
 90
        4
 70
         0
 43
250.0
 10
8600.0
 20
45400.0
 10
8800.0
 20
45400.0
 10
8800.0
 20
45800.0
 10
8600.0
 20
45800.0
  0
LWPOLYLINE
  5
7A
100
AcDbEntity
  8
ASSEMBLY_OUTLINES_TOP
100
AcDbPolyline
 90
        4
 70
         0
 43
250.0
 10
20900.0
 20
43400.0
 10
20900.0
 20
43600.0
 10
20500.0
 20
43600.0
 10
20500.0
 20
43400.0
  0
LWPOLYLINE
  5
7B
100
AcDbEntity
  8
ASSEMBLY_OUTLINES_TOP
100
AcDbPolyline
 90
        4
 70
         0
 43
200.0
 10
17600.0
 20
43000.0
 10
17200.0
 20
43000.0
 10
17200.0
 20
44200.0
 10
17600.0
 20
44200.0
  0
LWPOLYLINE
  5
7C
100
AcDbEntity
  8
ASSEMBLY_OUTLINES_TOP
100
AcDbPolyline
 90
        3
 70
         0
 43
200.0
 10
13950.0
 20
42370.0
 10
13950.0
 20
41735.0
 10
12680.0
 20
41735.0
  0
LWPOLYLINE
  5
7D
100
AcDbEntity
  8
ASSEMBLY_OUTLINES_TOP
100
AcDbPolyline
 90
        2
 70
         0
 43
200.0
 10
12045.0
 20
42687.5
 10
12045.0
 20
43322.5
  0
LWPOLYLINE
  5
7E
100
AcDbEntity
  8
ASSEMBLY_OUTLINES_TOP
100
AcDbPolyline
 90
        3
 70
         0
 43
200.0
 10
12680.0
 20
44275.0
 10
13950.0
 20
44275.0
 10
13950.0
 20
43640.0
  0
LWPOLYLINE
  5
7F
100
AcDbEntity
  8
ASSEMBLY_OUTLINES_TOP
100
AcDbPolyline
 90
        4
 70
         0
 43
250.0
 10
23100.0
 20
12200.0
 10
22900.0
 20
12200.0
 10
22900.0
 20
11800.0
 10
23100.0
 20
11800.0
  0
LWPOLYLINE
  5
80
100
AcDbEntity
  8
ASSEMBLY_OUTLINES_TOP
100
AcDbPolyline
 90
        4
 70
         0
 43
250.0
 10
23100.0
 20
11200.0
 10
22900.0
 20
11200.0
 10
22900.0
 20
10800.0
 10
23100.0
 20
10800.0
  0
LWPOLYLINE
  5
81
100
AcDbEntity
  8
ASSEMBLY_OUTLINES_TOP
100
AcDbPolyline
 90
        4
 70
         0
 43
250.0
 10
23100.0
 20
9700.0
 10
22900.0
 20
9700.0
 10
22900.0
 20
9300.0
 10
23100.0
 20
9300.0
  0
LWPOLYLINE
  5
82
100
AcDbEntity
  8
ASSEMBLY_OUTLINES_TOP
100
AcDbPolyline
 90
        4
 70
         0
 43
250.0
 10
9900.0
 20
19300.0
 10
10100.0
 20
19300.0
 10
10100.0
 20
19700.0
 10
9900.0
 20
19700.0
  0
LWPOLYLINE
  5
83
100
AcDbEntity
  8
ASSEMBLY_OUTLINES_TOP
100
AcDbPolyline
 90
        4
 70
         0
 43
250.0
 10
9900.0
 20
21300.0
 10
10100.0
 20
21300.0
 10
10100.0
 20
21700.0
 10
9900.0
 20
21700.0
  0
LWPOLYLINE
  5
84
100
AcDbEntity
  8
ASSEMBLY_OUTLINES_TOP
100
AcDbPolyline
 90
        4
 70
         0
 43
250.0
 10
9900.0
 20
20300.0
 10
10100.0
 20
20300.0
 10
10100.0
 20
20700.0
 10
9900.0
 20
20700.0
  0
LWPOLYLINE
  5
85
100
AcDbEntity
  8
ASSEMBLY_OUTLINES_TOP
100
AcDbPolyline
 90
        4
 70
         0
 43
250.0
 10
9900.0
 20
22300.0
 10
10100.0
 20
22300.0
 10
10100.0
 20
22700.0
 10
9900.0
 20
22700.0
  0
LWPOLYLINE
  5
86
100
AcDbEntity
  8
ASSEMBLY_OUTLINES_TOP
100
AcDbPolyline
 90
        4
 70
         0
 43
250.0
 10
9900.0
 20
23300.0
 10
10100.0
 20
23300.0
 10
10100.0
 20
23700.0
 10
9900.0
 20
23700.0
  0
LWPOLYLINE
  5
87
100
AcDbEntity
  8
ASSEMBLY_OUTLINES_TOP
100
AcDbPolyline
 90
        2
 70
         0
 43
150.0
 10
12900.0
 20
19300.0
 10
12900.0
 20
17600.0
  0
LWPOLYLINE
  5
88
100
AcDbEntity
  8
ASSEMBLY_OUTLINES_TOP
100
AcDbPolyline
 90
        2
 70
         0
 43
150.0
 10
12900.0
 20
17600.0
 10
18600.0
 20
17600.0
  0
LWPOLYLINE
  5
89
100
AcDbEntity
  8
ASSEMBLY_OUTLINES_TOP
100
AcDbPolyline
 90
        2
 70
         0
 43
150.0
 10
18600.0
 20
17600.0
 10
18600.0
 20
40900.0
  0
LWPOLYLINE
  5
8A
100
AcDbEntity
  8
ASSEMBLY_OUTLINES_TOP
100
AcDbPolyline
 90
        2
 70
         0
 43
150.0
 10
18600.0
 20
40900.0
 10
12900.0
 20
40900.0
  0
LWPOLYLINE
  5
8B
100
AcDbEntity
  8
ASSEMBLY_OUTLINES_TOP
100
AcDbPolyline
 90
        2
 70
         0
 43
150.0
 10
12900.0
 20
40900.0
 10
12900.0
 20
39300.0
  0
LWPOLYLINE
  5
8C
100
AcDbEntity
  8
ASSEMBLY_OUTLINES_TOP
100
AcDbPolyline
 90
        2
 70
         0
 43
150.0
 10
22000.0
 20
22400.0
 10
18700.0
 20
22400.0
  0
LWPOLYLINE
  5
8D
100
AcDbEntity
  8
ASSEMBLY_OUTLINES_TOP
100
AcDbPolyline
 90
        2
 70
         0
 43
150.0
 10
21900.0
 20
35700.0
 10
18600.0
 20
35700.0
  0
LWPOLYLINE
  5
8E
100
AcDbEntity
  8
ASSEMBLY_OUTLINES_TOP
100
AcDbPolyline
 90
        2
 70
         0
 43
150.0
 10
18700.0
 20
22400.0
 10
19500.0
 20
21600.0
  0
LWPOLYLINE
  5
8F
100
AcDbEntity
  8
ASSEMBLY_OUTLINES_TOP
100
AcDbPolyline
 90
        2
 70
         0
 43
150.0
 10
18700.0
 20
22400.0
 10
19500.0
 20
23200.0
  0
LWPOLYLINE
  5
90
100
AcDbEntity
  8
ASSEMBLY_OUTLINES_TOP
100
AcDbPolyline
 90
        2
 70
         0
 43
150.0
 10
18600.0
 20
35700.0
 10
19400.0
 20
34900.0
  0
LWPOLYLINE
  5
91
100
AcDbEntity
  8
ASSEMBLY_OUTLINES_TOP
100
AcDbPolyline
 90
        2
 70
         0
 43
150.0
 10
18600.0
 20
35700.0
 10
19400.0
 20
36500.0
  0
LWPOLYLINE
  5
92
100
AcDbEntity
  8
ASSEMBLY_OUTLINES_TOP
100
AcDbPolyline
 90
        2
 70
         1
 43
150.0
 10
13239.44
 20
18000.0
 42
-1.0
 10
13960.56
 20
18000.0
 42
-1.0
  0
LWPOLYLINE
  5
93
100
AcDbEntity
  8
ASSEMBLY_OUTLINES_TOP
100
AcDbPolyline
 90
        2
 70
         0
 43
150.0
 10
14800.0
 20
19000.0
 10
14300.0
 20
19500.0
  0
LWPOLYLINE
  5
94
100
AcDbEntity
  8
ASSEMBLY_OUTLINES_TOP
100
AcDbPolyline
 90
        2
 70
         0
 43
150.0
 10
14300.0
 20
19500.0
 10
15700.0
 20
19500.0
  0
LWPOLYLINE
  5
95
100
AcDbEntity
  8
ASSEMBLY_OUTLINES_TOP
100
AcDbPolyline
 90
        4
 70
         0
 43
250.0
 10
12900.0
 20
15800.0
 10
13100.0
 20
15800.0
 10
13100.0
 20
16200.0
 10
12900.0
 20
16200.0
  0
LWPOLYLINE
  5
96
100
AcDbEntity
  8
ASSEMBLY_OUTLINES_TOP
100
AcDbPolyline
 90
        5
 70
         1
 43
200.0
 10
16412.5
 20
7960.0
 10
16412.5
 20
13040.0
 10
19587.5
 20
13040.0
 10
19587.5
 20
8595.0
 10
18952.5
 20
7960.0
  0
LWPOLYLINE
  5
97
100
AcDbEntity
  8
ASSEMBLY_OUTLINES_TOP
100
AcDbPolyline
 90
        4
 70
         0
 43
250.0
 10
18100.0
 20
14200.0
 10
17900.0
 20
14200.0
 10
17900.0
 20
13800.0
 10
18100.0
 20
13800.0
  0
LWPOLYLINE
  5
98
100
AcDbEntity
  8
ASSEMBLY_OUTLINES_TOP
100
AcDbPolyline
 90
        4
 70
         0
 43
250.0
 10
18100.0
 20
15200.0
 10
17900.0
 20
15200.0
 10
17900.0
 20
14800.0
 10
18100.0
 20
14800.0
  0
LWPOLYLINE
  5
99
100
AcDbEntity
  8
ASSEMBLY_OUTLINES_TOP
100
AcDbPolyline
 90
        4
 70
         0
 43
250.0
 10
11200.0
 20
8400.0
 10
11200.0
 20
8600.0
 10
10800.0
 20
8600.0
 10
10800.0
 20
8400.0
  0
LWPOLYLINE
  5
9A
100
AcDbEntity
  8
ASSEMBLY_OUTLINES_TOP
100
AcDbPolyline
 90
        4
 70
         0
 43
250.0
 10
12900.0
 20
8800.0
 10
13100.0
 20
8800.0
 10
13100.0
 20
9200.0
 10
12900.0
 20
9200.0
  0
LWPOLYLINE
  5
9B
100
AcDbEntity
  8
ASSEMBLY_OUTLINES_TOP
100
AcDbPolyline
 90
        4
 70
         0
 43
250.0
 10
12900.0
 20
7800.0
 10
13100.0
 20
7800.0
 10
13100.0
 20
8200.0
 10
12900.0
 20
8200.0
  0
TEXT
  5
9D
100
AcDbEntity
  8
ASSEMBLY_REF_DES_BTM
100
AcDbText
 10
8931.5
 20
12109.7
 30
0.0
 40
800.0
  1
Q3
 50
270.0
  7
ARIAL
 71
         2
 72
         1
 11
9347.5
 21
12872.5
 31
0.0
100
AcDbText
 73
         2
  0
TEXT
  5
9E
100
AcDbEntity
  8
ASSEMBLY_REF_DES_BTM
100
AcDbText
 10
11517.372
 20
15683.251
 30
0.0
 40
800.0
  1
Q4
  7
ARIAL
 71
         2
 72
         1
 11
10754.572
 21
16099.251
 31
0.0
100
AcDbText
 73
         2
  0
TEXT
  5
9F
100
AcDbEntity
  8
ASSEMBLY_REF_DES_BTM
100
AcDbText
 10
10730.8
 20
30384.0
 30
0.0
 40
800.0
  1
C9
  7
ARIAL
 71
         2
 72
         1
 11
10000.0
 21
30800.0
 31
0.0
100
AcDbText
 73
         2
  0
TEXT
  5
A0
100
AcDbEntity
  8
ASSEMBLY_REF_DES_BTM
100
AcDbText
 10
9418.8
 20
14524.0
 30
0.0
 40
800.0
  1
R22
  7
ARIAL
 71
         2
 72
         1
 11
8370.0
 21
14940.0
 31
0.0
100
AcDbText
 73
         2
  0
TEXT
  5
A1
100
AcDbEntity
  8
ASSEMBLY_REF_DES_BTM
100
AcDbText
 10
10010.8
 20
10294.0
 30
0.0
 40
800.0
  1
C4
  7
ARIAL
 71
         2
 72
         1
 11
9280.0
 21
10710.0
 31
0.0
100
AcDbText
 73
         2
  0
TEXT
  5
A2
100
AcDbEntity
  8
ASSEMBLY_REF_DES_BTM
100
AcDbText
 10
10948.8
 20
35284.0
 30
0.0
 40
800.0
  1
C44
  7
ARIAL
 71
         2
 72
         1
 11
9900.0
 21
35700.0
 31
0.0
100
AcDbText
 73
         2
  0
TEXT
  5
A3
100
AcDbEntity
  8
ASSEMBLY_REF_DES_BTM
100
AcDbText
 10
10948.8
 20
34284.0
 30
0.0
 40
800.0
  1
C39
  7
ARIAL
 71
         2
 72
         1
 11
9900.0
 21
34700.0
 31
0.0
100
AcDbText
 73
         2
  0
TEXT
  5
A4
100
AcDbEntity
  8
ASSEMBLY_REF_DES_BTM
100
AcDbText
 10
10948.8
 20
33284.0
 30
0.0
 40
800.0
  1
C41
  7
ARIAL
 71
         2
 72
         1
 11
9900.0
 21
33700.0
 31
0.0
100
AcDbText
 73
         2
  0
TEXT
  5
A5
100
AcDbEntity
  8
ASSEMBLY_REF_DES_BTM
100
AcDbText
 10
10948.8
 20
32284.0
 30
0.0
 40
800.0
  1
C40
  7
ARIAL
 71
         2
 72
         1
 11
9900.0
 21
32700.0
 31
0.0
100
AcDbText
 73
         2
  0
TEXT
  5
A6
100
AcDbEntity
  8
ASSEMBLY_REF_DES_BTM
100
AcDbText
 10
10948.8
 20
36284.0
 30
0.0
 40
800.0
  1
C42
  7
ARIAL
 71
         2
 72
         1
 11
9900.0
 21
36700.0
 31
0.0
100
AcDbText
 73
         2
  0
TEXT
  5
A7
100
AcDbEntity
  8
ASSEMBLY_REF_DES_BTM
100
AcDbText
 10
10948.8
 20
37284.0
 30
0.0
 40
800.0
  1
C43
  7
ARIAL
 71
         2
 72
         1
 11
9900.0
 21
37700.0
 31
0.0
100
AcDbText
 73
         2
  0
TEXT
  5
A8
100
AcDbEntity
  8
ASSEMBLY_REF_DES_BTM
100
AcDbText
 10
14234.0
 20
28550.8
 30
0.0
 40
800.0
  1
X2
 50
270.0
  7
ARIAL
 71
         2
 72
         1
 11
14650.0
 21
29250.0
 31
0.0
100
AcDbText
 73
         2
  0
TEXT
  5
A9
100
AcDbEntity
  8
ASSEMBLY_REF_DES_TOP
100
AcDbText
 10
5084.0
 20
10648.8
 30
0.0
 40
800.0
  1
C20
 50
270.0
  7
ARIAL
 72
         1
 11
5500.0
 21
9600.0
 31
0.0
100
AcDbText
 73
         2
  0
TEXT
  5
AA
100
AcDbEntity
  8
ASSEMBLY_REF_DES_TOP
100
AcDbText
 10
21951.2
 20
6584.0
 30
0.0
 40
800.0
  1
C24
  7
ARIAL
 72
         1
 11
23000.0
 21
7000.0
 31
0.0
100
AcDbText
 73
         2
  0
TEXT
  5
AB
100
AcDbEntity
  8
ASSEMBLY_REF_DES_TOP
100
AcDbText
 10
9051.2
 20
17884.0
 30
0.0
 40
800.0
  1
R20
  7
ARIAL
 72
         1
 11
10100.0
 21
18300.0
 31
0.0
100
AcDbText
 73
         2
  0
TEXT
  5
AC
100
AcDbEntity
  8
ASSEMBLY_REF_DES_TOP
100
AcDbText
 10
9051.2
 20
17084.0
 30
0.0
 40
800.0
  1
R23
  7
ARIAL
 72
         1
 11
10100.0
 21
17500.0
 31
0.0
100
AcDbText
 73
         2
  0
TEXT
  5
AD
100
AcDbEntity
  8
ASSEMBLY_REF_DES_TOP
100
AcDbText
 10
10884.0
 20
18848.8
 30
0.0
 40
800.0
  1
R14
 50
270.0
  7
ARIAL
 72
         1
 11
11300.0
 21
17800.0
 31
0.0
100
AcDbText
 73
         2
  0
TEXT
  5
AE
100
AcDbEntity
  8
ASSEMBLY_REF_DES_TOP
100
AcDbText
 10
8572.95
 20
13599.0
 30
0.0
 40
800.0
  1
U3
  7
ARIAL
 72
         1
 11
9303.75
 21
14015.0
 31
0.0
100
AcDbText
 73
         2
  0
TEXT
  5
AF
100
AcDbEntity
  8
ASSEMBLY_REF_DES_TOP
100
AcDbText
 10
12269.2
 20
9884.0
 30
0.0
 40
800.0
  1
R7
  7
ARIAL
 72
         1
 11
13000.0
 21
10300.0
 31
0.0
100
AcDbText
 73
         2
  0
TEXT
  5
B0
100
AcDbEntity
  8
ASSEMBLY_REF_DES_TOP
100
AcDbText
 10
9751.2
 20
9684.0
 30
0.0
 40
800.0
  1
C48
  7
ARIAL
 72
         1
 11
10800.0
 21
10100.0
 31
0.0
100
AcDbText
 73
         2
  0
TEXT
  5
B1
100
AcDbEntity
  8
ASSEMBLY_REF_DES_TOP
100
AcDbText
 10
11789.75
 20
12984.0
 30
0.0
 40
800.0
  1
J4
  7
ARIAL
 72
         1
 11
12393.75
 21
13400.0
 31
0.0
100
AcDbText
 73
         2
  0
TEXT
  5
B2
100
AcDbEntity
  8
ASSEMBLY_REF_DES_TOP
100
AcDbText
 10
11789.75
 20
13984.0
 30
0.0
 40
800.0
  1
J3
  7
ARIAL
 72
         1
 11
12393.75
 21
14400.0
 31
0.0
100
AcDbText
 73
         2
  0
TEXT
  5
B3
100
AcDbEntity
  8
ASSEMBLY_REF_DES_TOP
100
AcDbText
 10
14484.0
 20
15304.0
 30
0.0
 40
800.0
  1
J1
 50
270.0
  7
ARIAL
 72
         1
 11
14900.0
 21
14700.0
 31
0.0
100
AcDbText
 73
         2
  0
TEXT
  5
B4
100
AcDbEntity
  8
ASSEMBLY_REF_DES_TOP
100
AcDbText
 10
15484.0
 20
15304.0
 30
0.0
 40
800.0
  1
J2
 50
270.0
  7
ARIAL
 72
         1
 11
15900.0
 21
14700.0
 31
0.0
100
AcDbText
 73
         2
  0
TEXT
  5
B5
100
AcDbEntity
  8
ASSEMBLY_REF_DES_TOP
100
AcDbText
 10
8951.2
 20
26484.0
 30
0.0
 40
800.0
  1
R19
  7
ARIAL
 72
         1
 11
10000.0
 21
26900.0
 31
0.0
100
AcDbText
 73
         2
  0
TEXT
  5
B6
100
AcDbEntity
  8
ASSEMBLY_REF_DES_TOP
100
AcDbText
 10
9269.2
 20
25684.0
 30
0.0
 40
800.0
  1
R1
  7
ARIAL
 72
         1
 11
10000.0
 21
26100.0
 31
0.0
100
AcDbText
 73
         2
  0
TEXT
  5
B7
100
AcDbEntity
  8
ASSEMBLY_REF_DES_TOP
100
AcDbText
 10
9269.2
 20
24784.0
 30
0.0
 40
800.0
  1
C8
  7
ARIAL
 72
         1
 11
10000.0
 21
25200.0
 31
0.0
100
AcDbText
 73
         2
  0
TEXT
  5
B8
100
AcDbEntity
  8
ASSEMBLY_REF_DES_TOP
100
AcDbText
 10
8951.2
 20
23884.0
 30
0.0
 40
800.0
  1
C35
  7
ARIAL
 72
         1
 11
10000.0
 21
24300.0
 31
0.0
100
AcDbText
 73
         2
  0
TEXT
  5
B9
100
AcDbEntity
  8
ASSEMBLY_REF_DES_TOP
100
AcDbText
 10
6751.2
 20
28884.0
 30
0.0
 40
800.0
  1
C47
  7
ARIAL
 72
         1
 11
7800.0
 21
29300.0
 31
0.0
100
AcDbText
 73
         2
  0
TEXT
  5
BA
100
AcDbEntity
  8
ASSEMBLY_REF_DES_TOP
100
AcDbText
 10
7584.0
 20
36848.8
 30
0.0
 40
800.0
  1
C26
 50
270.0
  7
ARIAL
 72
         1
 11
8000.0
 21
35800.0
 31
0.0
100
AcDbText
 73
         2
  0
TEXT
  5
BB
100
AcDbEntity
  8
ASSEMBLY_REF_DES_TOP
100
AcDbText
 10
9584.0
 20
32930.8
 30
0.0
 40
800.0
  1
U4
 50
270.0
  7
ARIAL
 72
         1
 11
10000.0
 21
32200.0
 31
0.0
100
AcDbText
 73
         2
  0
TEXT
  5
BC
100
AcDbEntity
  8
ASSEMBLY_REF_DES_TOP
100
AcDbText
 10
7384.0
 20
33648.8
 30
0.0
 40
800.0
  1
R18
 50
270.0
  7
ARIAL
 72
         1
 11
7800.0
 21
32600.0
 31
0.0
100
AcDbText
 73
         2
  0
TEXT
  5
BD
100
AcDbEntity
  8
ASSEMBLY_REF_DES_TOP
100
AcDbText
 10
9984.0
 20
40430.8
 30
0.0
 40
800.0
  1
R3
 50
270.0
  7
ARIAL
 72
         1
 11
10400.0
 21
39700.0
 31
0.0
100
AcDbText
 73
         2
  0
TEXT
  5
BE
100
AcDbEntity
  8
ASSEMBLY_REF_DES_TOP
100
AcDbText
 10
9984.0
 20
42030.8
 30
0.0
 40
800.0
  1
R4
 50
270.0
  7
ARIAL
 72
         1
 11
10400.0
 21
41300.0
 31
0.0
100
AcDbText
 73
         2
  0
TEXT
  5
BF
100
AcDbEntity
  8
ASSEMBLY_REF_DES_TOP
100
AcDbText
 10
8051.2
 20
40484.0
 30
0.0
 40
800.0
  1
R24
  7
ARIAL
 72
         1
 11
9100.0
 21
40900.0
 31
0.0
100
AcDbText
 73
         2
  0
TEXT
  5
C0
100
AcDbEntity
  8
ASSEMBLY_REF_DES_TOP
100
AcDbText
 10
8051.2
 20
39684.0
 30
0.0
 40
800.0
  1
R25
  7
ARIAL
 72
         1
 11
9100.0
 21
40100.0
 31
0.0
100
AcDbText
 73
         2
  0
TEXT
  5
C1
100
AcDbEntity
  8
ASSEMBLY_REF_DES_TOP
100
AcDbText
 10
7351.2
 20
49484.0
 30
0.0
 40
800.0
  1
C21
  7
ARIAL
 72
         1
 11
8400.0
 21
49900.0
 31
0.0
100
AcDbText
 73
         2
  0
TEXT
  5
C2
100
AcDbEntity
  8
ASSEMBLY_REF_DES_TOP
100
AcDbText
 10
7651.2
 20
46884.0
 30
0.0
 40
800.0
  1
R10
  7
ARIAL
 72
         1
 11
8700.0
 21
47300.0
 31
0.0
100
AcDbText
 73
         2
  0
TEXT
  5
C3
100
AcDbEntity
  8
ASSEMBLY_REF_DES_TOP
100
AcDbText
 10
7969.2
 20
47884.0
 30
0.0
 40
800.0
  1
R9
  7
ARIAL
 72
         1
 11
8700.0
 21
48300.0
 31
0.0
100
AcDbText
 73
         2
  0
TEXT
  5
C4
100
AcDbEntity
  8
ASSEMBLY_REF_DES_TOP
100
AcDbText
 10
13384.0
 20
13148.8
 30
0.0
 40
800.0
  1
C45
 50
270.0
  7
ARIAL
 72
         1
 11
13800.0
 21
12100.0
 31
0.0
100
AcDbText
 73
         2
  0
TEXT
  5
C5
100
AcDbEntity
  8
ASSEMBLY_REF_DES_TOP
100
AcDbText
 10
22684.0
 20
50548.8
 30
0.0
 40
800.0
  1
C46
 50
270.0
  7
ARIAL
 72
         1
 11
23100.0
 21
49500.0
 31
0.0
100
AcDbText
 73
         2
  0
TEXT
  5
C6
100
AcDbEntity
  8
ASSEMBLY_REF_DES_TOP
100
AcDbText
 10
8884.0
 20
9048.4
 30
0.0
 40
800.0
  1
TP3
 50
270.0
  7
ARIAL
 72
         1
 11
9300.0
 21
8000.0
 31
0.0
100
AcDbText
 73
         2
  0
TEXT
  5
C7
100
AcDbEntity
  8
ASSEMBLY_REF_DES_TOP
100
AcDbText
 10
7184.0
 20
9048.4
 30
0.0
 40
800.0
  1
TP1
 50
270.0
  7
ARIAL
 72
         1
 11
7600.0
 21
8000.0
 31
0.0
100
AcDbText
 73
         2
  0
TEXT
  5
C8
100
AcDbEntity
  8
ASSEMBLY_REF_DES_TOP
100
AcDbText
 10
5484.0
 20
9048.4
 30
0.0
 40
800.0
  1
TP2
 50
270.0
  7
ARIAL
 72
         1
 11
5900.0
 21
8000.0
 31
0.0
100
AcDbText
 73
         2
  0
TEXT
  5
C9
100
AcDbEntity
  8
ASSEMBLY_REF_DES_TOP
100
AcDbText
 10
21384.0
 20
16348.8
 30
0.0
 40
800.0
  1
C22
 50
270.0
  7
ARIAL
 72
         1
 11
21800.0
 21
15300.0
 31
0.0
100
AcDbText
 73
         2
  0
TEXT
  5
CA
100
AcDbEntity
  8
ASSEMBLY_REF_DES_TOP
100
AcDbText
 10
12968.5
 20
48230.8
 30
0.0
 40
800.0
  1
U2
 50
270.0
  7
ARIAL
 72
         1
 11
13384.5
 21
47500.0
 31
0.0
100
AcDbText
 73
         2
  0
TEXT
  5
CB
100
AcDbEntity
  8
ASSEMBLY_REF_DES_TOP
100
AcDbText
 10
17851.2
 20
46084.0
 30
0.0
 40
800.0
  1
R11
  7
ARIAL
 72
         1
 11
18900.0
 21
46500.0
 31
0.0
100
AcDbText
 73
         2
  0
TEXT
  5
CC
100
AcDbEntity
  8
ASSEMBLY_REF_DES_TOP
100
AcDbText
 10
17851.2
 20
45084.0
 30
0.0
 40
800.0
  1
R15
  7
ARIAL
 72
         1
 11
18900.0
 21
45500.0
 31
0.0
100
AcDbText
 73
         2
  0
TEXT
  5
CD
100
AcDbEntity
  8
ASSEMBLY_REF_DES_TOP
100
AcDbText
 10
17851.2
 20
48084.0
 30
0.0
 40
800.0
  1
R13
  7
ARIAL
 72
         1
 11
18900.0
 21
48500.0
 31
0.0
100
AcDbText
 73
         2
  0
TEXT
  5
CE
100
AcDbEntity
  8
ASSEMBLY_REF_DES_TOP
100
AcDbText
 10
17851.2
 20
49084.0
 30
0.0
 40
800.0
  1
R12
  7
ARIAL
 72
         1
 11
18900.0
 21
49500.0
 31
0.0
100
AcDbText
 73
         2
  0
TEXT
  5
CF
100
AcDbEntity
  8
ASSEMBLY_REF_DES_TOP
100
AcDbText
 10
18169.2
 20
47084.0
 30
0.0
 40
800.0
  1
C5
  7
ARIAL
 72
         1
 11
18900.0
 21
47500.0
 31
0.0
100
AcDbText
 73
         2
  0
TEXT
  5
D0
100
AcDbEntity
  8
ASSEMBLY_REF_DES_TOP
100
AcDbText
 10
7969.2
 20
45184.0
 30
0.0
 40
800.0
  1
C3
  7
ARIAL
 72
         1
 11
8700.0
 21
45600.0
 31
0.0
100
AcDbText
 73
         2
  0
TEXT
  5
D1
100
AcDbEntity
  8
ASSEMBLY_REF_DES_TOP
100
AcDbText
 10
20284.0
 20
44548.8
 30
0.0
 40
800.0
  1
C19
 50
270.0
  7
ARIAL
 72
         1
 11
20700.0
 21
43500.0
 31
0.0
100
AcDbText
 73
         2
  0
TEXT
  5
D2
100
AcDbEntity
  8
ASSEMBLY_REF_DES_TOP
100
AcDbText
 10
16351.2
 20
43184.0
 30
0.0
 40
800.0
  1
R21
  7
ARIAL
 72
         1
 11
17400.0
 21
43600.0
 31
0.0
100
AcDbText
 73
         2
  0
TEXT
  5
D3
100
AcDbEntity
  8
ASSEMBLY_REF_DES_TOP
100
AcDbText
 10
12234.7
 20
42586.5
 30
0.0
 40
800.0
  1
Q2
  7
ARIAL
 72
         1
 11
12997.5
 21
43002.5
 31
0.0
100
AcDbText
 73
         2
  0
TEXT
  5
D4
100
AcDbEntity
  8
ASSEMBLY_REF_DES_TOP
100
AcDbText
 10
22269.2
 20
11584.0
 30
0.0
 40
800.0
  1
R5
  7
ARIAL
 72
         1
 11
23000.0
 21
12000.0
 31
0.0
100
AcDbText
 73
         2
  0
TEXT
  5
D5
100
AcDbEntity
  8
ASSEMBLY_REF_DES_TOP
100
AcDbText
 10
22269.2
 20
10584.0
 30
0.0
 40
800.0
  1
R6
  7
ARIAL
 72
         1
 11
23000.0
 21
11000.0
 31
0.0
100
AcDbText
 73
         2
  0
TEXT
  5
D6
100
AcDbEntity
  8
ASSEMBLY_REF_DES_TOP
100
AcDbText
 10
22269.2
 20
9084.0
 30
0.0
 40
800.0
  1
C2
  7
ARIAL
 72
         1
 11
23000.0
 21
9500.0
 31
0.0
100
AcDbText
 73
         2
  0
TEXT
  5
D7
100
AcDbEntity
  8
ASSEMBLY_REF_DES_TOP
100
AcDbText
 10
9269.2
 20
19084.0
 30
0.0
 40
800.0
  1
R2
  7
ARIAL
 72
         1
 11
10000.0
 21
19500.0
 31
0.0
100
AcDbText
 73
         2
  0
TEXT
  5
D8
100
AcDbEntity
  8
ASSEMBLY_REF_DES_TOP
100
AcDbText
 10
8951.2
 20
21084.0
 30
0.0
 40
800.0
  1
C38
  7
ARIAL
 72
         1
 11
10000.0
 21
21500.0
 31
0.0
100
AcDbText
 73
         2
  0
TEXT
  5
D9
100
AcDbEntity
  8
ASSEMBLY_REF_DES_TOP
100
AcDbText
 10
9269.2
 20
20084.0
 30
0.0
 40
800.0
  1
C6
  7
ARIAL
 72
         1
 11
10000.0
 21
20500.0
 31
0.0
100
AcDbText
 73
         2
  0
TEXT
  5
DA
100
AcDbEntity
  8
ASSEMBLY_REF_DES_TOP
100
AcDbText
 10
8951.2
 20
22084.0
 30
0.0
 40
800.0
  1
C36
  7
ARIAL
 72
         1
 11
10000.0
 21
22500.0
 31
0.0
100
AcDbText
 73
         2
  0
TEXT
  5
DB
100
AcDbEntity
  8
ASSEMBLY_REF_DES_TOP
100
AcDbText
 10
9269.2
 20
23084.0
 30
0.0
 40
800.0
  1
C7
  7
ARIAL
 72
         1
 11
10000.0
 21
23500.0
 31
0.0
100
AcDbText
 73
         2
  0
TEXT
  5
DC
100
AcDbEntity
  8
ASSEMBLY_REF_DES_TOP
100
AcDbText
 10
14234.0
 20
29949.2
 30
0.0
 40
800.0
  1
X1
 50
270.0
  7
ARIAL
 72
         1
 11
14650.0
 21
29250.0
 31
0.0
100
AcDbText
 73
         2
  0
TEXT
  5
DD
100
AcDbEntity
  8
ASSEMBLY_REF_DES_TOP
100
AcDbText
 10
11951.2
 20
15584.0
 30
0.0
 40
800.0
  1
C25
  7
ARIAL
 72
         1
 11
13000.0
 21
16000.0
 31
0.0
100
AcDbText
 73
         2
  0
TEXT
  5
DE
100
AcDbEntity
  8
ASSEMBLY_REF_DES_TOP
100
AcDbText
 10
17568.5
 20
11230.8
 30
0.0
 40
800.0
  1
U1
 50
270.0
  7
ARIAL
 72
         1
 11
17984.5
 21
10500.0
 31
0.0
100
AcDbText
 73
         2
  0
TEXT
  5
DF
100
AcDbEntity
  8
ASSEMBLY_REF_DES_TOP
100
AcDbText
 10
16951.2
 20
13584.0
 30
0.0
 40
800.0
  1
R17
  7
ARIAL
 72
         1
 11
18000.0
 21
14000.0
 31
0.0
100
AcDbText
 73
         2
  0
TEXT
  5
E0
100
AcDbEntity
  8
ASSEMBLY_REF_DES_TOP
100
AcDbText
 10
16951.2
 20
14584.0
 30
0.0
 40
800.0
  1
R16
  7
ARIAL
 72
         1
 11
18000.0
 21
15000.0
 31
0.0
100
AcDbText
 73
         2
  0
TEXT
  5
E1
100
AcDbEntity
  8
ASSEMBLY_REF_DES_TOP
100
AcDbText
 10
10584.0
 20
9548.8
 30
0.0
 40
800.0
  1
C23
 50
270.0
  7
ARIAL
 72
         1
 11
11000.0
 21
8500.0
 31
0.0
100
AcDbText
 73
         2
  0
TEXT
  5
E2
100
AcDbEntity
  8
ASSEMBLY_REF_DES_TOP
100
AcDbText
 10
12269.2
 20
8584.0
 30
0.0
 40
800.0
  1
R8
  7
ARIAL
 72
         1
 11
13000.0
 21
9000.0
 31
0.0
100
AcDbText
 73
         2
  0
TEXT
  5
E3
100
AcDbEntity
  8
ASSEMBLY_REF_DES_TOP
100
AcDbText
 10
12269.2
 20
7584.0
 30
0.0
 40
800.0
  1
C1
  7
ARIAL
 72
         1
 11
13000.0
 21
8000.0
 31
0.0
100
AcDbText
 73
         2
  0
TEXT
  5
E4
100
AcDbEntity
  8
ASSEMBLY_REF_DES_TOP
100
AcDbText
 10
13284.0
 20
5417.2
 30
0.0
 40
800.0
  1
X71
 50
270.0
  7
ARIAL
 72
         1
 11
13700.0
 21
4400.0
 31
0.0
100
AcDbText
 73
         2
  0
TEXT
  5
E5
100
AcDbEntity
  8
ASSEMBLY_REF_DES_TOP
100
AcDbText
 10
23300.8
 20
44584.0
 30
0.0
 40
800.0
  1
X5
  7
ARIAL
 72
         1
 11
24000.0
 21
45000.0
 31
0.0
100
AcDbText
 73
         2
  0
TEXT
  5
E6
100
AcDbEntity
  8
ASSEMBLY_REF_DES_TOP
100
AcDbText
 10
23300.8
 20
2584.0
 30
0.0
 40
800.0
  1
X7
  7
ARIAL
 72
         1
 11
24000.0
 21
3000.0
 31
0.0
100
AcDbText
 73
         2
  0
TEXT
  5
E7
100
AcDbEntity
  8
ASSEMBLY_REF_DES_TOP
100
AcDbText
 10
2100.8
 20
2584.0
 30
0.0
 40
800.0
  1
X6
  7
ARIAL
 72
         1
 11
2800.0
 21
3000.0
 31
0.0
100
AcDbText
 73
         2
  0
TEXT
  5
E8
100
AcDbEntity
  8
ASSEMBLY_REF_DES_TOP
100
AcDbText
 10
3482.8
 20
30514.0
 30
0.0
 40
800.0
  1
X70
  7
ARIAL
 72
         1
 11
4500.0
 21
30930.0
 31
0.0
100
AcDbText
 73
         2
  0
LWPOLYLINE
  5
E9
100
AcDbEntity
  8
BOARD_OUTLINE
100
AcDbPolyline
 90
        4
 70
         1
 10
0.0
 20
0.0
 10
0.0
 20
52000.0
 10
26900.0
 20
52000.0
 10
26900.0
 20
0.0
  0
CIRCLE
  5
EA
100
AcDbEntity
  8
SOLDERMASK_PADS_BTM
100
AcDbCircle
 10
20600.0
 20
48400.0
 30
0.0
 40
800.0
  0
LWPOLYLINE
  5
EB
100
AcDbEntity
  8
SOLDERMASK_PADS_BTM
100
AcDbPolyline
 90
        4
 70
         1
 10
1900.0
 20
6600.0
 10
1900.0
 20
8200.0
 10
3500.0
 20
8200.0
 10
3500.0
 20
6600.0
  0
CIRCLE
  5
EC
100
AcDbEntity
  8
SOLDERMASK_PADS_BTM
100
AcDbCircle
 10
8186.303
 20
10540.0
 30
0.0
 40
140.0
  0
CIRCLE
  5
ED
100
AcDbEntity
  8
SOLDERMASK_PADS_BTM
100
AcDbCircle
 10
4774.217
 20
10071.399
 30
0.0
 40
140.0
  0
CIRCLE
  5
EE
100
AcDbEntity
  8
SOLDERMASK_PADS_BTM
100
AcDbCircle
 10
6261.091
 20
9932.679
 30
0.0
 40
140.0
  0
CIRCLE
  5
EF
100
AcDbEntity
  8
SOLDERMASK_PADS_BTM
100
AcDbCircle
 10
23417.336
 20
7729.241
 30
0.0
 40
140.0
  0
CIRCLE
  5
F0
100
AcDbEntity
  8
SOLDERMASK_PADS_BTM
100
AcDbCircle
 10
23411.567
 20
6254.055
 30
0.0
 40
140.0
  0
CIRCLE
  5
F1
100
AcDbEntity
  8
SOLDERMASK_PADS_BTM
100
AcDbCircle
 10
22531.791
 20
15681.336
 30
0.0
 40
140.0
  0
CIRCLE
  5
F2
100
AcDbEntity
  8
SOLDERMASK_PADS_BTM
100
AcDbCircle
 10
21442.818
 20
42980.611
 30
0.0
 40
140.0
  0
CIRCLE
  5
F3
100
AcDbEntity
  8
SOLDERMASK_PADS_BTM
100
AcDbCircle
 10
11252.256
 20
19010.137
 30
0.0
 40
140.0
  0
CIRCLE
  5
F4
100
AcDbEntity
  8
SOLDERMASK_PADS_BTM
100
AcDbCircle
 10
8307.53
 20
17202.605
 30
0.0
 40
140.0
  0
CIRCLE
  5
F5
100
AcDbEntity
  8
SOLDERMASK_PADS_BTM
100
AcDbCircle
 10
8813.857
 20
50633.004
 30
0.0
 40
140.0
  0
CIRCLE
  5
F6
100
AcDbEntity
  8
SOLDERMASK_PADS_BTM
100
AcDbCircle
 10
8764.222
 20
49160.297
 30
0.0
 40
140.0
  0
CIRCLE
  5
F7
100
AcDbEntity
  8
SOLDERMASK_PADS_BTM
100
AcDbCircle
 10
22291.673
 20
49900.0
 30
0.0
 40
140.0
  0
CIRCLE
  5
F8
100
AcDbEntity
  8
SOLDERMASK_PADS_BTM
100
AcDbCircle
 10
23854.773
 20
49870.633
 30
0.0
 40
140.0
  0
CIRCLE
  5
F9
100
AcDbEntity
  8
SOLDERMASK_PADS_BTM
100
AcDbCircle
 10
8894.639
 20
25179.257
 30
0.0
 40
140.0
  0
CIRCLE
  5
FA
100
AcDbEntity
  8
SOLDERMASK_PADS_BTM
100
AcDbCircle
 10
8925.0
 20
20644.791
 30
0.0
 40
140.0
  0
CIRCLE
  5
FB
100
AcDbEntity
  8
SOLDERMASK_PADS_BTM
100
AcDbCircle
 10
8918.295
 20
23705.561
 30
0.0
 40
140.0
  0
CIRCLE
  5
FC
100
AcDbEntity
  8
SOLDERMASK_PADS_BTM
100
AcDbCircle
 10
8915.814
 20
22703.237
 30
0.0
 40
140.0
  0
CIRCLE
  5
FD
100
AcDbEntity
  8
SOLDERMASK_PADS_BTM
100
AcDbCircle
 10
8833.941
 20
21698.432
 30
0.0
 40
140.0
  0
CIRCLE
  5
FE
100
AcDbEntity
  8
SOLDERMASK_PADS_BTM
100
AcDbCircle
 10
9185.003
 20
29959.035
 30
0.0
 40
140.0
  0
CIRCLE
  5
FF
100
AcDbEntity
  8
SOLDERMASK_PADS_BTM
100
AcDbCircle
 10
7239.464
 20
30027.232
 30
0.0
 40
140.0
  0
CIRCLE
  5
100
100
AcDbEntity
  8
SOLDERMASK_PADS_BTM
100
AcDbCircle
 10
11660.822
 20
30863.64
 30
0.0
 40
140.0
  0
CIRCLE
  5
101
100
AcDbEntity
  8
SOLDERMASK_PADS_BTM
100
AcDbCircle
 10
8813.232
 20
35694.48
 30
0.0
 40
140.0
  0
CIRCLE
  5
102
100
AcDbEntity
  8
SOLDERMASK_PADS_BTM
100
AcDbCircle
 10
11514.016
 20
27385.793
 30
0.0
 40
140.0
  0
CIRCLE
  5
103
100
AcDbEntity
  8
SOLDERMASK_PADS_BTM
100
AcDbCircle
 10
8585.483
 20
32970.254
 30
0.0
 40
140.0
  0
CIRCLE
  5
104
100
AcDbEntity
  8
SOLDERMASK_PADS_BTM
100
AcDbCircle
 10
8771.558
 20
37249.979
 30
0.0
 40
140.0
  0
CIRCLE
  5
105
100
AcDbEntity
  8
SOLDERMASK_PADS_BTM
100
AcDbCircle
 10
8949.474
 20
38649.979
 30
0.0
 40
140.0
  0
CIRCLE
  5
106
100
AcDbEntity
  8
SOLDERMASK_PADS_BTM
100
AcDbCircle
 10
14507.275
 20
31576.96
 30
0.0
 40
140.0
  0
CIRCLE
  5
107
100
AcDbEntity
  8
SOLDERMASK_PADS_BTM
100
AcDbCircle
 10
14622.97
 20
23995.887
 30
0.0
 40
140.0
  0
CIRCLE
  5
108
100
AcDbEntity
  8
SOLDERMASK_PADS_BTM
100
AcDbCircle
 10
7625.0
 20
48300.0
 30
0.0
 40
140.0
  0
CIRCLE
  5
109
100
AcDbEntity
  8
SOLDERMASK_PADS_BTM
100
AcDbCircle
 10
21067.64
 20
15742.025
 30
0.0
 40
140.0
  0
CIRCLE
  5
10A
100
AcDbEntity
  8
SOLDERMASK_PADS_BTM
100
AcDbCircle
 10
18500.0
 20
50225.0
 30
0.0
 40
140.0
  0
CIRCLE
  5
10B
100
AcDbEntity
  8
SOLDERMASK_PADS_BTM
100
AcDbCircle
 10
17450.973
 20
47487.908
 30
0.0
 40
140.0
  0
CIRCLE
  5
10C
100
AcDbEntity
  8
SOLDERMASK_PADS_BTM
100
AcDbCircle
 10
8119.853
 20
44864.721
 30
0.0
 40
140.0
  0
CIRCLE
  5
10D
100
AcDbEntity
  8
SOLDERMASK_PADS_BTM
100
AcDbCircle
 10
19943.133
 20
42956.227
 30
0.0
 40
140.0
  0
CIRCLE
  5
10E
100
AcDbEntity
  8
SOLDERMASK_PADS_BTM
100
AcDbCircle
 10
14264.112
 20
23251.913
 30
0.0
 40
140.0
  0
CIRCLE
  5
10F
100
AcDbEntity
  8
SOLDERMASK_PADS_BTM
100
AcDbCircle
 10
14300.026
 20
35000.0
 30
0.0
 40
140.0
  0
CIRCLE
  5
110
100
AcDbEntity
  8
SOLDERMASK_PADS_BTM
100
AcDbCircle
 10
23400.0
 20
10225.0
 30
0.0
 40
140.0
  0
CIRCLE
  5
111
100
AcDbEntity
  8
SOLDERMASK_PADS_BTM
100
AcDbCircle
 10
21925.0
 20
12405.0
 30
0.0
 40
140.0
  0
CIRCLE
  5
112
100
AcDbEntity
  8
SOLDERMASK_PADS_BTM
100
AcDbCircle
 10
12682.072
 20
16766.134
 30
0.0
 40
140.0
  0
CIRCLE
  5
113
100
AcDbEntity
  8
SOLDERMASK_PADS_BTM
100
AcDbCircle
 10
12983.533
 20
11875.068
 30
0.0
 40
140.0
  0
CIRCLE
  5
114
100
AcDbEntity
  8
SOLDERMASK_PADS_BTM
100
AcDbCircle
 10
11875.0
 20
7975.0
 30
0.0
 40
140.0
  0
CIRCLE
  5
115
100
AcDbEntity
  8
SOLDERMASK_PADS_BTM
100
AcDbCircle
 10
11320.685
 20
10827.397
 30
0.0
 40
140.0
  0
CIRCLE
  5
116
100
AcDbEntity
  8
SOLDERMASK_PADS_BTM
100
AcDbCircle
 10
7230.336
 20
36273.924
 30
0.0
 40
140.0
  0
CIRCLE
  5
117
100
AcDbEntity
  8
SOLDERMASK_PADS_BTM
100
AcDbCircle
 10
13020.0
 20
42052.5
 30
0.0
 40
140.0
  0
CIRCLE
  5
118
100
AcDbEntity
  8
SOLDERMASK_PADS_BTM
100
AcDbCircle
 10
4738.909
 20
9267.321
 30
0.0
 40
140.0
  0
CIRCLE
  5
119
100
AcDbEntity
  8
SOLDERMASK_PADS_BTM
100
AcDbCircle
 10
6225.783
 20
9128.601
 30
0.0
 40
140.0
  0
CIRCLE
  5
11A
100
AcDbEntity
  8
SOLDERMASK_PADS_BTM
100
AcDbCircle
 10
22588.433
 20
7745.945
 30
0.0
 40
140.0
  0
CIRCLE
  5
11B
100
AcDbEntity
  8
SOLDERMASK_PADS_BTM
100
AcDbCircle
 10
22582.664
 20
6270.759
 30
0.0
 40
140.0
  0
CIRCLE
  5
11C
100
AcDbEntity
  8
SOLDERMASK_PADS_BTM
100
AcDbCircle
 10
22532.36
 20
14857.975
 30
0.0
 40
140.0
  0
CIRCLE
  5
11D
100
AcDbEntity
  8
SOLDERMASK_PADS_BTM
100
AcDbCircle
 10
21068.209
 20
14918.664
 30
0.0
 40
140.0
  0
CIRCLE
  5
11E
100
AcDbEntity
  8
SOLDERMASK_PADS_BTM
100
AcDbCircle
 10
21517.326
 20
43777.135
 30
0.0
 40
140.0
  0
CIRCLE
  5
11F
100
AcDbEntity
  8
SOLDERMASK_PADS_BTM
100
AcDbCircle
 10
7906.815
 20
50655.378
 30
0.0
 40
140.0
  0
CIRCLE
  5
120
100
AcDbEntity
  8
SOLDERMASK_PADS_BTM
100
AcDbCircle
 10
7893.391
 20
49160.297
 30
0.0
 40
140.0
  0
CIRCLE
  5
121
100
AcDbEntity
  8
SOLDERMASK_PADS_BTM
100
AcDbCircle
 10
22358.663
 20
49100.0
 30
0.0
 40
140.0
  0
CIRCLE
  5
122
100
AcDbEntity
  8
SOLDERMASK_PADS_BTM
100
AcDbCircle
 10
23832.443
 20
49010.928
 30
0.0
 40
140.0
  0
CIRCLE
  5
123
100
AcDbEntity
  8
SOLDERMASK_PADS_BTM
100
AcDbCircle
 10
8840.548
 20
25977.427
 30
0.0
 40
140.0
  0
CIRCLE
  5
124
100
AcDbEntity
  8
SOLDERMASK_PADS_BTM
100
AcDbCircle
 10
9985.003
 20
30058.275
 30
0.0
 40
140.0
  0
CIRCLE
  5
125
100
AcDbEntity
  8
SOLDERMASK_PADS_BTM
100
AcDbCircle
 10
8039.464
 20
30041.764
 30
0.0
 40
140.0
  0
CIRCLE
  5
126
100
AcDbEntity
  8
SOLDERMASK_PADS_BTM
100
AcDbCircle
 10
10987.486
 20
35175.0
 30
0.0
 40
140.0
  0
CIRCLE
  5
127
100
AcDbEntity
  8
SOLDERMASK_PADS_BTM
100
AcDbCircle
 10
11372.678
 20
33457.91
 30
0.0
 40
140.0
  0
CIRCLE
  5
128
100
AcDbEntity
  8
SOLDERMASK_PADS_BTM
100
AcDbCircle
 10
11292.995
 20
37710.917
 30
0.0
 40
140.0
  0
CIRCLE
  5
129
100
AcDbEntity
  8
SOLDERMASK_PADS_BTM
100
AcDbCircle
 10
10980.389
 20
36310.917
 30
0.0
 40
140.0
  0
CIRCLE
  5
12A
100
AcDbEntity
  8
SOLDERMASK_PADS_BTM
100
AcDbCircle
 10
11378.84
 20
39386.308
 30
0.0
 40
140.0
  0
CIRCLE
  5
12B
100
AcDbEntity
  8
SOLDERMASK_PADS_BTM
100
AcDbCircle
 10
7595.596
 20
47365.386
 30
0.0
 40
140.0
  0
CIRCLE
  5
12C
100
AcDbEntity
  8
SOLDERMASK_PADS_BTM
100
AcDbCircle
 10
9100.0
 20
44828.335
 30
0.0
 40
140.0
  0
CIRCLE
  5
12D
100
AcDbEntity
  8
SOLDERMASK_PADS_BTM
100
AcDbCircle
 10
19944.622
 20
43806.815
 30
0.0
 40
140.0
  0
CIRCLE
  5
12E
100
AcDbEntity
  8
SOLDERMASK_PADS_BTM
100
AcDbCircle
 10
8892.477
 20
19544.791
 30
0.0
 40
140.0
  0
CIRCLE
  5
12F
100
AcDbEntity
  8
SOLDERMASK_PADS_BTM
100
AcDbCircle
 10
11080.362
 20
24538.384
 30
0.0
 40
140.0
  0
CIRCLE
  5
130
100
AcDbEntity
  8
SOLDERMASK_PADS_BTM
100
AcDbCircle
 10
11075.097
 20
25533.469
 30
0.0
 40
140.0
  0
CIRCLE
  5
131
100
AcDbEntity
  8
SOLDERMASK_PADS_BTM
100
AcDbCircle
 10
11130.375
 20
23467.004
 30
0.0
 40
140.0
  0
CIRCLE
  5
132
100
AcDbEntity
  8
SOLDERMASK_PADS_BTM
100
AcDbCircle
 10
11125.11
 20
22571.954
 30
0.0
 40
140.0
  0
CIRCLE
  5
133
100
AcDbEntity
  8
SOLDERMASK_PADS_BTM
100
AcDbCircle
 10
11082.99
 20
21550.544
 30
0.0
 40
140.0
  0
CIRCLE
  5
134
100
AcDbEntity
  8
SOLDERMASK_PADS_BTM
100
AcDbCircle
 10
11082.601
 20
20550.378
 30
0.0
 40
140.0
  0
CIRCLE
  5
135
100
AcDbEntity
  8
SOLDERMASK_PADS_BTM
100
AcDbCircle
 10
13338.25
 20
7236.371
 30
0.0
 40
140.0
  0
CIRCLE
  5
136
100
AcDbEntity
  8
SOLDERMASK_PADS_BTM
100
AcDbCircle
 10
22633.296
 20
8772.936
 30
0.0
 40
140.0
  0
CIRCLE
  5
137
100
AcDbEntity
  8
SOLDERMASK_PADS_BTM
100
AcDbCircle
 10
23400.0
 20
12788.605
 30
0.0
 40
140.0
  0
CIRCLE
  5
138
100
AcDbEntity
  8
SOLDERMASK_PADS_BTM
100
AcDbCircle
 10
12973.021
 20
12675.0
 30
0.0
 40
140.0
  0
CIRCLE
  5
139
100
AcDbEntity
  8
SOLDERMASK_PADS_BTM
100
AcDbCircle
 10
13482.072
 20
16738.251
 30
0.0
 40
140.0
  0
CIRCLE
  5
13A
100
AcDbEntity
  8
SOLDERMASK_PADS_BTM
100
AcDbCircle
 10
11924.687
 20
8775.0
 30
0.0
 40
140.0
  0
CIRCLE
  5
13B
100
AcDbEntity
  8
SOLDERMASK_PADS_BTM
100
AcDbCircle
 10
10232.679
 20
8775.0
 30
0.0
 40
140.0
  0
CIRCLE
  5
13C
100
AcDbEntity
  8
SOLDERMASK_PADS_BTM
100
AcDbCircle
 10
10520.869
 20
10844.58
 30
0.0
 40
140.0
  0
CIRCLE
  5
13D
100
AcDbEntity
  8
SOLDERMASK_PADS_BTM
100
AcDbCircle
 10
12884.696
 20
11022.778
 30
0.0
 40
140.0
  0
CIRCLE
  5
13E
100
AcDbEntity
  8
SOLDERMASK_PADS_BTM
100
AcDbCircle
 10
10301.123
 20
14884.554
 30
0.0
 40
140.0
  0
CIRCLE
  5
13F
100
AcDbEntity
  8
SOLDERMASK_PADS_BTM
100
AcDbCircle
 10
7685.883
 20
15738.963
 30
0.0
 40
140.0
  0
CIRCLE
  5
140
100
AcDbEntity
  8
SOLDERMASK_PADS_BTM
100
AcDbCircle
 10
7271.827
 20
35475.0
 30
0.0
 40
140.0
  0
CIRCLE
  5
141
100
AcDbEntity
  8
SOLDERMASK_PADS_BTM
100
AcDbCircle
 10
9675.0
 20
41700.0
 30
0.0
 40
140.0
  0
CIRCLE
  5
142
100
AcDbEntity
  8
SOLDERMASK_PADS_BTM
100
AcDbCircle
 10
19075.0
 20
43600.0
 30
0.0
 40
140.0
  0
CIRCLE
  5
143
100
AcDbEntity
  8
SOLDERMASK_PADS_BTM
100
AcDbCircle
 10
8600.804
 20
18780.412
 30
0.0
 40
140.0
  0
CIRCLE
  5
144
100
AcDbEntity
  8
SOLDERMASK_PADS_BTM
100
AcDbCircle
 10
20451.769
 20
37541.221
 30
0.0
 40
140.0
  0
CIRCLE
  5
145
100
AcDbEntity
  8
SOLDERMASK_PADS_BTM
100
AcDbCircle
 10
22068.002
 20
10379.196
 30
0.0
 40
140.0
  0
CIRCLE
  5
146
100
AcDbEntity
  8
SOLDERMASK_PADS_BTM
100
AcDbCircle
 10
21910.608
 20
11578.574
 30
0.0
 40
140.0
  0
CIRCLE
  5
147
100
AcDbEntity
  8
SOLDERMASK_PADS_BTM
100
AcDbCircle
 10
17949.458
 20
31679.512
 30
0.0
 40
140.0
  0
CIRCLE
  5
148
100
AcDbEntity
  8
SOLDERMASK_PADS_BTM
100
AcDbCircle
 10
17507.46
 20
34823.185
 30
0.0
 40
140.0
  0
CIRCLE
  5
149
100
AcDbEntity
  8
SOLDERMASK_PADS_BTM
100
AcDbCircle
 10
16692.771
 20
35214.316
 30
0.0
 40
140.0
  0
CIRCLE
  5
14A
100
AcDbEntity
  8
SOLDERMASK_PADS_BTM
100
AcDbCircle
 10
18757.94
 20
34663.497
 30
0.0
 40
140.0
  0
CIRCLE
  5
14B
100
AcDbEntity
  8
SOLDERMASK_PADS_BTM
100
AcDbCircle
 10
17735.986
 20
35923.185
 30
0.0
 40
140.0
  0
CIRCLE
  5
14C
100
AcDbEntity
  8
SOLDERMASK_PADS_BTM
100
AcDbCircle
 10
18143.392
 20
37115.363
 30
0.0
 40
140.0
  0
CIRCLE
  5
14D
100
AcDbEntity
  8
SOLDERMASK_PADS_BTM
100
AcDbCircle
 10
19271.217
 20
32164.794
 30
0.0
 40
140.0
  0
CIRCLE
  5
14E
100
AcDbEntity
  8
SOLDERMASK_PADS_BTM
100
AcDbCircle
 10
20142.4
 20
32077.409
 30
0.0
 40
140.0
  0
CIRCLE
  5
14F
100
AcDbEntity
  8
SOLDERMASK_PADS_BTM
100
AcDbCircle
 10
21057.93
 20
31685.82
 30
0.0
 40
140.0
  0
CIRCLE
  5
150
100
AcDbEntity
  8
SOLDERMASK_PADS_BTM
100
AcDbCircle
 10
20159.762
 20
33320.884
 30
0.0
 40
140.0
  0
CIRCLE
  5
151
100
AcDbEntity
  8
SOLDERMASK_PADS_BTM
100
AcDbCircle
 10
20968.61
 20
32936.3
 30
0.0
 40
140.0
  0
CIRCLE
  5
152
100
AcDbEntity
  8
SOLDERMASK_PADS_BTM
100
AcDbCircle
 10
21314.317
 20
33918.412
 30
0.0
 40
140.0
  0
CIRCLE
  5
153
100
AcDbEntity
  8
SOLDERMASK_PADS_BTM
100
AcDbCircle
 10
16502.61
 20
31015.92
 30
0.0
 40
140.0
  0
CIRCLE
  5
154
100
AcDbEntity
  8
SOLDERMASK_PADS_BTM
100
AcDbCircle
 10
6885.483
 20
33303.506
 30
0.0
 40
140.0
  0
CIRCLE
  5
155
100
AcDbEntity
  8
SOLDERMASK_PADS_BTM
100
AcDbCircle
 10
11663.762
 20
28197.229
 30
0.0
 40
140.0
  0
CIRCLE
  5
156
100
AcDbEntity
  8
SOLDERMASK_PADS_BTM
100
AcDbCircle
 10
11799.468
 20
28997.229
 30
0.0
 40
140.0
  0
CIRCLE
  5
157
100
AcDbEntity
  8
SOLDERMASK_PADS_BTM
100
AcDbCircle
 10
14191.455
 20
29096.154
 30
0.0
 40
140.0
  0
CIRCLE
  5
158
100
AcDbEntity
  8
SOLDERMASK_PADS_BTM
100
AcDbCircle
 10
14766.637
 20
29652.343
 30
0.0
 40
140.0
  0
CIRCLE
  5
159
100
AcDbEntity
  8
SOLDERMASK_PADS_BTM
100
AcDbCircle
 10
15566.637
 20
29618.438
 30
0.0
 40
140.0
  0
CIRCLE
  5
15A
100
AcDbEntity
  8
SOLDERMASK_PADS_BTM
100
AcDbCircle
 10
19467.735
 20
30999.99
 30
0.0
 40
140.0
  0
CIRCLE
  5
15B
100
AcDbEntity
  8
SOLDERMASK_PADS_BTM
100
AcDbCircle
 10
17442.529
 20
30858.623
 30
0.0
 40
140.0
  0
CIRCLE
  5
15C
100
AcDbEntity
  8
SOLDERMASK_PADS_BTM
100
AcDbCircle
 10
20875.699
 20
38270.471
 30
0.0
 40
140.0
  0
CIRCLE
  5
15D
100
AcDbEntity
  8
SOLDERMASK_PADS_BTM
100
AcDbCircle
 10
17492.603
 20
45488.859
 30
0.0
 40
140.0
  0
CIRCLE
  5
15E
100
AcDbEntity
  8
SOLDERMASK_PADS_BTM
100
AcDbCircle
 10
12132.174
 20
18126.967
 30
0.0
 40
140.0
  0
CIRCLE
  5
15F
100
AcDbEntity
  8
SOLDERMASK_PADS_BTM
100
AcDbCircle
 10
18667.735
 20
31167.07
 30
0.0
 40
140.0
  0
CIRCLE
  5
160
100
AcDbEntity
  8
SOLDERMASK_PADS_BTM
100
AcDbCircle
 10
11827.617
 20
25261.965
 30
0.0
 40
140.0
  0
CIRCLE
  5
161
100
AcDbEntity
  8
SOLDERMASK_PADS_BTM
100
AcDbCircle
 10
19425.274
 20
37283.653
 30
0.0
 40
140.0
  0
CIRCLE
  5
162
100
AcDbEntity
  8
SOLDERMASK_PADS_BTM
100
AcDbCircle
 10
19421.894
 20
36474.117
 30
0.0
 40
140.0
  0
CIRCLE
  5
163
100
AcDbEntity
  8
SOLDERMASK_PADS_BTM
100
AcDbCircle
 10
16589.916
 20
30150.796
 30
0.0
 40
140.0
  0
CIRCLE
  5
164
100
AcDbEntity
  8
SOLDERMASK_PADS_BTM
100
AcDbCircle
 10
17284.158
 20
36646.779
 30
0.0
 40
140.0
  0
CIRCLE
  5
165
100
AcDbEntity
  8
SOLDERMASK_PADS_BTM
100
AcDbCircle
 10
8909.525
 20
26775.0
 30
0.0
 40
140.0
  0
CIRCLE
  5
166
100
AcDbEntity
  8
SOLDERMASK_PADS_BTM
100
AcDbCircle
 10
8589.464
 20
30728.731
 30
0.0
 40
140.0
  0
CIRCLE
  5
167
100
AcDbEntity
  8
SOLDERMASK_PADS_BTM
100
AcDbCircle
 10
10973.021
 20
11747.664
 30
0.0
 40
140.0
  0
CIRCLE
  5
168
100
AcDbEntity
  8
SOLDERMASK_PADS_BTM
100
AcDbCircle
 10
7358.666
 20
31477.834
 30
0.0
 40
140.0
  0
CIRCLE
  5
169
100
AcDbEntity
  8
SOLDERMASK_PADS_BTM
100
AcDbCircle
 10
15402.61
 20
30697.965
 30
0.0
 40
140.0
  0
CIRCLE
  5
16A
100
AcDbEntity
  8
SOLDERMASK_PADS_BTM
100
AcDbCircle
 10
2041.159
 20
38737.55
 30
0.0
 40
140.0
  0
CIRCLE
  5
16B
100
AcDbEntity
  8
SOLDERMASK_PADS_BTM
100
AcDbCircle
 10
18677.083
 20
38515.363
 30
0.0
 40
140.0
  0
CIRCLE
  5
16C
100
AcDbEntity
  8
SOLDERMASK_PADS_BTM
100
AcDbCircle
 10
16284.535
 20
20745.708
 30
0.0
 40
140.0
  0
CIRCLE
  5
16D
100
AcDbEntity
  8
SOLDERMASK_PADS_BTM
100
AcDbCircle
 10
12682.072
 20
15195.342
 30
0.0
 40
140.0
  0
CIRCLE
  5
16E
100
AcDbEntity
  8
SOLDERMASK_PADS_BTM
100
AcDbCircle
 10
19308.797
 20
39100.461
 30
0.0
 40
140.0
  0
CIRCLE
  5
16F
100
AcDbEntity
  8
SOLDERMASK_PADS_BTM
100
AcDbCircle
 10
15484.013
 20
19751.913
 30
0.0
 40
140.0
  0
CIRCLE
  5
170
100
AcDbEntity
  8
SOLDERMASK_PADS_BTM
100
AcDbCircle
 10
12173.021
 20
12627.565
 30
0.0
 40
140.0
  0
CIRCLE
  5
171
100
AcDbEntity
  8
SOLDERMASK_PADS_BTM
100
AcDbCircle
 10
20038.299
 20
39811.287
 30
0.0
 40
140.0
  0
CIRCLE
  5
172
100
AcDbEntity
  8
SOLDERMASK_PADS_BTM
100
AcDbCircle
 10
18092.328
 20
39910.509
 30
0.0
 40
140.0
  0
CIRCLE
  5
173
100
AcDbEntity
  8
SOLDERMASK_PADS_BTM
100
AcDbCircle
 10
14900.0
 20
13517.535
 30
0.0
 40
140.0
  0
CIRCLE
  5
174
100
AcDbEntity
  8
SOLDERMASK_PADS_BTM
100
AcDbCircle
 10
16037.959
 20
13543.322
 30
0.0
 40
140.0
  0
CIRCLE
  5
175
100
AcDbEntity
  8
SOLDERMASK_PADS_BTM
100
AcDbCircle
 10
13889.188
 20
14400.0
 30
0.0
 40
140.0
  0
CIRCLE
  5
176
100
AcDbEntity
  8
SOLDERMASK_PADS_BTM
100
AcDbCircle
 10
13904.074
 20
13434.822
 30
0.0
 40
140.0
  0
CIRCLE
  5
177
100
AcDbEntity
  8
SOLDERMASK_PADS_BTM
100
AcDbCircle
 10
8600.804
 20
17946.911
 30
0.0
 40
140.0
  0
LWPOLYLINE
  5
178
100
AcDbEntity
  8
SOLDERMASK_PADS_BTM
100
AcDbPolyline
 90
        4
 70
         1
 10
7897.5
 20
13325.0
 10
7897.5
 20
14325.0
 10
8897.5
 20
14325.0
 10
8897.5
 20
13325.0
  0
LWPOLYLINE
  5
179
100
AcDbEntity
  8
SOLDERMASK_PADS_BTM
100
AcDbPolyline
 90
        4
 70
         1
 10
9797.5
 20
13325.0
 10
9797.5
 20
14325.0
 10
10797.5
 20
14325.0
 10
10797.5
 20
13325.0
  0
LWPOLYLINE
  5
17A
100
AcDbEntity
  8
SOLDERMASK_PADS_BTM
100
AcDbPolyline
 90
        4
 70
         1
 10
8850.0
 20
11420.0
 10
8850.0
 20
12420.0
 10
9850.0
 20
12420.0
 10
9850.0
 20
11420.0
  0
LWPOLYLINE
  5
17B
100
AcDbEntity
  8
SOLDERMASK_PADS_BTM
100
AcDbPolyline
 90
        4
 70
         1
 10
11207.072
 20
16549.251
 10
11207.072
 20
17549.251
 10
12207.072
 20
17549.251
 10
12207.072
 20
16549.251
  0
LWPOLYLINE
  5
17C
100
AcDbEntity
  8
SOLDERMASK_PADS_BTM
100
AcDbPolyline
 90
        4
 70
         1
 10
11207.072
 20
14649.251
 10
11207.072
 20
15649.251
 10
12207.072
 20
15649.251
 10
12207.072
 20
14649.251
  0
LWPOLYLINE
  5
17D
100
AcDbEntity
  8
SOLDERMASK_PADS_BTM
100
AcDbPolyline
 90
        4
 70
         1
 10
9302.072
 20
15596.751
 10
9302.072
 20
16596.751
 10
10302.072
 20
16596.751
 10
10302.072
 20
15596.751
  0
LWPOLYLINE
  5
17E
100
AcDbEntity
  8
SOLDERMASK_PADS_BTM
100
AcDbPolyline
 90
        4
 70
         1
 10
9400.0
 20
30550.0
 10
9400.0
 20
31050.0
 10
9800.0
 20
31050.0
 10
9800.0
 20
30550.0
  0
LWPOLYLINE
  5
17F
100
AcDbEntity
  8
SOLDERMASK_PADS_BTM
100
AcDbPolyline
 90
        4
 70
         1
 10
10200.0
 20
30550.0
 10
10200.0
 20
31050.0
 10
10600.0
 20
31050.0
 10
10600.0
 20
30550.0
  0
LWPOLYLINE
  5
180
100
AcDbEntity
  8
SOLDERMASK_PADS_BTM
100
AcDbPolyline
 90
        4
 70
         1
 10
7770.0
 20
14690.0
 10
7770.0
 20
15190.0
 10
8170.0
 20
15190.0
 10
8170.0
 20
14690.0
  0
LWPOLYLINE
  5
181
100
AcDbEntity
  8
SOLDERMASK_PADS_BTM
100
AcDbPolyline
 90
        4
 70
         1
 10
8570.0
 20
14690.0
 10
8570.0
 20
15190.0
 10
8970.0
 20
15190.0
 10
8970.0
 20
14690.0
  0
LWPOLYLINE
  5
182
100
AcDbEntity
  8
SOLDERMASK_PADS_BTM
100
AcDbPolyline
 90
        4
 70
         1
 10
8680.0
 20
10460.0
 10
8680.0
 20
10960.0
 10
9080.0
 20
10960.0
 10
9080.0
 20
10460.0
  0
LWPOLYLINE
  5
183
100
AcDbEntity
  8
SOLDERMASK_PADS_BTM
100
AcDbPolyline
 90
        4
 70
         1
 10
9480.0
 20
10460.0
 10
9480.0
 20
10960.0
 10
9880.0
 20
10960.0
 10
9880.0
 20
10460.0
  0
LWPOLYLINE
  5
184
100
AcDbEntity
  8
SOLDERMASK_PADS_BTM
100
AcDbPolyline
 90
        4
 70
         1
 10
9300.0
 20
35450.0
 10
9300.0
 20
35950.0
 10
9700.0
 20
35950.0
 10
9700.0
 20
35450.0
  0
LWPOLYLINE
  5
185
100
AcDbEntity
  8
SOLDERMASK_PADS_BTM
100
AcDbPolyline
 90
        4
 70
         1
 10
10100.0
 20
35450.0
 10
10100.0
 20
35950.0
 10
10500.0
 20
35950.0
 10
10500.0
 20
35450.0
  0
LWPOLYLINE
  5
186
100
AcDbEntity
  8
SOLDERMASK_PADS_BTM
100
AcDbPolyline
 90
        4
 70
         1
 10
9300.0
 20
34450.0
 10
9300.0
 20
34950.0
 10
9700.0
 20
34950.0
 10
9700.0
 20
34450.0
  0
LWPOLYLINE
  5
187
100
AcDbEntity
  8
SOLDERMASK_PADS_BTM
100
AcDbPolyline
 90
        4
 70
         1
 10
10100.0
 20
34450.0
 10
10100.0
 20
34950.0
 10
10500.0
 20
34950.0
 10
10500.0
 20
34450.0
  0
LWPOLYLINE
  5
188
100
AcDbEntity
  8
SOLDERMASK_PADS_BTM
100
AcDbPolyline
 90
        4
 70
         1
 10
9300.0
 20
33450.0
 10
9300.0
 20
33950.0
 10
9700.0
 20
33950.0
 10
9700.0
 20
33450.0
  0
LWPOLYLINE
  5
189
100
AcDbEntity
  8
SOLDERMASK_PADS_BTM
100
AcDbPolyline
 90
        4
 70
         1
 10
10100.0
 20
33450.0
 10
10100.0
 20
33950.0
 10
10500.0
 20
33950.0
 10
10500.0
 20
33450.0
  0
LWPOLYLINE
  5
18A
100
AcDbEntity
  8
SOLDERMASK_PADS_BTM
100
AcDbPolyline
 90
        4
 70
         1
 10
9300.0
 20
32450.0
 10
9300.0
 20
32950.0
 10
9700.0
 20
32950.0
 10
9700.0
 20
32450.0
  0
LWPOLYLINE
  5
18B
100
AcDbEntity
  8
SOLDERMASK_PADS_BTM
100
AcDbPolyline
 90
        4
 70
         1
 10
10100.0
 20
32450.0
 10
10100.0
 20
32950.0
 10
10500.0
 20
32950.0
 10
10500.0
 20
32450.0
  0
LWPOLYLINE
  5
18C
100
AcDbEntity
  8
SOLDERMASK_PADS_BTM
100
AcDbPolyline
 90
        4
 70
         1
 10
9300.0
 20
36450.0
 10
9300.0
 20
36950.0
 10
9700.0
 20
36950.0
 10
9700.0
 20
36450.0
  0
LWPOLYLINE
  5
18D
100
AcDbEntity
  8
SOLDERMASK_PADS_BTM
100
AcDbPolyline
 90
        4
 70
         1
 10
10100.0
 20
36450.0
 10
10100.0
 20
36950.0
 10
10500.0
 20
36950.0
 10
10500.0
 20
36450.0
  0
LWPOLYLINE
  5
18E
100
AcDbEntity
  8
SOLDERMASK_PADS_BTM
100
AcDbPolyline
 90
        4
 70
         1
 10
9300.0
 20
37450.0
 10
9300.0
 20
37950.0
 10
9700.0
 20
37950.0
 10
9700.0
 20
37450.0
  0
LWPOLYLINE
  5
18F
100
AcDbEntity
  8
SOLDERMASK_PADS_BTM
100
AcDbPolyline
 90
        4
 70
         1
 10
10100.0
 20
37450.0
 10
10100.0
 20
37950.0
 10
10500.0
 20
37950.0
 10
10500.0
 20
37450.0
  0
LWPOLYLINE
  5
190
100
AcDbEntity
  8
SOLDERMASK_PADS_BTM
100
AcDbPolyline
 90
        4
 70
         1
 10
12300.0
 20
38885.0
 10
12300.0
 20
39115.0
 10
13700.0
 20
39115.0
 10
13700.0
 20
38885.0
  0
LWPOLYLINE
  5
191
100
AcDbEntity
  8
SOLDERMASK_PADS_BTM
100
AcDbPolyline
 90
        4
 70
         1
 10
12300.0
 20
38385.0
 10
12300.0
 20
38615.0
 10
13700.0
 20
38615.0
 10
13700.0
 20
38385.0
  0
LWPOLYLINE
  5
192
100
AcDbEntity
  8
SOLDERMASK_PADS_BTM
100
AcDbPolyline
 90
        4
 70
         1
 10
12300.0
 20
37885.0
 10
12300.0
 20
38115.0
 10
13700.0
 20
38115.0
 10
13700.0
 20
37885.0
  0
LWPOLYLINE
  5
193
100
AcDbEntity
  8
SOLDERMASK_PADS_BTM
100
AcDbPolyline
 90
        4
 70
         1
 10
12300.0
 20
37385.0
 10
12300.0
 20
37615.0
 10
13700.0
 20
37615.0
 10
13700.0
 20
37385.0
  0
LWPOLYLINE
  5
194
100
AcDbEntity
  8
SOLDERMASK_PADS_BTM
100
AcDbPolyline
 90
        4
 70
         1
 10
12300.0
 20
36885.0
 10
12300.0
 20
37115.0
 10
13700.0
 20
37115.0
 10
13700.0
 20
36885.0
  0
LWPOLYLINE
  5
195
100
AcDbEntity
  8
SOLDERMASK_PADS_BTM
100
AcDbPolyline
 90
        4
 70
         1
 10
12300.0
 20
36385.0
 10
12300.0
 20
36615.0
 10
13700.0
 20
36615.0
 10
13700.0
 20
36385.0
  0
LWPOLYLINE
  5
196
100
AcDbEntity
  8
SOLDERMASK_PADS_BTM
100
AcDbPolyline
 90
        4
 70
         1
 10
12300.0
 20
35885.0
 10
12300.0
 20
36115.0
 10
13700.0
 20
36115.0
 10
13700.0
 20
35885.0
  0
LWPOLYLINE
  5
197
100
AcDbEntity
  8
SOLDERMASK_PADS_BTM
100
AcDbPolyline
 90
        4
 70
         1
 10
12300.0
 20
35385.0
 10
12300.0
 20
35615.0
 10
13700.0
 20
35615.0
 10
13700.0
 20
35385.0
  0
LWPOLYLINE
  5
198
100
AcDbEntity
  8
SOLDERMASK_PADS_BTM
100
AcDbPolyline
 90
        4
 70
         1
 10
12300.0
 20
34885.0
 10
12300.0
 20
35115.0
 10
13700.0
 20
35115.0
 10
13700.0
 20
34885.0
  0
LWPOLYLINE
  5
199
100
AcDbEntity
  8
SOLDERMASK_PADS_BTM
100
AcDbPolyline
 90
        4
 70
         1
 10
12300.0
 20
34385.0
 10
12300.0
 20
34615.0
 10
13700.0
 20
34615.0
 10
13700.0
 20
34385.0
  0
LWPOLYLINE
  5
19A
100
AcDbEntity
  8
SOLDERMASK_PADS_BTM
100
AcDbPolyline
 90
        4
 70
         1
 10
12300.0
 20
33885.0
 10
12300.0
 20
34115.0
 10
13700.0
 20
34115.0
 10
13700.0
 20
33885.0
  0
LWPOLYLINE
  5
19B
100
AcDbEntity
  8
SOLDERMASK_PADS_BTM
100
AcDbPolyline
 90
        4
 70
         1
 10
12300.0
 20
33385.0
 10
12300.0
 20
33615.0
 10
13700.0
 20
33615.0
 10
13700.0
 20
33385.0
  0
LWPOLYLINE
  5
19C
100
AcDbEntity
  8
SOLDERMASK_PADS_BTM
100
AcDbPolyline
 90
        4
 70
         1
 10
12300.0
 20
32885.0
 10
12300.0
 20
33115.0
 10
13700.0
 20
33115.0
 10
13700.0
 20
32885.0
  0
LWPOLYLINE
  5
19D
100
AcDbEntity
  8
SOLDERMASK_PADS_BTM
100
AcDbPolyline
 90
        4
 70
         1
 10
12300.0
 20
32385.0
 10
12300.0
 20
32615.0
 10
13700.0
 20
32615.0
 10
13700.0
 20
32385.0
  0
LWPOLYLINE
  5
19E
100
AcDbEntity
  8
SOLDERMASK_PADS_BTM
100
AcDbPolyline
 90
        4
 70
         1
 10
12300.0
 20
31885.0
 10
12300.0
 20
32115.0
 10
13700.0
 20
32115.0
 10
13700.0
 20
31885.0
  0
LWPOLYLINE
  5
19F
100
AcDbEntity
  8
SOLDERMASK_PADS_BTM
100
AcDbPolyline
 90
        4
 70
         1
 10
12300.0
 20
31385.0
 10
12300.0
 20
31615.0
 10
13700.0
 20
31615.0
 10
13700.0
 20
31385.0
  0
LWPOLYLINE
  5
1A0
100
AcDbEntity
  8
SOLDERMASK_PADS_BTM
100
AcDbPolyline
 90
        4
 70
         1
 10
12300.0
 20
30885.0
 10
12300.0
 20
31115.0
 10
13700.0
 20
31115.0
 10
13700.0
 20
30885.0
  0
LWPOLYLINE
  5
1A1
100
AcDbEntity
  8
SOLDERMASK_PADS_BTM
100
AcDbPolyline
 90
        4
 70
         1
 10
12300.0
 20
30385.0
 10
12300.0
 20
30615.0
 10
13700.0
 20
30615.0
 10
13700.0
 20
30385.0
  0
LWPOLYLINE
  5
1A2
100
AcDbEntity
  8
SOLDERMASK_PADS_BTM
100
AcDbPolyline
 90
        4
 70
         1
 10
12300.0
 20
29885.0
 10
12300.0
 20
30115.0
 10
13700.0
 20
30115.0
 10
13700.0
 20
29885.0
  0
LWPOLYLINE
  5
1A3
100
AcDbEntity
  8
SOLDERMASK_PADS_BTM
100
AcDbPolyline
 90
        4
 70
         1
 10
12300.0
 20
29385.0
 10
12300.0
 20
29615.0
 10
13700.0
 20
29615.0
 10
13700.0
 20
29385.0
  0
LWPOLYLINE
  5
1A4
100
AcDbEntity
  8
SOLDERMASK_PADS_BTM
100
AcDbPolyline
 90
        4
 70
         1
 10
12300.0
 20
28885.0
 10
12300.0
 20
29115.0
 10
13700.0
 20
29115.0
 10
13700.0
 20
28885.0
  0
LWPOLYLINE
  5
1A5
100
AcDbEntity
  8
SOLDERMASK_PADS_BTM
100
AcDbPolyline
 90
        4
 70
         1
 10
12300.0
 20
28385.0
 10
12300.0
 20
28615.0
 10
13700.0
 20
28615.0
 10
13700.0
 20
28385.0
  0
LWPOLYLINE
  5
1A6
100
AcDbEntity
  8
SOLDERMASK_PADS_BTM
100
AcDbPolyline
 90
        4
 70
         1
 10
12300.0
 20
27885.0
 10
12300.0
 20
28115.0
 10
13700.0
 20
28115.0
 10
13700.0
 20
27885.0
  0
LWPOLYLINE
  5
1A7
100
AcDbEntity
  8
SOLDERMASK_PADS_BTM
100
AcDbPolyline
 90
        4
 70
         1
 10
12300.0
 20
27385.0
 10
12300.0
 20
27615.0
 10
13700.0
 20
27615.0
 10
13700.0
 20
27385.0
  0
LWPOLYLINE
  5
1A8
100
AcDbEntity
  8
SOLDERMASK_PADS_BTM
100
AcDbPolyline
 90
        4
 70
         1
 10
12300.0
 20
26885.0
 10
12300.0
 20
27115.0
 10
13700.0
 20
27115.0
 10
13700.0
 20
26885.0
  0
LWPOLYLINE
  5
1A9
100
AcDbEntity
  8
SOLDERMASK_PADS_BTM
100
AcDbPolyline
 90
        4
 70
         1
 10
12300.0
 20
26385.0
 10
12300.0
 20
26615.0
 10
13700.0
 20
26615.0
 10
13700.0
 20
26385.0
  0
LWPOLYLINE
  5
1AA
100
AcDbEntity
  8
SOLDERMASK_PADS_BTM
100
AcDbPolyline
 90
        4
 70
         1
 10
12300.0
 20
25885.0
 10
12300.0
 20
26115.0
 10
13700.0
 20
26115.0
 10
13700.0
 20
25885.0
  0
LWPOLYLINE
  5
1AB
100
AcDbEntity
  8
SOLDERMASK_PADS_BTM
100
AcDbPolyline
 90
        4
 70
         1
 10
12300.0
 20
25385.0
 10
12300.0
 20
25615.0
 10
13700.0
 20
25615.0
 10
13700.0
 20
25385.0
  0
LWPOLYLINE
  5
1AC
100
AcDbEntity
  8
SOLDERMASK_PADS_BTM
100
AcDbPolyline
 90
        4
 70
         1
 10
12300.0
 20
24885.0
 10
12300.0
 20
25115.0
 10
13700.0
 20
25115.0
 10
13700.0
 20
24885.0
  0
LWPOLYLINE
  5
1AD
100
AcDbEntity
  8
SOLDERMASK_PADS_BTM
100
AcDbPolyline
 90
        4
 70
         1
 10
12300.0
 20
24385.0
 10
12300.0
 20
24615.0
 10
13700.0
 20
24615.0
 10
13700.0
 20
24385.0
  0
LWPOLYLINE
  5
1AE
100
AcDbEntity
  8
SOLDERMASK_PADS_BTM
100
AcDbPolyline
 90
        4
 70
         1
 10
12300.0
 20
23885.0
 10
12300.0
 20
24115.0
 10
13700.0
 20
24115.0
 10
13700.0
 20
23885.0
  0
LWPOLYLINE
  5
1AF
100
AcDbEntity
  8
SOLDERMASK_PADS_BTM
100
AcDbPolyline
 90
        4
 70
         1
 10
12300.0
 20
23385.0
 10
12300.0
 20
23615.0
 10
13700.0
 20
23615.0
 10
13700.0
 20
23385.0
  0
LWPOLYLINE
  5
1B0
100
AcDbEntity
  8
SOLDERMASK_PADS_BTM
100
AcDbPolyline
 90
        4
 70
         1
 10
12300.0
 20
22885.0
 10
12300.0
 20
23115.0
 10
13700.0
 20
23115.0
 10
13700.0
 20
22885.0
  0
LWPOLYLINE
  5
1B1
100
AcDbEntity
  8
SOLDERMASK_PADS_BTM
100
AcDbPolyline
 90
        4
 70
         1
 10
12300.0
 20
22385.0
 10
12300.0
 20
22615.0
 10
13700.0
 20
22615.0
 10
13700.0
 20
22385.0
  0
LWPOLYLINE
  5
1B2
100
AcDbEntity
  8
SOLDERMASK_PADS_BTM
100
AcDbPolyline
 90
        4
 70
         1
 10
12300.0
 20
21885.0
 10
12300.0
 20
22115.0
 10
13700.0
 20
22115.0
 10
13700.0
 20
21885.0
  0
LWPOLYLINE
  5
1B3
100
AcDbEntity
  8
SOLDERMASK_PADS_BTM
100
AcDbPolyline
 90
        4
 70
         1
 10
12300.0
 20
21385.0
 10
12300.0
 20
21615.0
 10
13700.0
 20
21615.0
 10
13700.0
 20
21385.0
  0
LWPOLYLINE
  5
1B4
100
AcDbEntity
  8
SOLDERMASK_PADS_BTM
100
AcDbPolyline
 90
        4
 70
         1
 10
12300.0
 20
20885.0
 10
12300.0
 20
21115.0
 10
13700.0
 20
21115.0
 10
13700.0
 20
20885.0
  0
LWPOLYLINE
  5
1B5
100
AcDbEntity
  8
SOLDERMASK_PADS_BTM
100
AcDbPolyline
 90
        4
 70
         1
 10
12300.0
 20
20385.0
 10
12300.0
 20
20615.0
 10
13700.0
 20
20615.0
 10
13700.0
 20
20385.0
  0
LWPOLYLINE
  5
1B6
100
AcDbEntity
  8
SOLDERMASK_PADS_BTM
100
AcDbPolyline
 90
        4
 70
         1
 10
12300.0
 20
19885.0
 10
12300.0
 20
20115.0
 10
13700.0
 20
20115.0
 10
13700.0
 20
19885.0
  0
LWPOLYLINE
  5
1B7
100
AcDbEntity
  8
SOLDERMASK_PADS_BTM
100
AcDbPolyline
 90
        4
 70
         1
 10
12300.0
 20
19385.0
 10
12300.0
 20
19615.0
 10
13700.0
 20
19615.0
 10
13700.0
 20
19385.0
  0
LWPOLYLINE
  5
1B8
100
AcDbEntity
  8
SOLDERMASK_PADS_BTM
100
AcDbPolyline
 90
        4
 70
         1
 10
15400.0
 20
39900.0
 10
15400.0
 20
42300.0
 10
17200.0
 20
42300.0
 10
17200.0
 20
39900.0
  0
LWPOLYLINE
  5
1B9
100
AcDbEntity
  8
SOLDERMASK_PADS_BTM
100
AcDbPolyline
 90
        4
 70
         1
 10
15400.0
 20
16200.0
 10
15400.0
 20
18600.0
 10
17200.0
 20
18600.0
 10
17200.0
 20
16200.0
  0
CIRCLE
  5
1BA
100
AcDbEntity
  8
SOLDERMASK_PADS_BTM
100
AcDbCircle
 10
6700.0
 20
3400.0
 30
0.0
 40
625.0
  0
CIRCLE
  5
1BB
100
AcDbEntity
  8
SOLDERMASK_PADS_BTM
100
AcDbCircle
 10
6700.0
 20
5400.0
 30
0.0
 40
625.0
  0
CIRCLE
  5
1BC
100
AcDbEntity
  8
SOLDERMASK_PADS_BTM
100
AcDbCircle
 10
8700.0
 20
3400.0
 30
0.0
 40
625.0
  0
CIRCLE
  5
1BD
100
AcDbEntity
  8
SOLDERMASK_PADS_BTM
100
AcDbCircle
 10
8700.0
 20
5400.0
 30
0.0
 40
625.0
  0
CIRCLE
  5
1BE
100
AcDbEntity
  8
SOLDERMASK_PADS_BTM
100
AcDbCircle
 10
10700.0
 20
3400.0
 30
0.0
 40
625.0
  0
CIRCLE
  5
1BF
100
AcDbEntity
  8
SOLDERMASK_PADS_BTM
100
AcDbCircle
 10
10700.0
 20
5400.0
 30
0.0
 40
625.0
  0
CIRCLE
  5
1C0
100
AcDbEntity
  8
SOLDERMASK_PADS_BTM
100
AcDbCircle
 10
12700.0
 20
3400.0
 30
0.0
 40
625.0
  0
CIRCLE
  5
1C1
100
AcDbEntity
  8
SOLDERMASK_PADS_BTM
100
AcDbCircle
 10
12700.0
 20
5400.0
 30
0.0
 40
625.0
  0
CIRCLE
  5
1C2
100
AcDbEntity
  8
SOLDERMASK_PADS_BTM
100
AcDbCircle
 10
14700.0
 20
3400.0
 30
0.0
 40
625.0
  0
CIRCLE
  5
1C3
100
AcDbEntity
  8
SOLDERMASK_PADS_BTM
100
AcDbCircle
 10
14700.0
 20
5400.0
 30
0.0
 40
625.0
  0
CIRCLE
  5
1C4
100
AcDbEntity
  8
SOLDERMASK_PADS_BTM
100
AcDbCircle
 10
16700.0
 20
3400.0
 30
0.0
 40
625.0
  0
CIRCLE
  5
1C5
100
AcDbEntity
  8
SOLDERMASK_PADS_BTM
100
AcDbCircle
 10
16700.0
 20
5400.0
 30
0.0
 40
625.0
  0
CIRCLE
  5
1C6
100
AcDbEntity
  8
SOLDERMASK_PADS_BTM
100
AcDbCircle
 10
18700.0
 20
3400.0
 30
0.0
 40
625.0
  0
CIRCLE
  5
1C7
100
AcDbEntity
  8
SOLDERMASK_PADS_BTM
100
AcDbCircle
 10
18700.0
 20
5400.0
 30
0.0
 40
625.0
  0
CIRCLE
  5
1C8
100
AcDbEntity
  8
SOLDERMASK_PADS_BTM
100
AcDbCircle
 10
20700.0
 20
3400.0
 30
0.0
 40
625.0
  0
CIRCLE
  5
1C9
100
AcDbEntity
  8
SOLDERMASK_PADS_BTM
100
AcDbCircle
 10
20700.0
 20
5400.0
 30
0.0
 40
625.0
  0
CIRCLE
  5
1CA
100
AcDbEntity
  8
SOLDERMASK_PADS_BTM
100
AcDbCircle
 10
24000.0
 20
45000.0
 30
0.0
 40
2000.0
  0
CIRCLE
  5
1CB
100
AcDbEntity
  8
SOLDERMASK_PADS_BTM
100
AcDbCircle
 10
24000.0
 20
3000.0
 30
0.0
 40
2000.0
  0
CIRCLE
  5
1CC
100
AcDbEntity
  8
SOLDERMASK_PADS_BTM
100
AcDbCircle
 10
2800.0
 20
3000.0
 30
0.0
 40
2000.0
  0
CIRCLE
  5
1CD
100
AcDbEntity
  8
SOLDERMASK_PADS_BTM
100
AcDbCircle
 10
5500.0
 20
11930.0
 30
0.0
 40
625.0
  0
CIRCLE
  5
1CE
100
AcDbEntity
  8
SOLDERMASK_PADS_BTM
100
AcDbCircle
 10
3500.0
 20
11930.0
 30
0.0
 40
625.0
  0
CIRCLE
  5
1CF
100
AcDbEntity
  8
SOLDERMASK_PADS_BTM
100
AcDbCircle
 10
5500.0
 20
13930.0
 30
0.0
 40
625.0
  0
CIRCLE
  5
1D0
100
AcDbEntity
  8
SOLDERMASK_PADS_BTM
100
AcDbCircle
 10
3500.0
 20
13930.0
 30
0.0
 40
625.0
  0
CIRCLE
  5
1D1
100
AcDbEntity
  8
SOLDERMASK_PADS_BTM
100
AcDbCircle
 10
5500.0
 20
15930.0
 30
0.0
 40
625.0
  0
CIRCLE
  5
1D2
100
AcDbEntity
  8
SOLDERMASK_PADS_BTM
100
AcDbCircle
 10
3500.0
 20
15930.0
 30
0.0
 40
625.0
  0
CIRCLE
  5
1D3
100
AcDbEntity
  8
SOLDERMASK_PADS_BTM
100
AcDbCircle
 10
5500.0
 20
17930.0
 30
0.0
 40
625.0
  0
CIRCLE
  5
1D4
100
AcDbEntity
  8
SOLDERMASK_PADS_BTM
100
AcDbCircle
 10
3500.0
 20
17930.0
 30
0.0
 40
625.0
  0
CIRCLE
  5
1D5
100
AcDbEntity
  8
SOLDERMASK_PADS_BTM
100
AcDbCircle
 10
5500.0
 20
19930.0
 30
0.0
 40
625.0
  0
CIRCLE
  5
1D6
100
AcDbEntity
  8
SOLDERMASK_PADS_BTM
100
AcDbCircle
 10
3500.0
 20
19930.0
 30
0.0
 40
625.0
  0
CIRCLE
  5
1D7
100
AcDbEntity
  8
SOLDERMASK_PADS_BTM
100
AcDbCircle
 10
5500.0
 20
21930.0
 30
0.0
 40
625.0
  0
CIRCLE
  5
1D8
100
AcDbEntity
  8
SOLDERMASK_PADS_BTM
100
AcDbCircle
 10
3500.0
 20
21930.0
 30
0.0
 40
625.0
  0
CIRCLE
  5
1D9
100
AcDbEntity
  8
SOLDERMASK_PADS_BTM
100
AcDbCircle
 10
5500.0
 20
23930.0
 30
0.0
 40
625.0
  0
CIRCLE
  5
1DA
100
AcDbEntity
  8
SOLDERMASK_PADS_BTM
100
AcDbCircle
 10
3500.0
 20
23930.0
 30
0.0
 40
625.0
  0
CIRCLE
  5
1DB
100
AcDbEntity
  8
SOLDERMASK_PADS_BTM
100
AcDbCircle
 10
5500.0
 20
25930.0
 30
0.0
 40
625.0
  0
CIRCLE
  5
1DC
100
AcDbEntity
  8
SOLDERMASK_PADS_BTM
100
AcDbCircle
 10
3500.0
 20
25930.0
 30
0.0
 40
625.0
  0
CIRCLE
  5
1DD
100
AcDbEntity
  8
SOLDERMASK_PADS_BTM
100
AcDbCircle
 10
5500.0
 20
27930.0
 30
0.0
 40
625.0
  0
CIRCLE
  5
1DE
100
AcDbEntity
  8
SOLDERMASK_PADS_BTM
100
AcDbCircle
 10
3500.0
 20
27930.0
 30
0.0
 40
625.0
  0
CIRCLE
  5
1DF
100
AcDbEntity
  8
SOLDERMASK_PADS_BTM
100
AcDbCircle
 10
5500.0
 20
29930.0
 30
0.0
 40
625.0
  0
CIRCLE
  5
1E0
100
AcDbEntity
  8
SOLDERMASK_PADS_BTM
100
AcDbCircle
 10
3500.0
 20
29930.0
 30
0.0
 40
625.0
  0
CIRCLE
  5
1E1
100
AcDbEntity
  8
SOLDERMASK_PADS_BTM
100
AcDbCircle
 10
5500.0
 20
31930.0
 30
0.0
 40
625.0
  0
CIRCLE
  5
1E2
100
AcDbEntity
  8
SOLDERMASK_PADS_BTM
100
AcDbCircle
 10
3500.0
 20
31930.0
 30
0.0
 40
625.0
  0
CIRCLE
  5
1E3
100
AcDbEntity
  8
SOLDERMASK_PADS_BTM
100
AcDbCircle
 10
5500.0
 20
33930.0
 30
0.0
 40
625.0
  0
CIRCLE
  5
1E4
100
AcDbEntity
  8
SOLDERMASK_PADS_BTM
100
AcDbCircle
 10
3500.0
 20
33930.0
 30
0.0
 40
625.0
  0
CIRCLE
  5
1E5
100
AcDbEntity
  8
SOLDERMASK_PADS_BTM
100
AcDbCircle
 10
5500.0
 20
35930.0
 30
0.0
 40
625.0
  0
CIRCLE
  5
1E6
100
AcDbEntity
  8
SOLDERMASK_PADS_BTM
100
AcDbCircle
 10
3500.0
 20
35930.0
 30
0.0
 40
625.0
  0
CIRCLE
  5
1E7
100
AcDbEntity
  8
SOLDERMASK_PADS_BTM
100
AcDbCircle
 10
5500.0
 20
37930.0
 30
0.0
 40
625.0
  0
CIRCLE
  5
1E8
100
AcDbEntity
  8
SOLDERMASK_PADS_BTM
100
AcDbCircle
 10
3500.0
 20
37930.0
 30
0.0
 40
625.0
  0
CIRCLE
  5
1E9
100
AcDbEntity
  8
SOLDERMASK_PADS_BTM
100
AcDbCircle
 10
5500.0
 20
39930.0
 30
0.0
 40
625.0
  0
CIRCLE
  5
1EA
100
AcDbEntity
  8
SOLDERMASK_PADS_BTM
100
AcDbCircle
 10
3500.0
 20
39930.0
 30
0.0
 40
625.0
  0
CIRCLE
  5
1EB
100
AcDbEntity
  8
SOLDERMASK_PADS_BTM
100
AcDbCircle
 10
5500.0
 20
41930.0
 30
0.0
 40
625.0
  0
CIRCLE
  5
1EC
100
AcDbEntity
  8
SOLDERMASK_PADS_BTM
100
AcDbCircle
 10
3500.0
 20
41930.0
 30
0.0
 40
625.0
  0
CIRCLE
  5
1ED
100
AcDbEntity
  8
SOLDERMASK_PADS_BTM
100
AcDbCircle
 10
5500.0
 20
43930.0
 30
0.0
 40
625.0
  0
CIRCLE
  5
1EE
100
AcDbEntity
  8
SOLDERMASK_PADS_BTM
100
AcDbCircle
 10
3500.0
 20
43930.0
 30
0.0
 40
625.0
  0
CIRCLE
  5
1EF
100
AcDbEntity
  8
SOLDERMASK_PADS_BTM
100
AcDbCircle
 10
5500.0
 20
45930.0
 30
0.0
 40
625.0
  0
CIRCLE
  5
1F0
100
AcDbEntity
  8
SOLDERMASK_PADS_BTM
100
AcDbCircle
 10
3500.0
 20
45930.0
 30
0.0
 40
625.0
  0
CIRCLE
  5
1F1
100
AcDbEntity
  8
SOLDERMASK_PADS_BTM
100
AcDbCircle
 10
5500.0
 20
47930.0
 30
0.0
 40
625.0
  0
CIRCLE
  5
1F2
100
AcDbEntity
  8
SOLDERMASK_PADS_BTM
100
AcDbCircle
 10
3500.0
 20
47930.0
 30
0.0
 40
625.0
  0
CIRCLE
  5
1F3
100
AcDbEntity
  8
SOLDERMASK_PADS_BTM
100
AcDbCircle
 10
5500.0
 20
49930.0
 30
0.0
 40
625.0
  0
CIRCLE
  5
1F4
100
AcDbEntity
  8
SOLDERMASK_PADS_BTM
100
AcDbCircle
 10
3500.0
 20
49930.0
 30
0.0
 40
625.0
  0
LWPOLYLINE
  5
1F5
100
AcDbEntity
  8
SOLDERMASK_PADS_TOP
100
AcDbPolyline
 90
        4
 70
         1
 10
20100.0
 20
47600.0
 10
20100.0
 20
49200.0
 10
21700.0
 20
49200.0
 10
21700.0
 20
47600.0
  0
CIRCLE
  5
1F6
100
AcDbEntity
  8
SOLDERMASK_PADS_TOP
100
AcDbCircle
 10
2700.0
 20
7400.0
 30
0.0
 40
800.0
  0
CIRCLE
  5
1F7
100
AcDbEntity
  8
SOLDERMASK_PADS_TOP
100
AcDbCircle
 10
8186.303
 20
10540.0
 30
0.0
 40
140.0
  0
CIRCLE
  5
1F8
100
AcDbEntity
  8
SOLDERMASK_PADS_TOP
100
AcDbCircle
 10
4774.217
 20
10071.399
 30
0.0
 40
140.0
  0
CIRCLE
  5
1F9
100
AcDbEntity
  8
SOLDERMASK_PADS_TOP
100
AcDbCircle
 10
6261.091
 20
9932.679
 30
0.0
 40
140.0
  0
CIRCLE
  5
1FA
100
AcDbEntity
  8
SOLDERMASK_PADS_TOP
100
AcDbCircle
 10
23417.336
 20
7729.241
 30
0.0
 40
140.0
  0
CIRCLE
  5
1FB
100
AcDbEntity
  8
SOLDERMASK_PADS_TOP
100
AcDbCircle
 10
23411.567
 20
6254.055
 30
0.0
 40
140.0
  0
CIRCLE
  5
1FC
100
AcDbEntity
  8
SOLDERMASK_PADS_TOP
100
AcDbCircle
 10
22531.791
 20
15681.336
 30
0.0
 40
140.0
  0
CIRCLE
  5
1FD
100
AcDbEntity
  8
SOLDERMASK_PADS_TOP
100
AcDbCircle
 10
21442.818
 20
42980.611
 30
0.0
 40
140.0
  0
CIRCLE
  5
1FE
100
AcDbEntity
  8
SOLDERMASK_PADS_TOP
100
AcDbCircle
 10
11252.256
 20
19010.137
 30
0.0
 40
140.0
  0
CIRCLE
  5
1FF
100
AcDbEntity
  8
SOLDERMASK_PADS_TOP
100
AcDbCircle
 10
8307.53
 20
17202.605
 30
0.0
 40
140.0
  0
CIRCLE
  5
200
100
AcDbEntity
  8
SOLDERMASK_PADS_TOP
100
AcDbCircle
 10
8813.857
 20
50633.004
 30
0.0
 40
140.0
  0
CIRCLE
  5
201
100
AcDbEntity
  8
SOLDERMASK_PADS_TOP
100
AcDbCircle
 10
8764.222
 20
49160.297
 30
0.0
 40
140.0
  0
CIRCLE
  5
202
100
AcDbEntity
  8
SOLDERMASK_PADS_TOP
100
AcDbCircle
 10
22291.673
 20
49900.0
 30
0.0
 40
140.0
  0
CIRCLE
  5
203
100
AcDbEntity
  8
SOLDERMASK_PADS_TOP
100
AcDbCircle
 10
23854.773
 20
49870.633
 30
0.0
 40
140.0
  0
CIRCLE
  5
204
100
AcDbEntity
  8
SOLDERMASK_PADS_TOP
100
AcDbCircle
 10
8894.639
 20
25179.257
 30
0.0
 40
140.0
  0
CIRCLE
  5
205
100
AcDbEntity
  8
SOLDERMASK_PADS_TOP
100
AcDbCircle
 10
8925.0
 20
20644.791
 30
0.0
 40
140.0
  0
CIRCLE
  5
206
100
AcDbEntity
  8
SOLDERMASK_PADS_TOP
100
AcDbCircle
 10
8918.295
 20
23705.561
 30
0.0
 40
140.0
  0
CIRCLE
  5
207
100
AcDbEntity
  8
SOLDERMASK_PADS_TOP
100
AcDbCircle
 10
8915.814
 20
22703.237
 30
0.0
 40
140.0
  0
CIRCLE
  5
208
100
AcDbEntity
  8
SOLDERMASK_PADS_TOP
100
AcDbCircle
 10
8833.941
 20
21698.432
 30
0.0
 40
140.0
  0
CIRCLE
  5
209
100
AcDbEntity
  8
SOLDERMASK_PADS_TOP
100
AcDbCircle
 10
9185.003
 20
29959.035
 30
0.0
 40
140.0
  0
CIRCLE
  5
20A
100
AcDbEntity
  8
SOLDERMASK_PADS_TOP
100
AcDbCircle
 10
7239.464
 20
30027.232
 30
0.0
 40
140.0
  0
CIRCLE
  5
20B
100
AcDbEntity
  8
SOLDERMASK_PADS_TOP
100
AcDbCircle
 10
11660.822
 20
30863.64
 30
0.0
 40
140.0
  0
CIRCLE
  5
20C
100
AcDbEntity
  8
SOLDERMASK_PADS_TOP
100
AcDbCircle
 10
8813.232
 20
35694.48
 30
0.0
 40
140.0
  0
CIRCLE
  5
20D
100
AcDbEntity
  8
SOLDERMASK_PADS_TOP
100
AcDbCircle
 10
11514.016
 20
27385.793
 30
0.0
 40
140.0
  0
CIRCLE
  5
20E
100
AcDbEntity
  8
SOLDERMASK_PADS_TOP
100
AcDbCircle
 10
8585.483
 20
32970.254
 30
0.0
 40
140.0
  0
CIRCLE
  5
20F
100
AcDbEntity
  8
SOLDERMASK_PADS_TOP
100
AcDbCircle
 10
8771.558
 20
37249.979
 30
0.0
 40
140.0
  0
CIRCLE
  5
210
100
AcDbEntity
  8
SOLDERMASK_PADS_TOP
100
AcDbCircle
 10
8949.474
 20
38649.979
 30
0.0
 40
140.0
  0
CIRCLE
  5
211
100
AcDbEntity
  8
SOLDERMASK_PADS_TOP
100
AcDbCircle
 10
14507.275
 20
31576.96
 30
0.0
 40
140.0
  0
CIRCLE
  5
212
100
AcDbEntity
  8
SOLDERMASK_PADS_TOP
100
AcDbCircle
 10
14622.97
 20
23995.887
 30
0.0
 40
140.0
  0
CIRCLE
  5
213
100
AcDbEntity
  8
SOLDERMASK_PADS_TOP
100
AcDbCircle
 10
7625.0
 20
48300.0
 30
0.0
 40
140.0
  0
CIRCLE
  5
214
100
AcDbEntity
  8
SOLDERMASK_PADS_TOP
100
AcDbCircle
 10
21067.64
 20
15742.025
 30
0.0
 40
140.0
  0
CIRCLE
  5
215
100
AcDbEntity
  8
SOLDERMASK_PADS_TOP
100
AcDbCircle
 10
18500.0
 20
50225.0
 30
0.0
 40
140.0
  0
CIRCLE
  5
216
100
AcDbEntity
  8
SOLDERMASK_PADS_TOP
100
AcDbCircle
 10
17450.973
 20
47487.908
 30
0.0
 40
140.0
  0
CIRCLE
  5
217
100
AcDbEntity
  8
SOLDERMASK_PADS_TOP
100
AcDbCircle
 10
8119.853
 20
44864.721
 30
0.0
 40
140.0
  0
CIRCLE
  5
218
100
AcDbEntity
  8
SOLDERMASK_PADS_TOP
100
AcDbCircle
 10
19943.133
 20
42956.227
 30
0.0
 40
140.0
  0
CIRCLE
  5
219
100
AcDbEntity
  8
SOLDERMASK_PADS_TOP
100
AcDbCircle
 10
14264.112
 20
23251.913
 30
0.0
 40
140.0
  0
CIRCLE
  5
21A
100
AcDbEntity
  8
SOLDERMASK_PADS_TOP
100
AcDbCircle
 10
14300.026
 20
35000.0
 30
0.0
 40
140.0
  0
CIRCLE
  5
21B
100
AcDbEntity
  8
SOLDERMASK_PADS_TOP
100
AcDbCircle
 10
23400.0
 20
10225.0
 30
0.0
 40
140.0
  0
CIRCLE
  5
21C
100
AcDbEntity
  8
SOLDERMASK_PADS_TOP
100
AcDbCircle
 10
21925.0
 20
12405.0
 30
0.0
 40
140.0
  0
CIRCLE
  5
21D
100
AcDbEntity
  8
SOLDERMASK_PADS_TOP
100
AcDbCircle
 10
12682.072
 20
16766.134
 30
0.0
 40
140.0
  0
CIRCLE
  5
21E
100
AcDbEntity
  8
SOLDERMASK_PADS_TOP
100
AcDbCircle
 10
12983.533
 20
11875.068
 30
0.0
 40
140.0
  0
CIRCLE
  5
21F
100
AcDbEntity
  8
SOLDERMASK_PADS_TOP
100
AcDbCircle
 10
11875.0
 20
7975.0
 30
0.0
 40
140.0
  0
CIRCLE
  5
220
100
AcDbEntity
  8
SOLDERMASK_PADS_TOP
100
AcDbCircle
 10
11320.685
 20
10827.397
 30
0.0
 40
140.0
  0
CIRCLE
  5
221
100
AcDbEntity
  8
SOLDERMASK_PADS_TOP
100
AcDbCircle
 10
7230.336
 20
36273.924
 30
0.0
 40
140.0
  0
CIRCLE
  5
222
100
AcDbEntity
  8
SOLDERMASK_PADS_TOP
100
AcDbCircle
 10
13020.0
 20
42052.5
 30
0.0
 40
140.0
  0
CIRCLE
  5
223
100
AcDbEntity
  8
SOLDERMASK_PADS_TOP
100
AcDbCircle
 10
4738.909
 20
9267.321
 30
0.0
 40
140.0
  0
CIRCLE
  5
224
100
AcDbEntity
  8
SOLDERMASK_PADS_TOP
100
AcDbCircle
 10
6225.783
 20
9128.601
 30
0.0
 40
140.0
  0
CIRCLE
  5
225
100
AcDbEntity
  8
SOLDERMASK_PADS_TOP
100
AcDbCircle
 10
22588.433
 20
7745.945
 30
0.0
 40
140.0
  0
CIRCLE
  5
226
100
AcDbEntity
  8
SOLDERMASK_PADS_TOP
100
AcDbCircle
 10
22582.664
 20
6270.759
 30
0.0
 40
140.0
  0
CIRCLE
  5
227
100
AcDbEntity
  8
SOLDERMASK_PADS_TOP
100
AcDbCircle
 10
22532.36
 20
14857.975
 30
0.0
 40
140.0
  0
CIRCLE
  5
228
100
AcDbEntity
  8
SOLDERMASK_PADS_TOP
100
AcDbCircle
 10
21068.209
 20
14918.664
 30
0.0
 40
140.0
  0
CIRCLE
  5
229
100
AcDbEntity
  8
SOLDERMASK_PADS_TOP
100
AcDbCircle
 10
21517.326
 20
43777.135
 30
0.0
 40
140.0
  0
CIRCLE
  5
22A
100
AcDbEntity
  8
SOLDERMASK_PADS_TOP
100
AcDbCircle
 10
7906.815
 20
50655.378
 30
0.0
 40
140.0
  0
CIRCLE
  5
22B
100
AcDbEntity
  8
SOLDERMASK_PADS_TOP
100
AcDbCircle
 10
7893.391
 20
49160.297
 30
0.0
 40
140.0
  0
CIRCLE
  5
22C
100
AcDbEntity
  8
SOLDERMASK_PADS_TOP
100
AcDbCircle
 10
22358.663
 20
49100.0
 30
0.0
 40
140.0
  0
CIRCLE
  5
22D
100
AcDbEntity
  8
SOLDERMASK_PADS_TOP
100
AcDbCircle
 10
23832.443
 20
49010.928
 30
0.0
 40
140.0
  0
CIRCLE
  5
22E
100
AcDbEntity
  8
SOLDERMASK_PADS_TOP
100
AcDbCircle
 10
8840.548
 20
25977.427
 30
0.0
 40
140.0
  0
CIRCLE
  5
22F
100
AcDbEntity
  8
SOLDERMASK_PADS_TOP
100
AcDbCircle
 10
9985.003
 20
30058.275
 30
0.0
 40
140.0
  0
CIRCLE
  5
230
100
AcDbEntity
  8
SOLDERMASK_PADS_TOP
100
AcDbCircle
 10
8039.464
 20
30041.764
 30
0.0
 40
140.0
  0
CIRCLE
  5
231
100
AcDbEntity
  8
SOLDERMASK_PADS_TOP
100
AcDbCircle
 10
10987.486
 20
35175.0
 30
0.0
 40
140.0
  0
CIRCLE
  5
232
100
AcDbEntity
  8
SOLDERMASK_PADS_TOP
100
AcDbCircle
 10
11372.678
 20
33457.91
 30
0.0
 40
140.0
  0
CIRCLE
  5
233
100
AcDbEntity
  8
SOLDERMASK_PADS_TOP
100
AcDbCircle
 10
11292.995
 20
37710.917
 30
0.0
 40
140.0
  0
CIRCLE
  5
234
100
AcDbEntity
  8
SOLDERMASK_PADS_TOP
100
AcDbCircle
 10
10980.389
 20
36310.917
 30
0.0
 40
140.0
  0
CIRCLE
  5
235
100
AcDbEntity
  8
SOLDERMASK_PADS_TOP
100
AcDbCircle
 10
11378.84
 20
39386.308
 30
0.0
 40
140.0
  0
CIRCLE
  5
236
100
AcDbEntity
  8
SOLDERMASK_PADS_TOP
100
AcDbCircle
 10
7595.596
 20
47365.386
 30
0.0
 40
140.0
  0
CIRCLE
  5
237
100
AcDbEntity
  8
SOLDERMASK_PADS_TOP
100
AcDbCircle
 10
9100.0
 20
44828.335
 30
0.0
 40
140.0
  0
CIRCLE
  5
238
100
AcDbEntity
  8
SOLDERMASK_PADS_TOP
100
AcDbCircle
 10
19944.622
 20
43806.815
 30
0.0
 40
140.0
  0
CIRCLE
  5
239
100
AcDbEntity
  8
SOLDERMASK_PADS_TOP
100
AcDbCircle
 10
8892.477
 20
19544.791
 30
0.0
 40
140.0
  0
CIRCLE
  5
23A
100
AcDbEntity
  8
SOLDERMASK_PADS_TOP
100
AcDbCircle
 10
11080.362
 20
24538.384
 30
0.0
 40
140.0
  0
CIRCLE
  5
23B
100
AcDbEntity
  8
SOLDERMASK_PADS_TOP
100
AcDbCircle
 10
11075.097
 20
25533.469
 30
0.0
 40
140.0
  0
CIRCLE
  5
23C
100
AcDbEntity
  8
SOLDERMASK_PADS_TOP
100
AcDbCircle
 10
11130.375
 20
23467.004
 30
0.0
 40
140.0
  0
CIRCLE
  5
23D
100
AcDbEntity
  8
SOLDERMASK_PADS_TOP
100
AcDbCircle
 10
11125.11
 20
22571.954
 30
0.0
 40
140.0
  0
CIRCLE
  5
23E
100
AcDbEntity
  8
SOLDERMASK_PADS_TOP
100
AcDbCircle
 10
11082.99
 20
21550.544
 30
0.0
 40
140.0
  0
CIRCLE
  5
23F
100
AcDbEntity
  8
SOLDERMASK_PADS_TOP
100
AcDbCircle
 10
11082.601
 20
20550.378
 30
0.0
 40
140.0
  0
CIRCLE
  5
240
100
AcDbEntity
  8
SOLDERMASK_PADS_TOP
100
AcDbCircle
 10
13338.25
 20
7236.371
 30
0.0
 40
140.0
  0
CIRCLE
  5
241
100
AcDbEntity
  8
SOLDERMASK_PADS_TOP
100
AcDbCircle
 10
22633.296
 20
8772.936
 30
0.0
 40
140.0
  0
CIRCLE
  5
242
100
AcDbEntity
  8
SOLDERMASK_PADS_TOP
100
AcDbCircle
 10
23400.0
 20
12788.605
 30
0.0
 40
140.0
  0
CIRCLE
  5
243
100
AcDbEntity
  8
SOLDERMASK_PADS_TOP
100
AcDbCircle
 10
12973.021
 20
12675.0
 30
0.0
 40
140.0
  0
CIRCLE
  5
244
100
AcDbEntity
  8
SOLDERMASK_PADS_TOP
100
AcDbCircle
 10
13482.072
 20
16738.251
 30
0.0
 40
140.0
  0
CIRCLE
  5
245
100
AcDbEntity
  8
SOLDERMASK_PADS_TOP
100
AcDbCircle
 10
11924.687
 20
8775.0
 30
0.0
 40
140.0
  0
CIRCLE
  5
246
100
AcDbEntity
  8
SOLDERMASK_PADS_TOP
100
AcDbCircle
 10
10232.679
 20
8775.0
 30
0.0
 40
140.0
  0
CIRCLE
  5
247
100
AcDbEntity
  8
SOLDERMASK_PADS_TOP
100
AcDbCircle
 10
10520.869
 20
10844.58
 30
0.0
 40
140.0
  0
CIRCLE
  5
248
100
AcDbEntity
  8
SOLDERMASK_PADS_TOP
100
AcDbCircle
 10
12884.696
 20
11022.778
 30
0.0
 40
140.0
  0
CIRCLE
  5
249
100
AcDbEntity
  8
SOLDERMASK_PADS_TOP
100
AcDbCircle
 10
10301.123
 20
14884.554
 30
0.0
 40
140.0
  0
CIRCLE
  5
24A
100
AcDbEntity
  8
SOLDERMASK_PADS_TOP
100
AcDbCircle
 10
7685.883
 20
15738.963
 30
0.0
 40
140.0
  0
CIRCLE
  5
24B
100
AcDbEntity
  8
SOLDERMASK_PADS_TOP
100
AcDbCircle
 10
7271.827
 20
35475.0
 30
0.0
 40
140.0
  0
CIRCLE
  5
24C
100
AcDbEntity
  8
SOLDERMASK_PADS_TOP
100
AcDbCircle
 10
9675.0
 20
41700.0
 30
0.0
 40
140.0
  0
CIRCLE
  5
24D
100
AcDbEntity
  8
SOLDERMASK_PADS_TOP
100
AcDbCircle
 10
19075.0
 20
43600.0
 30
0.0
 40
140.0
  0
CIRCLE
  5
24E
100
AcDbEntity
  8
SOLDERMASK_PADS_TOP
100
AcDbCircle
 10
8600.804
 20
18780.412
 30
0.0
 40
140.0
  0
CIRCLE
  5
24F
100
AcDbEntity
  8
SOLDERMASK_PADS_TOP
100
AcDbCircle
 10
20451.769
 20
37541.221
 30
0.0
 40
140.0
  0
CIRCLE
  5
250
100
AcDbEntity
  8
SOLDERMASK_PADS_TOP
100
AcDbCircle
 10
22068.002
 20
10379.196
 30
0.0
 40
140.0
  0
CIRCLE
  5
251
100
AcDbEntity
  8
SOLDERMASK_PADS_TOP
100
AcDbCircle
 10
21910.608
 20
11578.574
 30
0.0
 40
140.0
  0
CIRCLE
  5
252
100
AcDbEntity
  8
SOLDERMASK_PADS_TOP
100
AcDbCircle
 10
17949.458
 20
31679.512
 30
0.0
 40
140.0
  0
CIRCLE
  5
253
100
AcDbEntity
  8
SOLDERMASK_PADS_TOP
100
AcDbCircle
 10
17507.46
 20
34823.185
 30
0.0
 40
140.0
  0
CIRCLE
  5
254
100
AcDbEntity
  8
SOLDERMASK_PADS_TOP
100
AcDbCircle
 10
16692.771
 20
35214.316
 30
0.0
 40
140.0
  0
CIRCLE
  5
255
100
AcDbEntity
  8
SOLDERMASK_PADS_TOP
100
AcDbCircle
 10
18757.94
 20
34663.497
 30
0.0
 40
140.0
  0
CIRCLE
  5
256
100
AcDbEntity
  8
SOLDERMASK_PADS_TOP
100
AcDbCircle
 10
17735.986
 20
35923.185
 30
0.0
 40
140.0
  0
CIRCLE
  5
257
100
AcDbEntity
  8
SOLDERMASK_PADS_TOP
100
AcDbCircle
 10
18143.392
 20
37115.363
 30
0.0
 40
140.0
  0
CIRCLE
  5
258
100
AcDbEntity
  8
SOLDERMASK_PADS_TOP
100
AcDbCircle
 10
19271.217
 20
32164.794
 30
0.0
 40
140.0
  0
CIRCLE
  5
259
100
AcDbEntity
  8
SOLDERMASK_PADS_TOP
100
AcDbCircle
 10
20142.4
 20
32077.409
 30
0.0
 40
140.0
  0
CIRCLE
  5
25A
100
AcDbEntity
  8
SOLDERMASK_PADS_TOP
100
AcDbCircle
 10
21057.93
 20
31685.82
 30
0.0
 40
140.0
  0
CIRCLE
  5
25B
100
AcDbEntity
  8
SOLDERMASK_PADS_TOP
100
AcDbCircle
 10
20159.762
 20
33320.884
 30
0.0
 40
140.0
  0
CIRCLE
  5
25C
100
AcDbEntity
  8
SOLDERMASK_PADS_TOP
100
AcDbCircle
 10
20968.61
 20
32936.3
 30
0.0
 40
140.0
  0
CIRCLE
  5
25D
100
AcDbEntity
  8
SOLDERMASK_PADS_TOP
100
AcDbCircle
 10
21314.317
 20
33918.412
 30
0.0
 40
140.0
  0
CIRCLE
  5
25E
100
AcDbEntity
  8
SOLDERMASK_PADS_TOP
100
AcDbCircle
 10
16502.61
 20
31015.92
 30
0.0
 40
140.0
  0
CIRCLE
  5
25F
100
AcDbEntity
  8
SOLDERMASK_PADS_TOP
100
AcDbCircle
 10
6885.483
 20
33303.506
 30
0.0
 40
140.0
  0
CIRCLE
  5
260
100
AcDbEntity
  8
SOLDERMASK_PADS_TOP
100
AcDbCircle
 10
11663.762
 20
28197.229
 30
0.0
 40
140.0
  0
CIRCLE
  5
261
100
AcDbEntity
  8
SOLDERMASK_PADS_TOP
100
AcDbCircle
 10
11799.468
 20
28997.229
 30
0.0
 40
140.0
  0
CIRCLE
  5
262
100
AcDbEntity
  8
SOLDERMASK_PADS_TOP
100
AcDbCircle
 10
14191.455
 20
29096.154
 30
0.0
 40
140.0
  0
CIRCLE
  5
263
100
AcDbEntity
  8
SOLDERMASK_PADS_TOP
100
AcDbCircle
 10
14766.637
 20
29652.343
 30
0.0
 40
140.0
  0
CIRCLE
  5
264
100
AcDbEntity
  8
SOLDERMASK_PADS_TOP
100
AcDbCircle
 10
15566.637
 20
29618.438
 30
0.0
 40
140.0
  0
CIRCLE
  5
265
100
AcDbEntity
  8
SOLDERMASK_PADS_TOP
100
AcDbCircle
 10
19467.735
 20
30999.99
 30
0.0
 40
140.0
  0
CIRCLE
  5
266
100
AcDbEntity
  8
SOLDERMASK_PADS_TOP
100
AcDbCircle
 10
17442.529
 20
30858.623
 30
0.0
 40
140.0
  0
CIRCLE
  5
267
100
AcDbEntity
  8
SOLDERMASK_PADS_TOP
100
AcDbCircle
 10
20875.699
 20
38270.471
 30
0.0
 40
140.0
  0
CIRCLE
  5
268
100
AcDbEntity
  8
SOLDERMASK_PADS_TOP
100
AcDbCircle
 10
17492.603
 20
45488.859
 30
0.0
 40
140.0
  0
CIRCLE
  5
269
100
AcDbEntity
  8
SOLDERMASK_PADS_TOP
100
AcDbCircle
 10
12132.174
 20
18126.967
 30
0.0
 40
140.0
  0
CIRCLE
  5
26A
100
AcDbEntity
  8
SOLDERMASK_PADS_TOP
100
AcDbCircle
 10
18667.735
 20
31167.07
 30
0.0
 40
140.0
  0
CIRCLE
  5
26B
100
AcDbEntity
  8
SOLDERMASK_PADS_TOP
100
AcDbCircle
 10
11827.617
 20
25261.965
 30
0.0
 40
140.0
  0
CIRCLE
  5
26C
100
AcDbEntity
  8
SOLDERMASK_PADS_TOP
100
AcDbCircle
 10
19425.274
 20
37283.653
 30
0.0
 40
140.0
  0
CIRCLE
  5
26D
100
AcDbEntity
  8
SOLDERMASK_PADS_TOP
100
AcDbCircle
 10
19421.894
 20
36474.117
 30
0.0
 40
140.0
  0
CIRCLE
  5
26E
100
AcDbEntity
  8
SOLDERMASK_PADS_TOP
100
AcDbCircle
 10
16589.916
 20
30150.796
 30
0.0
 40
140.0
  0
CIRCLE
  5
26F
100
AcDbEntity
  8
SOLDERMASK_PADS_TOP
100
AcDbCircle
 10
17284.158
 20
36646.779
 30
0.0
 40
140.0
  0
CIRCLE
  5
270
100
AcDbEntity
  8
SOLDERMASK_PADS_TOP
100
AcDbCircle
 10
8909.525
 20
26775.0
 30
0.0
 40
140.0
  0
CIRCLE
  5
271
100
AcDbEntity
  8
SOLDERMASK_PADS_TOP
100
AcDbCircle
 10
8589.464
 20
30728.731
 30
0.0
 40
140.0
  0
CIRCLE
  5
272
100
AcDbEntity
  8
SOLDERMASK_PADS_TOP
100
AcDbCircle
 10
10973.021
 20
11747.664
 30
0.0
 40
140.0
  0
CIRCLE
  5
273
100
AcDbEntity
  8
SOLDERMASK_PADS_TOP
100
AcDbCircle
 10
7358.666
 20
31477.834
 30
0.0
 40
140.0
  0
CIRCLE
  5
274
100
AcDbEntity
  8
SOLDERMASK_PADS_TOP
100
AcDbCircle
 10
15402.61
 20
30697.965
 30
0.0
 40
140.0
  0
CIRCLE
  5
275
100
AcDbEntity
  8
SOLDERMASK_PADS_TOP
100
AcDbCircle
 10
2041.159
 20
38737.55
 30
0.0
 40
140.0
  0
CIRCLE
  5
276
100
AcDbEntity
  8
SOLDERMASK_PADS_TOP
100
AcDbCircle
 10
18677.083
 20
38515.363
 30
0.0
 40
140.0
  0
CIRCLE
  5
277
100
AcDbEntity
  8
SOLDERMASK_PADS_TOP
100
AcDbCircle
 10
16284.535
 20
20745.708
 30
0.0
 40
140.0
  0
CIRCLE
  5
278
100
AcDbEntity
  8
SOLDERMASK_PADS_TOP
100
AcDbCircle
 10
12682.072
 20
15195.342
 30
0.0
 40
140.0
  0
CIRCLE
  5
279
100
AcDbEntity
  8
SOLDERMASK_PADS_TOP
100
AcDbCircle
 10
19308.797
 20
39100.461
 30
0.0
 40
140.0
  0
CIRCLE
  5
27A
100
AcDbEntity
  8
SOLDERMASK_PADS_TOP
100
AcDbCircle
 10
15484.013
 20
19751.913
 30
0.0
 40
140.0
  0
CIRCLE
  5
27B
100
AcDbEntity
  8
SOLDERMASK_PADS_TOP
100
AcDbCircle
 10
12173.021
 20
12627.565
 30
0.0
 40
140.0
  0
CIRCLE
  5
27C
100
AcDbEntity
  8
SOLDERMASK_PADS_TOP
100
AcDbCircle
 10
20038.299
 20
39811.287
 30
0.0
 40
140.0
  0
CIRCLE
  5
27D
100
AcDbEntity
  8
SOLDERMASK_PADS_TOP
100
AcDbCircle
 10
18092.328
 20
39910.509
 30
0.0
 40
140.0
  0
CIRCLE
  5
27E
100
AcDbEntity
  8
SOLDERMASK_PADS_TOP
100
AcDbCircle
 10
14900.0
 20
13517.535
 30
0.0
 40
140.0
  0
CIRCLE
  5
27F
100
AcDbEntity
  8
SOLDERMASK_PADS_TOP
100
AcDbCircle
 10
16037.959
 20
13543.322
 30
0.0
 40
140.0
  0
CIRCLE
  5
280
100
AcDbEntity
  8
SOLDERMASK_PADS_TOP
100
AcDbCircle
 10
13889.188
 20
14400.0
 30
0.0
 40
140.0
  0
CIRCLE
  5
281
100
AcDbEntity
  8
SOLDERMASK_PADS_TOP
100
AcDbCircle
 10
13904.074
 20
13434.822
 30
0.0
 40
140.0
  0
CIRCLE
  5
282
100
AcDbEntity
  8
SOLDERMASK_PADS_TOP
100
AcDbCircle
 10
8600.804
 20
17946.911
 30
0.0
 40
140.0
  0
LWPOLYLINE
  5
283
100
AcDbEntity
  8
SOLDERMASK_PADS_TOP
100
AcDbPolyline
 90
        4
 70
         1
 10
5250.0
 20
9800.0
 10
5250.0
 20
10200.0
 10
5750.0
 20
10200.0
 10
5750.0
 20
9800.0
  0
LWPOLYLINE
  5
284
100
AcDbEntity
  8
SOLDERMASK_PADS_TOP
100
AcDbPolyline
 90
        4
 70
         1
 10
5250.0
 20
9000.0
 10
5250.0
 20
9400.0
 10
5750.0
 20
9400.0
 10
5750.0
 20
9000.0
  0
LWPOLYLINE
  5
285
100
AcDbEntity
  8
SOLDERMASK_PADS_TOP
100
AcDbPolyline
 90
        4
 70
         1
 10
23200.0
 20
6750.0
 10
23200.0
 20
7250.0
 10
23600.0
 20
7250.0
 10
23600.0
 20
6750.0
  0
LWPOLYLINE
  5
286
100
AcDbEntity
  8
SOLDERMASK_PADS_TOP
100
AcDbPolyline
 90
        4
 70
         1
 10
22400.0
 20
6750.0
 10
22400.0
 20
7250.0
 10
22800.0
 20
7250.0
 10
22800.0
 20
6750.0
  0
LWPOLYLINE
  5
287
100
AcDbEntity
  8
SOLDERMASK_PADS_TOP
100
AcDbPolyline
 90
        4
 70
         1
 10
9500.0
 20
18050.0
 10
9500.0
 20
18550.0
 10
9900.0
 20
18550.0
 10
9900.0
 20
18050.0
  0
LWPOLYLINE
  5
288
100
AcDbEntity
  8
SOLDERMASK_PADS_TOP
100
AcDbPolyline
 90
        4
 70
         1
 10
10300.0
 20
18050.0
 10
10300.0
 20
18550.0
 10
10700.0
 20
18550.0
 10
10700.0
 20
18050.0
  0
LWPOLYLINE
  5
289
100
AcDbEntity
  8
SOLDERMASK_PADS_TOP
100
AcDbPolyline
 90
        4
 70
         1
 10
9500.0
 20
17250.0
 10
9500.0
 20
17750.0
 10
9900.0
 20
17750.0
 10
9900.0
 20
17250.0
  0
LWPOLYLINE
  5
28A
100
AcDbEntity
  8
SOLDERMASK_PADS_TOP
100
AcDbPolyline
 90
        4
 70
         1
 10
10300.0
 20
17250.0
 10
10300.0
 20
17750.0
 10
10700.0
 20
17750.0
 10
10700.0
 20
17250.0
  0
LWPOLYLINE
  5
28B
100
AcDbEntity
  8
SOLDERMASK_PADS_TOP
100
AcDbPolyline
 90
        4
 70
         1
 10
11050.0
 20
17200.0
 10
11050.0
 20
17600.0
 10
11550.0
 20
17600.0
 10
11550.0
 20
17200.0
  0
LWPOLYLINE
  5
28C
100
AcDbEntity
  8
SOLDERMASK_PADS_TOP
100
AcDbPolyline
 90
        4
 70
         1
 10
11050.0
 20
18000.0
 10
11050.0
 20
18400.0
 10
11550.0
 20
18400.0
 10
11550.0
 20
18000.0
  0
LWPOLYLINE
  5
28D
100
AcDbEntity
  8
SOLDERMASK_PADS_TOP
100
AcDbPolyline
 90
        4
 70
         1
 10
10128.75
 20
11315.0
 10
10128.75
 20
12515.0
 10
10428.75
 20
12515.0
 10
10428.75
 20
11315.0
  0
LWPOLYLINE
  5
28E
100
AcDbEntity
  8
SOLDERMASK_PADS_TOP
100
AcDbPolyline
 90
        4
 70
         1
 10
9478.75
 20
11315.0
 10
9478.75
 20
12515.0
 10
9778.75
 20
12515.0
 10
9778.75
 20
11315.0
  0
LWPOLYLINE
  5
28F
100
AcDbEntity
  8
SOLDERMASK_PADS_TOP
100
AcDbPolyline
 90
        4
 70
         1
 10
8828.75
 20
11315.0
 10
8828.75
 20
12515.0
 10
9128.75
 20
12515.0
 10
9128.75
 20
11315.0
  0
LWPOLYLINE
  5
290
100
AcDbEntity
  8
SOLDERMASK_PADS_TOP
100
AcDbPolyline
 90
        4
 70
         1
 10
8178.75
 20
11315.0
 10
8178.75
 20
12515.0
 10
8478.75
 20
12515.0
 10
8478.75
 20
11315.0
  0
LWPOLYLINE
  5
291
100
AcDbEntity
  8
SOLDERMASK_PADS_TOP
100
AcDbPolyline
 90
        4
 70
         1
 10
10128.75
 20
15515.0
 10
10128.75
 20
16715.0
 10
10428.75
 20
16715.0
 10
10428.75
 20
15515.0
  0
LWPOLYLINE
  5
292
100
AcDbEntity
  8
SOLDERMASK_PADS_TOP
100
AcDbPolyline
 90
        4
 70
         1
 10
9478.75
 20
15515.0
 10
9478.75
 20
16715.0
 10
9778.75
 20
16715.0
 10
9778.75
 20
15515.0
  0
LWPOLYLINE
  5
293
100
AcDbEntity
  8
SOLDERMASK_PADS_TOP
100
AcDbPolyline
 90
        4
 70
         1
 10
8828.75
 20
15515.0
 10
8828.75
 20
16715.0
 10
9128.75
 20
16715.0
 10
9128.75
 20
15515.0
  0
LWPOLYLINE
  5
294
100
AcDbEntity
  8
SOLDERMASK_PADS_TOP
100
AcDbPolyline
 90
        4
 70
         1
 10
8178.75
 20
15515.0
 10
8178.75
 20
16715.0
 10
8478.75
 20
16715.0
 10
8478.75
 20
15515.0
  0
LWPOLYLINE
  5
295
100
AcDbEntity
  8
SOLDERMASK_PADS_TOP
100
AcDbPolyline
 90
        4
 70
         1
 10
12400.0
 20
10050.0
 10
12400.0
 20
10550.0
 10
12800.0
 20
10550.0
 10
12800.0
 20
10050.0
  0
LWPOLYLINE
  5
296
100
AcDbEntity
  8
SOLDERMASK_PADS_TOP
100
AcDbPolyline
 90
        4
 70
         1
 10
13200.0
 20
10050.0
 10
13200.0
 20
10550.0
 10
13600.0
 20
10550.0
 10
13600.0
 20
10050.0
  0
LWPOLYLINE
  5
297
100
AcDbEntity
  8
SOLDERMASK_PADS_TOP
100
AcDbPolyline
 90
        4
 70
         1
 10
11000.0
 20
9850.0
 10
11000.0
 20
10350.0
 10
11400.0
 20
10350.0
 10
11400.0
 20
9850.0
  0
LWPOLYLINE
  5
298
100
AcDbEntity
  8
SOLDERMASK_PADS_TOP
100
AcDbPolyline
 90
        4
 70
         1
 10
10200.0
 20
9850.0
 10
10200.0
 20
10350.0
 10
10600.0
 20
10350.0
 10
10600.0
 20
9850.0
  0
LWPOLYLINE
  5
299
100
AcDbEntity
  8
SOLDERMASK_PADS_TOP
100
AcDbPolyline
 90
        4
 70
         1
 10
11400.0
 20
13150.0
 10
11400.0
 20
13650.0
 10
11800.0
 20
13650.0
 10
11800.0
 20
13150.0
  0
LWPOLYLINE
  5
29A
100
AcDbEntity
  8
SOLDERMASK_PADS_TOP
100
AcDbPolyline
 90
        4
 70
         1
 10
12200.0
 20
13150.0
 10
12200.0
 20
13650.0
 10
12600.0
 20
13650.0
 10
12600.0
 20
13150.0
  0
LWPOLYLINE
  5
29B
100
AcDbEntity
  8
SOLDERMASK_PADS_TOP
100
AcDbPolyline
 90
        4
 70
         1
 10
12987.5
 20
13150.0
 10
12987.5
 20
13650.0
 10
13387.5
 20
13650.0
 10
13387.5
 20
13150.0
  0
LWPOLYLINE
  5
29C
100
AcDbEntity
  8
SOLDERMASK_PADS_TOP
100
AcDbPolyline
 90
        4
 70
         1
 10
11400.0
 20
14150.0
 10
11400.0
 20
14650.0
 10
11800.0
 20
14650.0
 10
11800.0
 20
14150.0
  0
LWPOLYLINE
  5
29D
100
AcDbEntity
  8
SOLDERMASK_PADS_TOP
100
AcDbPolyline
 90
        4
 70
         1
 10
12200.0
 20
14150.0
 10
12200.0
 20
14650.0
 10
12600.0
 20
14650.0
 10
12600.0
 20
14150.0
  0
LWPOLYLINE
  5
29E
100
AcDbEntity
  8
SOLDERMASK_PADS_TOP
100
AcDbPolyline
 90
        4
 70
         1
 10
12987.5
 20
14150.0
 10
12987.5
 20
14650.0
 10
13387.5
 20
14650.0
 10
13387.5
 20
14150.0
  0
LWPOLYLINE
  5
29F
100
AcDbEntity
  8
SOLDERMASK_PADS_TOP
100
AcDbPolyline
 90
        4
 70
         1
 10
14650.0
 20
14100.0
 10
14650.0
 20
14500.0
 10
15150.0
 20
14500.0
 10
15150.0
 20
14100.0
  0
LWPOLYLINE
  5
2A0
100
AcDbEntity
  8
SOLDERMASK_PADS_TOP
100
AcDbPolyline
 90
        4
 70
         1
 10
14650.0
 20
14900.0
 10
14650.0
 20
15300.0
 10
15150.0
 20
15300.0
 10
15150.0
 20
14900.0
  0
LWPOLYLINE
  5
2A1
100
AcDbEntity
  8
SOLDERMASK_PADS_TOP
100
AcDbPolyline
 90
        4
 70
         1
 10
15650.0
 20
14100.0
 10
15650.0
 20
14500.0
 10
16150.0
 20
14500.0
 10
16150.0
 20
14100.0
  0
LWPOLYLINE
  5
2A2
100
AcDbEntity
  8
SOLDERMASK_PADS_TOP
100
AcDbPolyline
 90
        4
 70
         1
 10
15650.0
 20
14900.0
 10
15650.0
 20
15300.0
 10
16150.0
 20
15300.0
 10
16150.0
 20
14900.0
  0
LWPOLYLINE
  5
2A3
100
AcDbEntity
  8
SOLDERMASK_PADS_TOP
100
AcDbPolyline
 90
        4
 70
         1
 10
9400.0
 20
26650.0
 10
9400.0
 20
27150.0
 10
9800.0
 20
27150.0
 10
9800.0
 20
26650.0
  0
LWPOLYLINE
  5
2A4
100
AcDbEntity
  8
SOLDERMASK_PADS_TOP
100
AcDbPolyline
 90
        4
 70
         1
 10
10200.0
 20
26650.0
 10
10200.0
 20
27150.0
 10
10600.0
 20
27150.0
 10
10600.0
 20
26650.0
  0
LWPOLYLINE
  5
2A5
100
AcDbEntity
  8
SOLDERMASK_PADS_TOP
100
AcDbPolyline
 90
        4
 70
         1
 10
9400.0
 20
25850.0
 10
9400.0
 20
26350.0
 10
9800.0
 20
26350.0
 10
9800.0
 20
25850.0
  0
LWPOLYLINE
  5
2A6
100
AcDbEntity
  8
SOLDERMASK_PADS_TOP
100
AcDbPolyline
 90
        4
 70
         1
 10
10200.0
 20
25850.0
 10
10200.0
 20
26350.0
 10
10600.0
 20
26350.0
 10
10600.0
 20
25850.0
  0
LWPOLYLINE
  5
2A7
100
AcDbEntity
  8
SOLDERMASK_PADS_TOP
100
AcDbPolyline
 90
        4
 70
         1
 10
9400.0
 20
24950.0
 10
9400.0
 20
25450.0
 10
9800.0
 20
25450.0
 10
9800.0
 20
24950.0
  0
LWPOLYLINE
  5
2A8
100
AcDbEntity
  8
SOLDERMASK_PADS_TOP
100
AcDbPolyline
 90
        4
 70
         1
 10
10200.0
 20
24950.0
 10
10200.0
 20
25450.0
 10
10600.0
 20
25450.0
 10
10600.0
 20
24950.0
  0
LWPOLYLINE
  5
2A9
100
AcDbEntity
  8
SOLDERMASK_PADS_TOP
100
AcDbPolyline
 90
        4
 70
         1
 10
9400.0
 20
24050.0
 10
9400.0
 20
24550.0
 10
9800.0
 20
24550.0
 10
9800.0
 20
24050.0
  0
LWPOLYLINE
  5
2AA
100
AcDbEntity
  8
SOLDERMASK_PADS_TOP
100
AcDbPolyline
 90
        4
 70
         1
 10
10200.0
 20
24050.0
 10
10200.0
 20
24550.0
 10
10600.0
 20
24550.0
 10
10600.0
 20
24050.0
  0
LWPOLYLINE
  5
2AB
100
AcDbEntity
  8
SOLDERMASK_PADS_TOP
100
AcDbPolyline
 90
        4
 70
         1
 10
7200.0
 20
29050.0
 10
7200.0
 20
29550.0
 10
7600.0
 20
29550.0
 10
7600.0
 20
29050.0
  0
LWPOLYLINE
  5
2AC
100
AcDbEntity
  8
SOLDERMASK_PADS_TOP
100
AcDbPolyline
 90
        4
 70
         1
 10
8000.0
 20
29050.0
 10
8000.0
 20
29550.0
 10
8400.0
 20
29550.0
 10
8400.0
 20
29050.0
  0
LWPOLYLINE
  5
2AD
100
AcDbEntity
  8
SOLDERMASK_PADS_TOP
100
AcDbPolyline
 90
        4
 70
         1
 10
7750.0
 20
36000.0
 10
7750.0
 20
36400.0
 10
8250.0
 20
36400.0
 10
8250.0
 20
36000.0
  0
LWPOLYLINE
  5
2AE
100
AcDbEntity
  8
SOLDERMASK_PADS_TOP
100
AcDbPolyline
 90
        4
 70
         1
 10
7750.0
 20
35200.0
 10
7750.0
 20
35600.0
 10
8250.0
 20
35600.0
 10
8250.0
 20
35200.0
  0
LWPOLYLINE
  5
2AF
100
AcDbEntity
  8
SOLDERMASK_PADS_TOP
100
AcDbPolyline
 90
        4
 70
         1
 10
10450.0
 20
32700.0
 10
10450.0
 20
33800.0
 10
10850.0
 20
33800.0
 10
10850.0
 20
32700.0
  0
LWPOLYLINE
  5
2B0
100
AcDbEntity
  8
SOLDERMASK_PADS_TOP
100
AcDbPolyline
 90
        4
 70
         1
 10
9800.0
 20
32700.0
 10
9800.0
 20
33800.0
 10
10200.0
 20
33800.0
 10
10200.0
 20
32700.0
  0
LWPOLYLINE
  5
2B1
100
AcDbEntity
  8
SOLDERMASK_PADS_TOP
100
AcDbPolyline
 90
        4
 70
         1
 10
9150.0
 20
32700.0
 10
9150.0
 20
33800.0
 10
9550.0
 20
33800.0
 10
9550.0
 20
32700.0
  0
LWPOLYLINE
  5
2B2
100
AcDbEntity
  8
SOLDERMASK_PADS_TOP
100
AcDbPolyline
 90
        4
 70
         1
 10
9150.0
 20
30600.0
 10
9150.0
 20
31700.0
 10
9550.0
 20
31700.0
 10
9550.0
 20
30600.0
  0
LWPOLYLINE
  5
2B3
100
AcDbEntity
  8
SOLDERMASK_PADS_TOP
100
AcDbPolyline
 90
        4
 70
         1
 10
10450.0
 20
30600.0
 10
10450.0
 20
31700.0
 10
10850.0
 20
31700.0
 10
10850.0
 20
30600.0
  0
LWPOLYLINE
  5
2B4
100
AcDbEntity
  8
SOLDERMASK_PADS_TOP
100
AcDbPolyline
 90
        4
 70
         1
 10
7550.0
 20
32800.0
 10
7550.0
 20
33200.0
 10
8050.0
 20
33200.0
 10
8050.0
 20
32800.0
  0
LWPOLYLINE
  5
2B5
100
AcDbEntity
  8
SOLDERMASK_PADS_TOP
100
AcDbPolyline
 90
        4
 70
         1
 10
7550.0
 20
32000.0
 10
7550.0
 20
32400.0
 10
8050.0
 20
32400.0
 10
8050.0
 20
32000.0
  0
LWPOLYLINE
  5
2B6
100
AcDbEntity
  8
SOLDERMASK_PADS_TOP
100
AcDbPolyline
 90
        4
 70
         1
 10
10150.0
 20
39100.0
 10
10150.0
 20
39500.0
 10
10650.0
 20
39500.0
 10
10650.0
 20
39100.0
  0
LWPOLYLINE
  5
2B7
100
AcDbEntity
  8
SOLDERMASK_PADS_TOP
100
AcDbPolyline
 90
        4
 70
         1
 10
10150.0
 20
39900.0
 10
10150.0
 20
40300.0
 10
10650.0
 20
40300.0
 10
10650.0
 20
39900.0
  0
LWPOLYLINE
  5
2B8
100
AcDbEntity
  8
SOLDERMASK_PADS_TOP
100
AcDbPolyline
 90
        4
 70
         1
 10
10150.0
 20
41500.0
 10
10150.0
 20
41900.0
 10
10650.0
 20
41900.0
 10
10650.0
 20
41500.0
  0
LWPOLYLINE
  5
2B9
100
AcDbEntity
  8
SOLDERMASK_PADS_TOP
100
AcDbPolyline
 90
        4
 70
         1
 10
10150.0
 20
40700.0
 10
10150.0
 20
41100.0
 10
10650.0
 20
41100.0
 10
10650.0
 20
40700.0
  0
LWPOLYLINE
  5
2BA
100
AcDbEntity
  8
SOLDERMASK_PADS_TOP
100
AcDbPolyline
 90
        4
 70
         1
 10
8500.0
 20
40650.0
 10
8500.0
 20
41150.0
 10
8900.0
 20
41150.0
 10
8900.0
 20
40650.0
  0
LWPOLYLINE
  5
2BB
100
AcDbEntity
  8
SOLDERMASK_PADS_TOP
100
AcDbPolyline
 90
        4
 70
         1
 10
9300.0
 20
40650.0
 10
9300.0
 20
41150.0
 10
9700.0
 20
41150.0
 10
9700.0
 20
40650.0
  0
LWPOLYLINE
  5
2BC
100
AcDbEntity
  8
SOLDERMASK_PADS_TOP
100
AcDbPolyline
 90
        4
 70
         1
 10
8500.0
 20
39850.0
 10
8500.0
 20
40350.0
 10
8900.0
 20
40350.0
 10
8900.0
 20
39850.0
  0
LWPOLYLINE
  5
2BD
100
AcDbEntity
  8
SOLDERMASK_PADS_TOP
100
AcDbPolyline
 90
        4
 70
         1
 10
9300.0
 20
39850.0
 10
9300.0
 20
40350.0
 10
9700.0
 20
40350.0
 10
9700.0
 20
39850.0
  0
LWPOLYLINE
  5
2BE
100
AcDbEntity
  8
SOLDERMASK_PADS_TOP
100
AcDbPolyline
 90
        4
 70
         1
 10
8600.0
 20
49650.0
 10
8600.0
 20
50150.0
 10
9000.0
 20
50150.0
 10
9000.0
 20
49650.0
  0
LWPOLYLINE
  5
2BF
100
AcDbEntity
  8
SOLDERMASK_PADS_TOP
100
AcDbPolyline
 90
        4
 70
         1
 10
7800.0
 20
49650.0
 10
7800.0
 20
50150.0
 10
8200.0
 20
50150.0
 10
8200.0
 20
49650.0
  0
LWPOLYLINE
  5
2C0
100
AcDbEntity
  8
SOLDERMASK_PADS_TOP
100
AcDbPolyline
 90
        4
 70
         1
 10
8100.0
 20
47050.0
 10
8100.0
 20
47550.0
 10
8500.0
 20
47550.0
 10
8500.0
 20
47050.0
  0
LWPOLYLINE
  5
2C1
100
AcDbEntity
  8
SOLDERMASK_PADS_TOP
100
AcDbPolyline
 90
        4
 70
         1
 10
8900.0
 20
47050.0
 10
8900.0
 20
47550.0
 10
9300.0
 20
47550.0
 10
9300.0
 20
47050.0
  0
LWPOLYLINE
  5
2C2
100
AcDbEntity
  8
SOLDERMASK_PADS_TOP
100
AcDbPolyline
 90
        4
 70
         1
 10
8900.0
 20
48050.0
 10
8900.0
 20
48550.0
 10
9300.0
 20
48550.0
 10
9300.0
 20
48050.0
  0
LWPOLYLINE
  5
2C3
100
AcDbEntity
  8
SOLDERMASK_PADS_TOP
100
AcDbPolyline
 90
        4
 70
         1
 10
8100.0
 20
48050.0
 10
8100.0
 20
48550.0
 10
8500.0
 20
48550.0
 10
8500.0
 20
48050.0
  0
LWPOLYLINE
  5
2C4
100
AcDbEntity
  8
SOLDERMASK_PADS_TOP
100
AcDbPolyline
 90
        4
 70
         1
 10
13550.0
 20
11500.0
 10
13550.0
 20
11900.0
 10
14050.0
 20
11900.0
 10
14050.0
 20
11500.0
  0
LWPOLYLINE
  5
2C5
100
AcDbEntity
  8
SOLDERMASK_PADS_TOP
100
AcDbPolyline
 90
        4
 70
         1
 10
13550.0
 20
12300.0
 10
13550.0
 20
12700.0
 10
14050.0
 20
12700.0
 10
14050.0
 20
12300.0
  0
LWPOLYLINE
  5
2C6
100
AcDbEntity
  8
SOLDERMASK_PADS_TOP
100
AcDbPolyline
 90
        4
 70
         1
 10
22850.0
 20
49700.0
 10
22850.0
 20
50100.0
 10
23350.0
 20
50100.0
 10
23350.0
 20
49700.0
  0
LWPOLYLINE
  5
2C7
100
AcDbEntity
  8
SOLDERMASK_PADS_TOP
100
AcDbPolyline
 90
        4
 70
         1
 10
22850.0
 20
48900.0
 10
22850.0
 20
49300.0
 10
23350.0
 20
49300.0
 10
23350.0
 20
48900.0
  0
CIRCLE
  5
2C8
100
AcDbEntity
  8
SOLDERMASK_PADS_TOP
100
AcDbCircle
 10
9300.0
 20
8000.0
 30
0.0
 40
500.0
  0
CIRCLE
  5
2C9
100
AcDbEntity
  8
SOLDERMASK_PADS_TOP
100
AcDbCircle
 10
7600.0
 20
8000.0
 30
0.0
 40
500.0
  0
CIRCLE
  5
2CA
100
AcDbEntity
  8
SOLDERMASK_PADS_TOP
100
AcDbCircle
 10
5900.0
 20
8000.0
 30
0.0
 40
500.0
  0
LWPOLYLINE
  5
2CB
100
AcDbEntity
  8
SOLDERMASK_PADS_TOP
100
AcDbPolyline
 90
        4
 70
         1
 10
21550.0
 20
15500.0
 10
21550.0
 20
15900.0
 10
22050.0
 20
15900.0
 10
22050.0
 20
15500.0
  0
LWPOLYLINE
  5
2CC
100
AcDbEntity
  8
SOLDERMASK_PADS_TOP
100
AcDbPolyline
 90
        4
 70
         1
 10
21550.0
 20
14700.0
 10
21550.0
 20
15100.0
 10
22050.0
 20
15100.0
 10
22050.0
 20
14700.0
  0
LWPOLYLINE
  5
2CD
100
AcDbEntity
  8
SOLDERMASK_PADS_TOP
100
AcDbPolyline
 90
        4
 70
         1
 10
15384.5
 20
45370.0
 10
15384.5
 20
45820.0
 10
16784.5
 20
45820.0
 10
16784.5
 20
45370.0
  0
LWPOLYLINE
  5
2CE
100
AcDbEntity
  8
SOLDERMASK_PADS_TOP
100
AcDbPolyline
 90
        4
 70
         1
 10
15384.5
 20
46640.0
 10
15384.5
 20
47090.0
 10
16784.5
 20
47090.0
 10
16784.5
 20
46640.0
  0
LWPOLYLINE
  5
2CF
100
AcDbEntity
  8
SOLDERMASK_PADS_TOP
100
AcDbPolyline
 90
        4
 70
         1
 10
15384.5
 20
47910.0
 10
15384.5
 20
48360.0
 10
16784.5
 20
48360.0
 10
16784.5
 20
47910.0
  0
LWPOLYLINE
  5
2D0
100
AcDbEntity
  8
SOLDERMASK_PADS_TOP
100
AcDbPolyline
 90
        4
 70
         1
 10
15384.5
 20
49180.0
 10
15384.5
 20
49630.0
 10
16784.5
 20
49630.0
 10
16784.5
 20
49180.0
  0
LWPOLYLINE
  5
2D1
100
AcDbEntity
  8
SOLDERMASK_PADS_TOP
100
AcDbPolyline
 90
        4
 70
         1
 10
9984.5
 20
49180.0
 10
9984.5
 20
49630.0
 10
11384.5
 20
49630.0
 10
11384.5
 20
49180.0
  0
LWPOLYLINE
  5
2D2
100
AcDbEntity
  8
SOLDERMASK_PADS_TOP
100
AcDbPolyline
 90
        4
 70
         1
 10
9984.5
 20
47910.0
 10
9984.5
 20
48360.0
 10
11384.5
 20
48360.0
 10
11384.5
 20
47910.0
  0
LWPOLYLINE
  5
2D3
100
AcDbEntity
  8
SOLDERMASK_PADS_TOP
100
AcDbPolyline
 90
        4
 70
         1
 10
9984.5
 20
46640.0
 10
9984.5
 20
47090.0
 10
11384.5
 20
47090.0
 10
11384.5
 20
46640.0
  0
LWPOLYLINE
  5
2D4
100
AcDbEntity
  8
SOLDERMASK_PADS_TOP
100
AcDbPolyline
 90
        4
 70
         1
 10
9984.5
 20
45370.0
 10
9984.5
 20
45820.0
 10
11384.5
 20
45820.0
 10
11384.5
 20
45370.0
  0
LWPOLYLINE
  5
2D5
100
AcDbEntity
  8
SOLDERMASK_PADS_TOP
100
AcDbPolyline
 90
        4
 70
         1
 10
19100.0
 20
46250.0
 10
19100.0
 20
46750.0
 10
19500.0
 20
46750.0
 10
19500.0
 20
46250.0
  0
LWPOLYLINE
  5
2D6
100
AcDbEntity
  8
SOLDERMASK_PADS_TOP
100
AcDbPolyline
 90
        4
 70
         1
 10
18300.0
 20
46250.0
 10
18300.0
 20
46750.0
 10
18700.0
 20
46750.0
 10
18700.0
 20
46250.0
  0
LWPOLYLINE
  5
2D7
100
AcDbEntity
  8
SOLDERMASK_PADS_TOP
100
AcDbPolyline
 90
        4
 70
         1
 10
19100.0
 20
45250.0
 10
19100.0
 20
45750.0
 10
19500.0
 20
45750.0
 10
19500.0
 20
45250.0
  0
LWPOLYLINE
  5
2D8
100
AcDbEntity
  8
SOLDERMASK_PADS_TOP
100
AcDbPolyline
 90
        4
 70
         1
 10
18300.0
 20
45250.0
 10
18300.0
 20
45750.0
 10
18700.0
 20
45750.0
 10
18700.0
 20
45250.0
  0
LWPOLYLINE
  5
2D9
100
AcDbEntity
  8
SOLDERMASK_PADS_TOP
100
AcDbPolyline
 90
        4
 70
         1
 10
18300.0
 20
48250.0
 10
18300.0
 20
48750.0
 10
18700.0
 20
48750.0
 10
18700.0
 20
48250.0
  0
LWPOLYLINE
  5
2DA
100
AcDbEntity
  8
SOLDERMASK_PADS_TOP
100
AcDbPolyline
 90
        4
 70
         1
 10
19100.0
 20
48250.0
 10
19100.0
 20
48750.0
 10
19500.0
 20
48750.0
 10
19500.0
 20
48250.0
  0
LWPOLYLINE
  5
2DB
100
AcDbEntity
  8
SOLDERMASK_PADS_TOP
100
AcDbPolyline
 90
        4
 70
         1
 10
19100.0
 20
49250.0
 10
19100.0
 20
49750.0
 10
19500.0
 20
49750.0
 10
19500.0
 20
49250.0
  0
LWPOLYLINE
  5
2DC
100
AcDbEntity
  8
SOLDERMASK_PADS_TOP
100
AcDbPolyline
 90
        4
 70
         1
 10
18300.0
 20
49250.0
 10
18300.0
 20
49750.0
 10
18700.0
 20
49750.0
 10
18700.0
 20
49250.0
  0
LWPOLYLINE
  5
2DD
100
AcDbEntity
  8
SOLDERMASK_PADS_TOP
100
AcDbPolyline
 90
        4
 70
         1
 10
18300.0
 20
47250.0
 10
18300.0
 20
47750.0
 10
18700.0
 20
47750.0
 10
18700.0
 20
47250.0
  0
LWPOLYLINE
  5
2DE
100
AcDbEntity
  8
SOLDERMASK_PADS_TOP
100
AcDbPolyline
 90
        4
 70
         1
 10
19100.0
 20
47250.0
 10
19100.0
 20
47750.0
 10
19500.0
 20
47750.0
 10
19500.0
 20
47250.0
  0
LWPOLYLINE
  5
2DF
100
AcDbEntity
  8
SOLDERMASK_PADS_TOP
100
AcDbPolyline
 90
        4
 70
         1
 10
8100.0
 20
45350.0
 10
8100.0
 20
45850.0
 10
8500.0
 20
45850.0
 10
8500.0
 20
45350.0
  0
LWPOLYLINE
  5
2E0
100
AcDbEntity
  8
SOLDERMASK_PADS_TOP
100
AcDbPolyline
 90
        4
 70
         1
 10
8900.0
 20
45350.0
 10
8900.0
 20
45850.0
 10
9300.0
 20
45850.0
 10
9300.0
 20
45350.0
  0
LWPOLYLINE
  5
2E1
100
AcDbEntity
  8
SOLDERMASK_PADS_TOP
100
AcDbPolyline
 90
        4
 70
         1
 10
20450.0
 20
42900.0
 10
20450.0
 20
43300.0
 10
20950.0
 20
43300.0
 10
20950.0
 20
42900.0
  0
LWPOLYLINE
  5
2E2
100
AcDbEntity
  8
SOLDERMASK_PADS_TOP
100
AcDbPolyline
 90
        4
 70
         1
 10
20450.0
 20
43700.0
 10
20450.0
 20
44100.0
 10
20950.0
 20
44100.0
 10
20950.0
 20
43700.0
  0
LWPOLYLINE
  5
2E3
100
AcDbEntity
  8
SOLDERMASK_PADS_TOP
100
AcDbPolyline
 90
        4
 70
         1
 10
16200.0
 20
42975.0
 10
16200.0
 20
44225.0
 10
17050.0
 20
44225.0
 10
17050.0
 20
42975.0
  0
LWPOLYLINE
  5
2E4
100
AcDbEntity
  8
SOLDERMASK_PADS_TOP
100
AcDbPolyline
 90
        4
 70
         1
 10
17750.0
 20
42975.0
 10
17750.0
 20
44225.0
 10
18600.0
 20
44225.0
 10
18600.0
 20
42975.0
  0
LWPOLYLINE
  5
2E5
100
AcDbEntity
  8
SOLDERMASK_PADS_TOP
100
AcDbPolyline
 90
        4
 70
         1
 10
11545.0
 20
43452.5
 10
11545.0
 20
44452.5
 10
12545.0
 20
44452.5
 10
12545.0
 20
43452.5
  0
LWPOLYLINE
  5
2E6
100
AcDbEntity
  8
SOLDERMASK_PADS_TOP
100
AcDbPolyline
 90
        4
 70
         1
 10
11545.0
 20
41552.5
 10
11545.0
 20
42552.5
 10
12545.0
 20
42552.5
 10
12545.0
 20
41552.5
  0
LWPOLYLINE
  5
2E7
100
AcDbEntity
  8
SOLDERMASK_PADS_TOP
100
AcDbPolyline
 90
        4
 70
         1
 10
13450.0
 20
42500.0
 10
13450.0
 20
43500.0
 10
14450.0
 20
43500.0
 10
14450.0
 20
42500.0
  0
LWPOLYLINE
  5
2E8
100
AcDbEntity
  8
SOLDERMASK_PADS_TOP
100
AcDbPolyline
 90
        4
 70
         1
 10
23200.0
 20
11750.0
 10
23200.0
 20
12250.0
 10
23600.0
 20
12250.0
 10
23600.0
 20
11750.0
  0
LWPOLYLINE
  5
2E9
100
AcDbEntity
  8
SOLDERMASK_PADS_TOP
100
AcDbPolyline
 90
        4
 70
         1
 10
22400.0
 20
11750.0
 10
22400.0
 20
12250.0
 10
22800.0
 20
12250.0
 10
22800.0
 20
11750.0
  0
LWPOLYLINE
  5
2EA
100
AcDbEntity
  8
SOLDERMASK_PADS_TOP
100
AcDbPolyline
 90
        4
 70
         1
 10
23200.0
 20
10750.0
 10
23200.0
 20
11250.0
 10
23600.0
 20
11250.0
 10
23600.0
 20
10750.0
  0
LWPOLYLINE
  5
2EB
100
AcDbEntity
  8
SOLDERMASK_PADS_TOP
100
AcDbPolyline
 90
        4
 70
         1
 10
22400.0
 20
10750.0
 10
22400.0
 20
11250.0
 10
22800.0
 20
11250.0
 10
22800.0
 20
10750.0
  0
LWPOLYLINE
  5
2EC
100
AcDbEntity
  8
SOLDERMASK_PADS_TOP
100
AcDbPolyline
 90
        4
 70
         1
 10
23200.0
 20
9250.0
 10
23200.0
 20
9750.0
 10
23600.0
 20
9750.0
 10
23600.0
 20
9250.0
  0
LWPOLYLINE
  5
2ED
100
AcDbEntity
  8
SOLDERMASK_PADS_TOP
100
AcDbPolyline
 90
        4
 70
         1
 10
22400.0
 20
9250.0
 10
22400.0
 20
9750.0
 10
22800.0
 20
9750.0
 10
22800.0
 20
9250.0
  0
LWPOLYLINE
  5
2EE
100
AcDbEntity
  8
SOLDERMASK_PADS_TOP
100
AcDbPolyline
 90
        4
 70
         1
 10
9400.0
 20
19250.0
 10
9400.0
 20
19750.0
 10
9800.0
 20
19750.0
 10
9800.0
 20
19250.0
  0
LWPOLYLINE
  5
2EF
100
AcDbEntity
  8
SOLDERMASK_PADS_TOP
100
AcDbPolyline
 90
        4
 70
         1
 10
10200.0
 20
19250.0
 10
10200.0
 20
19750.0
 10
10600.0
 20
19750.0
 10
10600.0
 20
19250.0
  0
LWPOLYLINE
  5
2F0
100
AcDbEntity
  8
SOLDERMASK_PADS_TOP
100
AcDbPolyline
 90
        4
 70
         1
 10
9400.0
 20
21250.0
 10
9400.0
 20
21750.0
 10
9800.0
 20
21750.0
 10
9800.0
 20
21250.0
  0
LWPOLYLINE
  5
2F1
100
AcDbEntity
  8
SOLDERMASK_PADS_TOP
100
AcDbPolyline
 90
        4
 70
         1
 10
10200.0
 20
21250.0
 10
10200.0
 20
21750.0
 10
10600.0
 20
21750.0
 10
10600.0
 20
21250.0
  0
LWPOLYLINE
  5
2F2
100
AcDbEntity
  8
SOLDERMASK_PADS_TOP
100
AcDbPolyline
 90
        4
 70
         1
 10
9400.0
 20
20250.0
 10
9400.0
 20
20750.0
 10
9800.0
 20
20750.0
 10
9800.0
 20
20250.0
  0
LWPOLYLINE
  5
2F3
100
AcDbEntity
  8
SOLDERMASK_PADS_TOP
100
AcDbPolyline
 90
        4
 70
         1
 10
10200.0
 20
20250.0
 10
10200.0
 20
20750.0
 10
10600.0
 20
20750.0
 10
10600.0
 20
20250.0
  0
LWPOLYLINE
  5
2F4
100
AcDbEntity
  8
SOLDERMASK_PADS_TOP
100
AcDbPolyline
 90
        4
 70
         1
 10
9400.0
 20
22250.0
 10
9400.0
 20
22750.0
 10
9800.0
 20
22750.0
 10
9800.0
 20
22250.0
  0
LWPOLYLINE
  5
2F5
100
AcDbEntity
  8
SOLDERMASK_PADS_TOP
100
AcDbPolyline
 90
        4
 70
         1
 10
10200.0
 20
22250.0
 10
10200.0
 20
22750.0
 10
10600.0
 20
22750.0
 10
10600.0
 20
22250.0
  0
LWPOLYLINE
  5
2F6
100
AcDbEntity
  8
SOLDERMASK_PADS_TOP
100
AcDbPolyline
 90
        4
 70
         1
 10
9400.0
 20
23250.0
 10
9400.0
 20
23750.0
 10
9800.0
 20
23750.0
 10
9800.0
 20
23250.0
  0
LWPOLYLINE
  5
2F7
100
AcDbEntity
  8
SOLDERMASK_PADS_TOP
100
AcDbPolyline
 90
        4
 70
         1
 10
10200.0
 20
23250.0
 10
10200.0
 20
23750.0
 10
10600.0
 20
23750.0
 10
10600.0
 20
23250.0
  0
LWPOLYLINE
  5
2F8
100
AcDbEntity
  8
SOLDERMASK_PADS_TOP
100
AcDbPolyline
 90
        4
 70
         1
 10
12300.0
 20
19385.0
 10
12300.0
 20
19615.0
 10
13700.0
 20
19615.0
 10
13700.0
 20
19385.0
  0
LWPOLYLINE
  5
2F9
100
AcDbEntity
  8
SOLDERMASK_PADS_TOP
100
AcDbPolyline
 90
        4
 70
         1
 10
12300.0
 20
19885.0
 10
12300.0
 20
20115.0
 10
13700.0
 20
20115.0
 10
13700.0
 20
19885.0
  0
LWPOLYLINE
  5
2FA
100
AcDbEntity
  8
SOLDERMASK_PADS_TOP
100
AcDbPolyline
 90
        4
 70
         1
 10
12300.0
 20
20385.0
 10
12300.0
 20
20615.0
 10
13700.0
 20
20615.0
 10
13700.0
 20
20385.0
  0
LWPOLYLINE
  5
2FB
100
AcDbEntity
  8
SOLDERMASK_PADS_TOP
100
AcDbPolyline
 90
        4
 70
         1
 10
12300.0
 20
20885.0
 10
12300.0
 20
21115.0
 10
13700.0
 20
21115.0
 10
13700.0
 20
20885.0
  0
LWPOLYLINE
  5
2FC
100
AcDbEntity
  8
SOLDERMASK_PADS_TOP
100
AcDbPolyline
 90
        4
 70
         1
 10
12300.0
 20
21385.0
 10
12300.0
 20
21615.0
 10
13700.0
 20
21615.0
 10
13700.0
 20
21385.0
  0
LWPOLYLINE
  5
2FD
100
AcDbEntity
  8
SOLDERMASK_PADS_TOP
100
AcDbPolyline
 90
        4
 70
         1
 10
12300.0
 20
21885.0
 10
12300.0
 20
22115.0
 10
13700.0
 20
22115.0
 10
13700.0
 20
21885.0
  0
LWPOLYLINE
  5
2FE
100
AcDbEntity
  8
SOLDERMASK_PADS_TOP
100
AcDbPolyline
 90
        4
 70
         1
 10
12300.0
 20
22385.0
 10
12300.0
 20
22615.0
 10
13700.0
 20
22615.0
 10
13700.0
 20
22385.0
  0
LWPOLYLINE
  5
2FF
100
AcDbEntity
  8
SOLDERMASK_PADS_TOP
100
AcDbPolyline
 90
        4
 70
         1
 10
12300.0
 20
22885.0
 10
12300.0
 20
23115.0
 10
13700.0
 20
23115.0
 10
13700.0
 20
22885.0
  0
LWPOLYLINE
  5
300
100
AcDbEntity
  8
SOLDERMASK_PADS_TOP
100
AcDbPolyline
 90
        4
 70
         1
 10
12300.0
 20
23385.0
 10
12300.0
 20
23615.0
 10
13700.0
 20
23615.0
 10
13700.0
 20
23385.0
  0
LWPOLYLINE
  5
301
100
AcDbEntity
  8
SOLDERMASK_PADS_TOP
100
AcDbPolyline
 90
        4
 70
         1
 10
12300.0
 20
23885.0
 10
12300.0
 20
24115.0
 10
13700.0
 20
24115.0
 10
13700.0
 20
23885.0
  0
LWPOLYLINE
  5
302
100
AcDbEntity
  8
SOLDERMASK_PADS_TOP
100
AcDbPolyline
 90
        4
 70
         1
 10
12300.0
 20
24385.0
 10
12300.0
 20
24615.0
 10
13700.0
 20
24615.0
 10
13700.0
 20
24385.0
  0
LWPOLYLINE
  5
303
100
AcDbEntity
  8
SOLDERMASK_PADS_TOP
100
AcDbPolyline
 90
        4
 70
         1
 10
12300.0
 20
24885.0
 10
12300.0
 20
25115.0
 10
13700.0
 20
25115.0
 10
13700.0
 20
24885.0
  0
LWPOLYLINE
  5
304
100
AcDbEntity
  8
SOLDERMASK_PADS_TOP
100
AcDbPolyline
 90
        4
 70
         1
 10
12300.0
 20
25385.0
 10
12300.0
 20
25615.0
 10
13700.0
 20
25615.0
 10
13700.0
 20
25385.0
  0
LWPOLYLINE
  5
305
100
AcDbEntity
  8
SOLDERMASK_PADS_TOP
100
AcDbPolyline
 90
        4
 70
         1
 10
12300.0
 20
25885.0
 10
12300.0
 20
26115.0
 10
13700.0
 20
26115.0
 10
13700.0
 20
25885.0
  0
LWPOLYLINE
  5
306
100
AcDbEntity
  8
SOLDERMASK_PADS_TOP
100
AcDbPolyline
 90
        4
 70
         1
 10
12300.0
 20
26385.0
 10
12300.0
 20
26615.0
 10
13700.0
 20
26615.0
 10
13700.0
 20
26385.0
  0
LWPOLYLINE
  5
307
100
AcDbEntity
  8
SOLDERMASK_PADS_TOP
100
AcDbPolyline
 90
        4
 70
         1
 10
12300.0
 20
26885.0
 10
12300.0
 20
27115.0
 10
13700.0
 20
27115.0
 10
13700.0
 20
26885.0
  0
LWPOLYLINE
  5
308
100
AcDbEntity
  8
SOLDERMASK_PADS_TOP
100
AcDbPolyline
 90
        4
 70
         1
 10
12300.0
 20
27385.0
 10
12300.0
 20
27615.0
 10
13700.0
 20
27615.0
 10
13700.0
 20
27385.0
  0
LWPOLYLINE
  5
309
100
AcDbEntity
  8
SOLDERMASK_PADS_TOP
100
AcDbPolyline
 90
        4
 70
         1
 10
12300.0
 20
27885.0
 10
12300.0
 20
28115.0
 10
13700.0
 20
28115.0
 10
13700.0
 20
27885.0
  0
LWPOLYLINE
  5
30A
100
AcDbEntity
  8
SOLDERMASK_PADS_TOP
100
AcDbPolyline
 90
        4
 70
         1
 10
12300.0
 20
28385.0
 10
12300.0
 20
28615.0
 10
13700.0
 20
28615.0
 10
13700.0
 20
28385.0
  0
LWPOLYLINE
  5
30B
100
AcDbEntity
  8
SOLDERMASK_PADS_TOP
100
AcDbPolyline
 90
        4
 70
         1
 10
12300.0
 20
28885.0
 10
12300.0
 20
29115.0
 10
13700.0
 20
29115.0
 10
13700.0
 20
28885.0
  0
LWPOLYLINE
  5
30C
100
AcDbEntity
  8
SOLDERMASK_PADS_TOP
100
AcDbPolyline
 90
        4
 70
         1
 10
12300.0
 20
29385.0
 10
12300.0
 20
29615.0
 10
13700.0
 20
29615.0
 10
13700.0
 20
29385.0
  0
LWPOLYLINE
  5
30D
100
AcDbEntity
  8
SOLDERMASK_PADS_TOP
100
AcDbPolyline
 90
        4
 70
         1
 10
12300.0
 20
29885.0
 10
12300.0
 20
30115.0
 10
13700.0
 20
30115.0
 10
13700.0
 20
29885.0
  0
LWPOLYLINE
  5
30E
100
AcDbEntity
  8
SOLDERMASK_PADS_TOP
100
AcDbPolyline
 90
        4
 70
         1
 10
12300.0
 20
30385.0
 10
12300.0
 20
30615.0
 10
13700.0
 20
30615.0
 10
13700.0
 20
30385.0
  0
LWPOLYLINE
  5
30F
100
AcDbEntity
  8
SOLDERMASK_PADS_TOP
100
AcDbPolyline
 90
        4
 70
         1
 10
12300.0
 20
30885.0
 10
12300.0
 20
31115.0
 10
13700.0
 20
31115.0
 10
13700.0
 20
30885.0
  0
LWPOLYLINE
  5
310
100
AcDbEntity
  8
SOLDERMASK_PADS_TOP
100
AcDbPolyline
 90
        4
 70
         1
 10
12300.0
 20
31385.0
 10
12300.0
 20
31615.0
 10
13700.0
 20
31615.0
 10
13700.0
 20
31385.0
  0
LWPOLYLINE
  5
311
100
AcDbEntity
  8
SOLDERMASK_PADS_TOP
100
AcDbPolyline
 90
        4
 70
         1
 10
12300.0
 20
31885.0
 10
12300.0
 20
32115.0
 10
13700.0
 20
32115.0
 10
13700.0
 20
31885.0
  0
LWPOLYLINE
  5
312
100
AcDbEntity
  8
SOLDERMASK_PADS_TOP
100
AcDbPolyline
 90
        4
 70
         1
 10
12300.0
 20
32385.0
 10
12300.0
 20
32615.0
 10
13700.0
 20
32615.0
 10
13700.0
 20
32385.0
  0
LWPOLYLINE
  5
313
100
AcDbEntity
  8
SOLDERMASK_PADS_TOP
100
AcDbPolyline
 90
        4
 70
         1
 10
12300.0
 20
32885.0
 10
12300.0
 20
33115.0
 10
13700.0
 20
33115.0
 10
13700.0
 20
32885.0
  0
LWPOLYLINE
  5
314
100
AcDbEntity
  8
SOLDERMASK_PADS_TOP
100
AcDbPolyline
 90
        4
 70
         1
 10
12300.0
 20
33385.0
 10
12300.0
 20
33615.0
 10
13700.0
 20
33615.0
 10
13700.0
 20
33385.0
  0
LWPOLYLINE
  5
315
100
AcDbEntity
  8
SOLDERMASK_PADS_TOP
100
AcDbPolyline
 90
        4
 70
         1
 10
12300.0
 20
33885.0
 10
12300.0
 20
34115.0
 10
13700.0
 20
34115.0
 10
13700.0
 20
33885.0
  0
LWPOLYLINE
  5
316
100
AcDbEntity
  8
SOLDERMASK_PADS_TOP
100
AcDbPolyline
 90
        4
 70
         1
 10
12300.0
 20
34385.0
 10
12300.0
 20
34615.0
 10
13700.0
 20
34615.0
 10
13700.0
 20
34385.0
  0
LWPOLYLINE
  5
317
100
AcDbEntity
  8
SOLDERMASK_PADS_TOP
100
AcDbPolyline
 90
        4
 70
         1
 10
12300.0
 20
34885.0
 10
12300.0
 20
35115.0
 10
13700.0
 20
35115.0
 10
13700.0
 20
34885.0
  0
LWPOLYLINE
  5
318
100
AcDbEntity
  8
SOLDERMASK_PADS_TOP
100
AcDbPolyline
 90
        4
 70
         1
 10
12300.0
 20
35385.0
 10
12300.0
 20
35615.0
 10
13700.0
 20
35615.0
 10
13700.0
 20
35385.0
  0
LWPOLYLINE
  5
319
100
AcDbEntity
  8
SOLDERMASK_PADS_TOP
100
AcDbPolyline
 90
        4
 70
         1
 10
12300.0
 20
35885.0
 10
12300.0
 20
36115.0
 10
13700.0
 20
36115.0
 10
13700.0
 20
35885.0
  0
LWPOLYLINE
  5
31A
100
AcDbEntity
  8
SOLDERMASK_PADS_TOP
100
AcDbPolyline
 90
        4
 70
         1
 10
12300.0
 20
36385.0
 10
12300.0
 20
36615.0
 10
13700.0
 20
36615.0
 10
13700.0
 20
36385.0
  0
LWPOLYLINE
  5
31B
100
AcDbEntity
  8
SOLDERMASK_PADS_TOP
100
AcDbPolyline
 90
        4
 70
         1
 10
12300.0
 20
36885.0
 10
12300.0
 20
37115.0
 10
13700.0
 20
37115.0
 10
13700.0
 20
36885.0
  0
LWPOLYLINE
  5
31C
100
AcDbEntity
  8
SOLDERMASK_PADS_TOP
100
AcDbPolyline
 90
        4
 70
         1
 10
12300.0
 20
37385.0
 10
12300.0
 20
37615.0
 10
13700.0
 20
37615.0
 10
13700.0
 20
37385.0
  0
LWPOLYLINE
  5
31D
100
AcDbEntity
  8
SOLDERMASK_PADS_TOP
100
AcDbPolyline
 90
        4
 70
         1
 10
12300.0
 20
37885.0
 10
12300.0
 20
38115.0
 10
13700.0
 20
38115.0
 10
13700.0
 20
37885.0
  0
LWPOLYLINE
  5
31E
100
AcDbEntity
  8
SOLDERMASK_PADS_TOP
100
AcDbPolyline
 90
        4
 70
         1
 10
12300.0
 20
38385.0
 10
12300.0
 20
38615.0
 10
13700.0
 20
38615.0
 10
13700.0
 20
38385.0
  0
LWPOLYLINE
  5
31F
100
AcDbEntity
  8
SOLDERMASK_PADS_TOP
100
AcDbPolyline
 90
        4
 70
         1
 10
12300.0
 20
38885.0
 10
12300.0
 20
39115.0
 10
13700.0
 20
39115.0
 10
13700.0
 20
38885.0
  0
LWPOLYLINE
  5
320
100
AcDbEntity
  8
SOLDERMASK_PADS_TOP
100
AcDbPolyline
 90
        4
 70
         1
 10
15400.0
 20
16200.0
 10
15400.0
 20
18600.0
 10
17200.0
 20
18600.0
 10
17200.0
 20
16200.0
  0
LWPOLYLINE
  5
321
100
AcDbEntity
  8
SOLDERMASK_PADS_TOP
100
AcDbPolyline
 90
        4
 70
         1
 10
15400.0
 20
39900.0
 10
15400.0
 20
42300.0
 10
17200.0
 20
42300.0
 10
17200.0
 20
39900.0
  0
LWPOLYLINE
  5
322
100
AcDbEntity
  8
SOLDERMASK_PADS_TOP
100
AcDbPolyline
 90
        4
 70
         1
 10
12400.0
 20
15750.0
 10
12400.0
 20
16250.0
 10
12800.0
 20
16250.0
 10
12800.0
 20
15750.0
  0
LWPOLYLINE
  5
323
100
AcDbEntity
  8
SOLDERMASK_PADS_TOP
100
AcDbPolyline
 90
        4
 70
         1
 10
13200.0
 20
15750.0
 10
13200.0
 20
16250.0
 10
13600.0
 20
16250.0
 10
13600.0
 20
15750.0
  0
LWPOLYLINE
  5
324
100
AcDbEntity
  8
SOLDERMASK_PADS_TOP
100
AcDbPolyline
 90
        4
 70
         1
 10
19984.5
 20
8370.0
 10
19984.5
 20
8820.0
 10
21384.5
 20
8820.0
 10
21384.5
 20
8370.0
  0
LWPOLYLINE
  5
325
100
AcDbEntity
  8
SOLDERMASK_PADS_TOP
100
AcDbPolyline
 90
        4
 70
         1
 10
19984.5
 20
9640.0
 10
19984.5
 20
10090.0
 10
21384.5
 20
10090.0
 10
21384.5
 20
9640.0
  0
LWPOLYLINE
  5
326
100
AcDbEntity
  8
SOLDERMASK_PADS_TOP
100
AcDbPolyline
 90
        4
 70
         1
 10
19984.5
 20
10910.0
 10
19984.5
 20
11360.0
 10
21384.5
 20
11360.0
 10
21384.5
 20
10910.0
  0
LWPOLYLINE
  5
327
100
AcDbEntity
  8
SOLDERMASK_PADS_TOP
100
AcDbPolyline
 90
        4
 70
         1
 10
19984.5
 20
12180.0
 10
19984.5
 20
12630.0
 10
21384.5
 20
12630.0
 10
21384.5
 20
12180.0
  0
LWPOLYLINE
  5
328
100
AcDbEntity
  8
SOLDERMASK_PADS_TOP
100
AcDbPolyline
 90
        4
 70
         1
 10
14584.5
 20
12180.0
 10
14584.5
 20
12630.0
 10
15984.5
 20
12630.0
 10
15984.5
 20
12180.0
  0
LWPOLYLINE
  5
329
100
AcDbEntity
  8
SOLDERMASK_PADS_TOP
100
AcDbPolyline
 90
        4
 70
         1
 10
14584.5
 20
10910.0
 10
14584.5
 20
11360.0
 10
15984.5
 20
11360.0
 10
15984.5
 20
10910.0
  0
LWPOLYLINE
  5
32A
100
AcDbEntity
  8
SOLDERMASK_PADS_TOP
100
AcDbPolyline
 90
        4
 70
         1
 10
14584.5
 20
9640.0
 10
14584.5
 20
10090.0
 10
15984.5
 20
10090.0
 10
15984.5
 20
9640.0
  0
LWPOLYLINE
  5
32B
100
AcDbEntity
  8
SOLDERMASK_PADS_TOP
100
AcDbPolyline
 90
        4
 70
         1
 10
14584.5
 20
8370.0
 10
14584.5
 20
8820.0
 10
15984.5
 20
8820.0
 10
15984.5
 20
8370.0
  0
LWPOLYLINE
  5
32C
100
AcDbEntity
  8
SOLDERMASK_PADS_TOP
100
AcDbPolyline
 90
        4
 70
         1
 10
18200.0
 20
13750.0
 10
18200.0
 20
14250.0
 10
18600.0
 20
14250.0
 10
18600.0
 20
13750.0
  0
LWPOLYLINE
  5
32D
100
AcDbEntity
  8
SOLDERMASK_PADS_TOP
100
AcDbPolyline
 90
        4
 70
         1
 10
17400.0
 20
13750.0
 10
17400.0
 20
14250.0
 10
17800.0
 20
14250.0
 10
17800.0
 20
13750.0
  0
LWPOLYLINE
  5
32E
100
AcDbEntity
  8
SOLDERMASK_PADS_TOP
100
AcDbPolyline
 90
        4
 70
         1
 10
18200.0
 20
14750.0
 10
18200.0
 20
15250.0
 10
18600.0
 20
15250.0
 10
18600.0
 20
14750.0
  0
LWPOLYLINE
  5
32F
100
AcDbEntity
  8
SOLDERMASK_PADS_TOP
100
AcDbPolyline
 90
        4
 70
         1
 10
17400.0
 20
14750.0
 10
17400.0
 20
15250.0
 10
17800.0
 20
15250.0
 10
17800.0
 20
14750.0
  0
LWPOLYLINE
  5
330
100
AcDbEntity
  8
SOLDERMASK_PADS_TOP
100
AcDbPolyline
 90
        4
 70
         1
 10
10750.0
 20
7900.0
 10
10750.0
 20
8300.0
 10
11250.0
 20
8300.0
 10
11250.0
 20
7900.0
  0
LWPOLYLINE
  5
331
100
AcDbEntity
  8
SOLDERMASK_PADS_TOP
100
AcDbPolyline
 90
        4
 70
         1
 10
10750.0
 20
8700.0
 10
10750.0
 20
9100.0
 10
11250.0
 20
9100.0
 10
11250.0
 20
8700.0
  0
LWPOLYLINE
  5
332
100
AcDbEntity
  8
SOLDERMASK_PADS_TOP
100
AcDbPolyline
 90
        4
 70
         1
 10
12400.0
 20
8750.0
 10
12400.0
 20
9250.0
 10
12800.0
 20
9250.0
 10
12800.0
 20
8750.0
  0
LWPOLYLINE
  5
333
100
AcDbEntity
  8
SOLDERMASK_PADS_TOP
100
AcDbPolyline
 90
        4
 70
         1
 10
13200.0
 20
8750.0
 10
13200.0
 20
9250.0
 10
13600.0
 20
9250.0
 10
13600.0
 20
8750.0
  0
LWPOLYLINE
  5
334
100
AcDbEntity
  8
SOLDERMASK_PADS_TOP
100
AcDbPolyline
 90
        4
 70
         1
 10
12400.0
 20
7750.0
 10
12400.0
 20
8250.0
 10
12800.0
 20
8250.0
 10
12800.0
 20
7750.0
  0
LWPOLYLINE
  5
335
100
AcDbEntity
  8
SOLDERMASK_PADS_TOP
100
AcDbPolyline
 90
        4
 70
         1
 10
13200.0
 20
7750.0
 10
13200.0
 20
8250.0
 10
13600.0
 20
8250.0
 10
13600.0
 20
7750.0
  0
CIRCLE
  5
336
100
AcDbEntity
  8
SOLDERMASK_PADS_TOP
100
AcDbCircle
 10
6700.0
 20
3400.0
 30
0.0
 40
625.0
  0
CIRCLE
  5
337
100
AcDbEntity
  8
SOLDERMASK_PADS_TOP
100
AcDbCircle
 10
6700.0
 20
5400.0
 30
0.0
 40
625.0
  0
CIRCLE
  5
338
100
AcDbEntity
  8
SOLDERMASK_PADS_TOP
100
AcDbCircle
 10
8700.0
 20
3400.0
 30
0.0
 40
625.0
  0
CIRCLE
  5
339
100
AcDbEntity
  8
SOLDERMASK_PADS_TOP
100
AcDbCircle
 10
8700.0
 20
5400.0
 30
0.0
 40
625.0
  0
CIRCLE
  5
33A
100
AcDbEntity
  8
SOLDERMASK_PADS_TOP
100
AcDbCircle
 10
10700.0
 20
3400.0
 30
0.0
 40
625.0
  0
CIRCLE
  5
33B
100
AcDbEntity
  8
SOLDERMASK_PADS_TOP
100
AcDbCircle
 10
10700.0
 20
5400.0
 30
0.0
 40
625.0
  0
CIRCLE
  5
33C
100
AcDbEntity
  8
SOLDERMASK_PADS_TOP
100
AcDbCircle
 10
12700.0
 20
3400.0
 30
0.0
 40
625.0
  0
CIRCLE
  5
33D
100
AcDbEntity
  8
SOLDERMASK_PADS_TOP
100
AcDbCircle
 10
12700.0
 20
5400.0
 30
0.0
 40
625.0
  0
CIRCLE
  5
33E
100
AcDbEntity
  8
SOLDERMASK_PADS_TOP
100
AcDbCircle
 10
14700.0
 20
3400.0
 30
0.0
 40
625.0
  0
CIRCLE
  5
33F
100
AcDbEntity
  8
SOLDERMASK_PADS_TOP
100
AcDbCircle
 10
14700.0
 20
5400.0
 30
0.0
 40
625.0
  0
CIRCLE
  5
340
100
AcDbEntity
  8
SOLDERMASK_PADS_TOP
100
AcDbCircle
 10
16700.0
 20
3400.0
 30
0.0
 40
625.0
  0
CIRCLE
  5
341
100
AcDbEntity
  8
SOLDERMASK_PADS_TOP
100
AcDbCircle
 10
16700.0
 20
5400.0
 30
0.0
 40
625.0
  0
CIRCLE
  5
342
100
AcDbEntity
  8
SOLDERMASK_PADS_TOP
100
AcDbCircle
 10
18700.0
 20
3400.0
 30
0.0
 40
625.0
  0
CIRCLE
  5
343
100
AcDbEntity
  8
SOLDERMASK_PADS_TOP
100
AcDbCircle
 10
18700.0
 20
5400.0
 30
0.0
 40
625.0
  0
CIRCLE
  5
344
100
AcDbEntity
  8
SOLDERMASK_PADS_TOP
100
AcDbCircle
 10
20700.0
 20
3400.0
 30
0.0
 40
625.0
  0
CIRCLE
  5
345
100
AcDbEntity
  8
SOLDERMASK_PADS_TOP
100
AcDbCircle
 10
20700.0
 20
5400.0
 30
0.0
 40
625.0
  0
CIRCLE
  5
346
100
AcDbEntity
  8
SOLDERMASK_PADS_TOP
100
AcDbCircle
 10
24000.0
 20
45000.0
 30
0.0
 40
2000.0
  0
CIRCLE
  5
347
100
AcDbEntity
  8
SOLDERMASK_PADS_TOP
100
AcDbCircle
 10
24000.0
 20
3000.0
 30
0.0
 40
2000.0
  0
CIRCLE
  5
348
100
AcDbEntity
  8
SOLDERMASK_PADS_TOP
100
AcDbCircle
 10
2800.0
 20
3000.0
 30
0.0
 40
2000.0
  0
CIRCLE
  5
349
100
AcDbEntity
  8
SOLDERMASK_PADS_TOP
100
AcDbCircle
 10
5500.0
 20
11930.0
 30
0.0
 40
625.0
  0
CIRCLE
  5
34A
100
AcDbEntity
  8
SOLDERMASK_PADS_TOP
100
AcDbCircle
 10
3500.0
 20
11930.0
 30
0.0
 40
625.0
  0
CIRCLE
  5
34B
100
AcDbEntity
  8
SOLDERMASK_PADS_TOP
100
AcDbCircle
 10
5500.0
 20
13930.0
 30
0.0
 40
625.0
  0
CIRCLE
  5
34C
100
AcDbEntity
  8
SOLDERMASK_PADS_TOP
100
AcDbCircle
 10
3500.0
 20
13930.0
 30
0.0
 40
625.0
  0
CIRCLE
  5
34D
100
AcDbEntity
  8
SOLDERMASK_PADS_TOP
100
AcDbCircle
 10
5500.0
 20
15930.0
 30
0.0
 40
625.0
  0
CIRCLE
  5
34E
100
AcDbEntity
  8
SOLDERMASK_PADS_TOP
100
AcDbCircle
 10
3500.0
 20
15930.0
 30
0.0
 40
625.0
  0
CIRCLE
  5
34F
100
AcDbEntity
  8
SOLDERMASK_PADS_TOP
100
AcDbCircle
 10
5500.0
 20
17930.0
 30
0.0
 40
625.0
  0
CIRCLE
  5
350
100
AcDbEntity
  8
SOLDERMASK_PADS_TOP
100
AcDbCircle
 10
3500.0
 20
17930.0
 30
0.0
 40
625.0
  0
CIRCLE
  5
351
100
AcDbEntity
  8
SOLDERMASK_PADS_TOP
100
AcDbCircle
 10
5500.0
 20
19930.0
 30
0.0
 40
625.0
  0
CIRCLE
  5
352
100
AcDbEntity
  8
SOLDERMASK_PADS_TOP
100
AcDbCircle
 10
3500.0
 20
19930.0
 30
0.0
 40
625.0
  0
CIRCLE
  5
353
100
AcDbEntity
  8
SOLDERMASK_PADS_TOP
100
AcDbCircle
 10
5500.0
 20
21930.0
 30
0.0
 40
625.0
  0
CIRCLE
  5
354
100
AcDbEntity
  8
SOLDERMASK_PADS_TOP
100
AcDbCircle
 10
3500.0
 20
21930.0
 30
0.0
 40
625.0
  0
CIRCLE
  5
355
100
AcDbEntity
  8
SOLDERMASK_PADS_TOP
100
AcDbCircle
 10
5500.0
 20
23930.0
 30
0.0
 40
625.0
  0
CIRCLE
  5
356
100
AcDbEntity
  8
SOLDERMASK_PADS_TOP
100
AcDbCircle
 10
3500.0
 20
23930.0
 30
0.0
 40
625.0
  0
CIRCLE
  5
357
100
AcDbEntity
  8
SOLDERMASK_PADS_TOP
100
AcDbCircle
 10
5500.0
 20
25930.0
 30
0.0
 40
625.0
  0
CIRCLE
  5
358
100
AcDbEntity
  8
SOLDERMASK_PADS_TOP
100
AcDbCircle
 10
3500.0
 20
25930.0
 30
0.0
 40
625.0
  0
CIRCLE
  5
359
100
AcDbEntity
  8
SOLDERMASK_PADS_TOP
100
AcDbCircle
 10
5500.0
 20
27930.0
 30
0.0
 40
625.0
  0
CIRCLE
  5
35A
100
AcDbEntity
  8
SOLDERMASK_PADS_TOP
100
AcDbCircle
 10
3500.0
 20
27930.0
 30
0.0
 40
625.0
  0
CIRCLE
  5
35B
100
AcDbEntity
  8
SOLDERMASK_PADS_TOP
100
AcDbCircle
 10
5500.0
 20
29930.0
 30
0.0
 40
625.0
  0
CIRCLE
  5
35C
100
AcDbEntity
  8
SOLDERMASK_PADS_TOP
100
AcDbCircle
 10
3500.0
 20
29930.0
 30
0.0
 40
625.0
  0
CIRCLE
  5
35D
100
AcDbEntity
  8
SOLDERMASK_PADS_TOP
100
AcDbCircle
 10
5500.0
 20
31930.0
 30
0.0
 40
625.0
  0
CIRCLE
  5
35E
100
AcDbEntity
  8
SOLDERMASK_PADS_TOP
100
AcDbCircle
 10
3500.0
 20
31930.0
 30
0.0
 40
625.0
  0
CIRCLE
  5
35F
100
AcDbEntity
  8
SOLDERMASK_PADS_TOP
100
AcDbCircle
 10
5500.0
 20
33930.0
 30
0.0
 40
625.0
  0
CIRCLE
  5
360
100
AcDbEntity
  8
SOLDERMASK_PADS_TOP
100
AcDbCircle
 10
3500.0
 20
33930.0
 30
0.0
 40
625.0
  0
CIRCLE
  5
361
100
AcDbEntity
  8
SOLDERMASK_PADS_TOP
100
AcDbCircle
 10
5500.0
 20
35930.0
 30
0.0
 40
625.0
  0
CIRCLE
  5
362
100
AcDbEntity
  8
SOLDERMASK_PADS_TOP
100
AcDbCircle
 10
3500.0
 20
35930.0
 30
0.0
 40
625.0
  0
CIRCLE
  5
363
100
AcDbEntity
  8
SOLDERMASK_PADS_TOP
100
AcDbCircle
 10
5500.0
 20
37930.0
 30
0.0
 40
625.0
  0
CIRCLE
  5
364
100
AcDbEntity
  8
SOLDERMASK_PADS_TOP
100
AcDbCircle
 10
3500.0
 20
37930.0
 30
0.0
 40
625.0
  0
CIRCLE
  5
365
100
AcDbEntity
  8
SOLDERMASK_PADS_TOP
100
AcDbCircle
 10
5500.0
 20
39930.0
 30
0.0
 40
625.0
  0
CIRCLE
  5
366
100
AcDbEntity
  8
SOLDERMASK_PADS_TOP
100
AcDbCircle
 10
3500.0
 20
39930.0
 30
0.0
 40
625.0
  0
CIRCLE
  5
367
100
AcDbEntity
  8
SOLDERMASK_PADS_TOP
100
AcDbCircle
 10
5500.0
 20
41930.0
 30
0.0
 40
625.0
  0
CIRCLE
  5
368
100
AcDbEntity
  8
SOLDERMASK_PADS_TOP
100
AcDbCircle
 10
3500.0
 20
41930.0
 30
0.0
 40
625.0
  0
CIRCLE
  5
369
100
AcDbEntity
  8
SOLDERMASK_PADS_TOP
100
AcDbCircle
 10
5500.0
 20
43930.0
 30
0.0
 40
625.0
  0
CIRCLE
  5
36A
100
AcDbEntity
  8
SOLDERMASK_PADS_TOP
100
AcDbCircle
 10
3500.0
 20
43930.0
 30
0.0
 40
625.0
  0
CIRCLE
  5
36B
100
AcDbEntity
  8
SOLDERMASK_PADS_TOP
100
AcDbCircle
 10
5500.0
 20
45930.0
 30
0.0
 40
625.0
  0
CIRCLE
  5
36C
100
AcDbEntity
  8
SOLDERMASK_PADS_TOP
100
AcDbCircle
 10
3500.0
 20
45930.0
 30
0.0
 40
625.0
  0
CIRCLE
  5
36D
100
AcDbEntity
  8
SOLDERMASK_PADS_TOP
100
AcDbCircle
 10
5500.0
 20
47930.0
 30
0.0
 40
625.0
  0
CIRCLE
  5
36E
100
AcDbEntity
  8
SOLDERMASK_PADS_TOP
100
AcDbCircle
 10
3500.0
 20
47930.0
 30
0.0
 40
625.0
  0
CIRCLE
  5
36F
100
AcDbEntity
  8
SOLDERMASK_PADS_TOP
100
AcDbCircle
 10
5500.0
 20
49930.0
 30
0.0
 40
625.0
  0
CIRCLE
  5
370
100
AcDbEntity
  8
SOLDERMASK_PADS_TOP
100
AcDbCircle
 10
3500.0
 20
49930.0
 30
0.0
 40
625.0
  0
ENDSEC
  0
SECTION
  2
OBJECTS
  0
DICTIONARY
  5
19
100
AcDbDictionary
  3
ACAD_GROUP
350
1A
  3
ACAD_MLINESTYLE
350
1B
  0
DICTIONARY
  5
1A
102
{ACAD_REACTORS
330
19
102
}
100
AcDbDictionary
  0
DICTIONARY
  5
1B
102
{ACAD_REACTORS
330
19
102
}
100
AcDbDictionary
  3
STANDARD
350
1C
  0
MLINESTYLE
  5
1C
102
{ACAD_REACTORS
330
1B
102
}
100
AcDbMlineStyle
  2
STANDARD
 70
         0
  3

 62
         0
 51
90.0
 52
90.0
 71
         2
 49
0.5
 62
       256
  6
BYLAYER
 49
-0.5
 62
       256
  6
BYLAYER
  0
DICTIONARY
  5
22
102
{ACAD_REACTORS
330
19
102
}
100
AcDbDictionary
  0
ENDSEC
  0
EOF
