  0
SECTION
  2
HEADER
  9
$ACADVER
  1
AC1014
  9
$ACADMAINTVER
 70
         0
  9
$DWGCODEPAGE
  3
ANSI_1252
  9
$INSBASE
 10
0.0
 20
0.0
 30
0.0
  9
$EXTMIN
 10
0.0
 20
0.0
 30
0.0
  9
$EXTMAX
 10
67.25
 20
27.0
 30
0.0
  9
$LIMMIN
 10
0.0
 20
0.0
  9
$LIMMAX
 10
0.0
 20
0.0
  9
$ORTHOMODE
 70
         0
  9
$REGENMODE
 70
         1
  9
$FILLMODE
 70
         1
  9
$QTEXTMODE
 70
         0
  9
$MIRRTEXT
 70
         1
  9
$DRAGMODE
 70
         2
  9
$LTSCALE
 40
1.0
  9
$OSMODE
 70
         0
  9
$ATTMODE
 70
         1
  9
$TEXTSIZE
 40
0.2
  9
$TRACEWID
 40
0.05
  9
$TEXTSTYLE
  7
STANDARD
  9
$CLAYER
  8
0
  9
$CELTYPE
  6
CONTINUOUS
  9
$CECOLOR
 62
       256
  9
$CELTSCALE
 40
1.0
  9
$DELOBJ
 70
         1
  9
$DISPSILH
 70
         0
  9
$DIMSCALE
 40
1.0
  9
$DIMASZ
 40
0.18
  9
$DIMEXO
 40
0.0625
  9
$DIMDLI
 40
0.38
  9
$DIMRND
 40
0.0
  9
$DIMDLE
 40
0.0
  9
$DIMEXE
 40
0.18
  9
$DIMTP
 40
0.0
  9
$DIMTM
 40
0.0
  9
$DIMTXT
 40
0.18
  9
$DIMCEN
 40
0.09
  9
$DIMTSZ
 40
0.0
  9
$DIMTOL
 70
         0
  9
$DIMLIM
 70
         0
  9
$DIMTIH
 70
         1
  9
$DIMTOH
 70
         1
  9
$DIMSE1
 70
         0
  9
$DIMSE2
 70
         0
  9
$DIMTAD
 70
         0
  9
$DIMZIN
 70
         0
  9
$DIMBLK
  1

  9
$DIMASO
 70
         1
  9
$DIMSHO
 70
         1
  9
$DIMPOST
  1

  9
$DIMAPOST
  1

  9
$DIMALT
 70
         0
  9
$DIMALTD
 70
         2
  9
$DIMALTF
 40
25.4
  9
$DIMLFAC
 40
1.0
  9
$DIMTOFL
 70
         0
  9
$DIMTVP
 40
0.0
  9
$DIMTIX
 70
         0
  9
$DIMSOXD
 70
         0
  9
$DIMSAH
 70
         0
  9
$DIMBLK1
  1

  9
$DIMBLK2
  1

  9
$DIMSTYLE
  2
STANDARD
  9
$DIMCLRD
 70
         0
  9
$DIMCLRE
 70
         0
  9
$DIMCLRT
 70
         0
  9
$DIMTFAC
 40
1.0
  9
$DIMGAP
 40
0.09
  9
$DIMJUST
 70
         0
  9
$DIMSD1
 70
         0
  9
$DIMSD2
 70
         0
  9
$DIMTOLJ
 70
         1
  9
$DIMTZIN
 70
         0
  9
$DIMALTZ
 70
         0
  9
$DIMALTTZ
 70
         0
  9
$DIMFIT
 70
         3
  9
$DIMUPT
 70
         0
  9
$DIMUNIT
 70
         2
  9
$DIMDEC
 70
         4
  9
$DIMTDEC
 70
         4
  9
$DIMALTU
 70
         2
  9
$DIMALTTD
 70
         2
  9
$DIMTXSTY
  7
STANDARD
  9
$DIMAUNIT
 70
         0
  9
$LUNITS
 70
         2
  9
$LUPREC
 70
         4
  9
$SKETCHINC
 40
0.1
  9
$FILLETRAD
 40
0.0
  9
$AUNITS
 70
         0
  9
$AUPREC
 70
         0
  9
$MENU
  1
acad
  9
$ELEVATION
 40
0.0
  9
$PELEVATION
 40
0.0
  9
$THICKNESS
 40
0.0
  9
$LIMCHECK
 70
         0
  9
$BLIPMODE
 70
         1
  9
$CHAMFERA
 40
0.0
  9
$CHAMFERB
 40
0.0
  9
$CHAMFERC
 40
0.0
  9
$CHAMFERD
 40
0.0
  9
$SKPOLY
 70
         0
  9
$TDCREATE
 40
2456925.888240741
  9
$TDUPDATE
 40
0.000000000
  9
$TDINDWG
 40
0.0000000000
  9
$TDUSRTIMER
 40
0.0000000000
  9
$USRTIMER
 70
         1
  9
$ANGBASE
 50
0.0
  9
$ANGDIR
 70
         0
  9
$PDMODE
 70
         0
  9
$PDSIZE
 40
0.0
  9
$PLINEWID
 40
0.0
  9
$COORDS
 70
         0
  9
$SPLFRAME
 70
         0
  9
$SPLINETYPE
 70
         6
  9
$SPLINESEGS
 70
         8
  9
$ATTDIA
 70
         0
  9
$ATTREQ
 70
         1
  9
$HANDLING
 70
         1
  9
$HANDSEED
  5
313
  9
$SURFTAB1
 70
         6
  9
$SURFTAB2
 70
         6
  9
$SURFTYPE
 70
         6
  9
$SURFU
 70
         6
  9
$SURFV
 70
         6
  9
$UCSNAME
  2

  9
$UCSORG
 10
0.0
 20
0.0
 30
0.0
  9
$UCSXDIR
 10
1.0
 20
0.0
 30
0.0
  9
$UCSYDIR
 10
0.0
 20
1.0
 30
0.0
  9
$PUCSNAME
  2

  9
$PUCSORG
 10
0.0
 20
0.0
 30
0.0
  9
$PUCSXDIR
 10
1.0
 20
0.0
 30
0.0
  9
$PUCSYDIR
 10
0.0
 20
1.0
 30
0.0
  9
$USERI1
 70
        -3
  9
$USERI2
 70
         0
  9
$USERI3
 70
         0
  9
$USERI4
 70
         0
  9
$USERI5
 70
         0
  9
$USERR1
 40
0.0
  9
$USERR2
 40
0.0
  9
$USERR3
 40
0.0
  9
$USERR4
 40
0.0
  9
$USERR5
 40
0.0
  9
$WORLDVIEW
 70
         1
  9
$SHADEDGE
 70
         3
  9
$SHADEDIF
 70
        70
  9
$TILEMODE
 70
         1
  9
$MAXACTVP
 70
        16
  9
$PINSBASE
 10
0.0
 20
0.0
 30
0.0
  9
$PLIMCHECK
 70
         0
  9
$PEXTMIN
 10
1.0000000000E+20
 20
1.0000000000E+20
 30
1.0000000000E+20
  9
$PEXTMAX
 10
-1.0000000000E+20
 20
-1.0000000000E+20
 30
-1.0000000000E+20
  9
$PLIMMIN
 10
0.0
 20
0.0
  9
$PLIMMAX
 10
12.0
 20
9.0
  9
$UNITMODE
 70
         0
  9
$VISRETAIN
 70
         0
  9
$PLINEGEN
 70
         1
  9
$PSLTSCALE
 70
         0
  9
$TREEDEPTH
 70
      3020
  9
$PICKSTYLE
 70
         1
  9
$CMLSTYLE
  2
STANDARD
  9
$CMLJUST
 70
         0
  9
$CMLSCALE
 40
1.0
  9
$PROXYGRAPHICS
 70
         0
  9
$MEASUREMENT
 70
         0
  0
ENDSEC
  0
SECTION
  2
CLASSES
  0
CLASS
  1
LWPOLYLINE
  2
AcDbPolyline
  3
"AutoCAD"
 90
        0
280
         0
281
         1
  0
CLASS
  1
IMAGE
  2
AcDbRasterImage
  3
ISM
 90
      127
280
         0
281
         1
  0
CLASS
  1
OLE2FRAME
  2
AcDbOle2Frame
  3
""
 90
        0
280
         0
281
         1
  0
CLASS
  1
HATCH
  2
AcDbHatch
  3
"ACAD_SEDONA"
 90
        0
280
         0
281
         1
  0
CLASS
  1
DICTIONARYVAR
  2
AcDbDictionaryVar
  3
"AutoCAD"
 90
        0
280
         0
281
         0
  0
CLASS
  1
RASTERVARIABLES
  2
AcDbRasterVariables
  3
ISM
 90
        0
280
         0
281
         0
  0
CLASS
  1
IMAGEDEF
  2
AcDbRasterImageDef
  3
ISM
 90
        0
280
         0
281
         0
  0
CLASS
  1
IMAGEDEF_REACTOR
  2
AcDbRasterImageDefReactor
  3
ISM
 90
        1
280
         0
281
         0
  0
CLASS
  1
IDBUFFER
  2
AcDbIdBuffer
  3
"Acad"
 90
        0
280
         0
281
         0
  0
CLASS
  1
SPATIAL_FILTER
  2
AcDbSpatialFilter
  3
"Acad"
 90
        0
280
         0
281
         0
  0
CLASS
  1
XRECORD
  2
AcDbXrecord
  3
"<Built In>"
 90
        0
280
         0
281
         0
  0
CLASS
  1
SORTENTSTABLE
  2
AcDbSortentsTable
  3
"AutoCAD"
 90
        0
280
         0
281
         0
  0
CLASS
  1
LAYER_INDEX
  2
AcDbLayerIndex
  3
"Acad"
 90
        0
280
         0
281
         0
  0
CLASS
  1
SPATIAL_INDEX
  2
AcDbSpatialIndex
  3
"Acad"
 90
        0
280
         0
281
         0
  0
CLASS
  1
OBJECT_PTR
  2
CAseDLPNTableRecord
  3
"ASE-LPNTableRecord"
 90
        1
280
         0
281
         0
  0
CLASS
  1
LAYOUT
  2
AcDbLayout
  3
"AutoCAD 2000"
 90
        0
280
         0
281
         0
  0
CLASS
  1
PLOTSETTINGS
  2
AcDbPlotSettings
  3
"AutoCAD 2000"
 90
        0
280
         0
281
         0
  0
CLASS
  1
ACDBDICTIONARYWDFLT
  2
AcDbDictionaryWithDefault
  3
"AutoCAD 2000"
 90
        0
280
         0
281
         0
  0
CLASS
  1
ACDBPLACEHOLDER
  2
AcDbPlaceHolder
  3
"AutoCAD 2000"
 90
        0
280
         0
281
         0
  0
CLASS
  1
VBA_PROJECT
  2
AcDbVbaProject
  3
"acadvba"
 90
        0
280
         0
281
         0
  0
CLASS
  1
WIPEOUT
  2
AcDbWipeout
  3
WipeOut|AutoCAD Express Tool|expresstools@autodesk.com
 90
      127
280
         0
281
         1
  0
CLASS
  1
WIPEOUTVARIABLES
  2
AcDbWipeoutVariables
  3
WipeOut|AutoCAD Express Tool|expresstools@autodesk.com
 90
        0
280
         0
281
         0
  0
CLASS
  1
RTEXT
  2
RText
  3
RText|AutoCAD Express Tool|expresstools@autodesk.com
 90
        0
280
         0
281
         1
  0
CLASS
  1
ARCALIGNEDTEXT
  2
AcDbArcAlignedText
  3
ATEXT|AutoCAD Express Tool|expresstools@autodesk.com
 90
        0
280
         0
281
         1
  0
ENDSEC
  0
SECTION
  2
TABLES
  0
TABLE
  2
VPORT
  5
7
100
AcDbSymbolTable
 70
         1
  0
VPORT
  5
15
100
AcDbSymbolTableRecord
100
AcDbViewportTableRecord
  2
*ACTIVE
 70
         0
 10
0.0
 20
0.0
 11
1.0
 21
1.0
 12
6.591288
 22
4.579184
 13
0.0
 23
0.0
 14
1.0
 24
1.0
 15
0.0
 25
0.0
 16
0.0
 26
0.0
 36
1.0
 17
0.0
 27
0.0
 37
0.0
 40
9.158369
 41
0.688564
 42
50.0
 43
0.0
 44
0.0
 50
0.0
 51
0.0
 71
         0
 72
       100
 73
         1
 74
         1
 75
         0
 76
         0
 77
         0
 78
         0
  0
ENDTAB
  0
TABLE
  2
LTYPE
  5
4
100
AcDbSymbolTable
 70
         3
  0
LTYPE
  5
11
100
AcDbSymbolTableRecord
100
AcDbLinetypeTableRecord
  2
BYBLOCK
 70
        64
  3

 72
        65
 73
         0
 40
0.0
  0
LTYPE
  5
12
100
AcDbSymbolTableRecord
100
AcDbLinetypeTableRecord
  2
BYLAYER
 70
        64
  3

 72
        65
 73
         0
 40
0.0
  0
LTYPE
  5
13
100
AcDbSymbolTableRecord
100
AcDbLinetypeTableRecord
  2
CONTINUOUS
 70
        64
  3
Solid line
 72
        65
 73
         0
 40
0.0
  0
ENDTAB
  0
TABLE
  2
LAYER
  5
2
100
AcDbSymbolTable
 70
        11
  0
LAYER
  5
14
100
AcDbSymbolTableRecord
100
AcDbLayerTableRecord
  2
0
 70
         0
 62
         7
  6
CONTINUOUS
  0
LAYER
  5
24
100
AcDbSymbolTableRecord
100
AcDbLayerTableRecord
  2
ASSEMBLY_OUTLINES_BTM
 70
         0
 62
       244
  6
CONTINUOUS
  0
LAYER
  5
25
100
AcDbSymbolTableRecord
100
AcDbLayerTableRecord
  2
ASSEMBLY_OUTLINES_TOP
 70
         0
 62
       104
  6
CONTINUOUS
  0
LAYER
  5
26
100
AcDbSymbolTableRecord
100
AcDbLayerTableRecord
  2
ASSEMBLY_REF_DES_TOP
 70
         0
 62
        30
  6
CONTINUOUS
  0
LAYER
  5
27
100
AcDbSymbolTableRecord
100
AcDbLayerTableRecord
  2
BOARD_OUTLINE
 70
         0
 62
        10
  6
CONTINUOUS
  0
LAYER
  5
28
100
AcDbSymbolTableRecord
100
AcDbLayerTableRecord
  2
PART_PADS_LAYER_TOP
 70
         0
 62
       170
  6
CONTINUOUS
  0
LAYER
  5
29
100
AcDbSymbolTableRecord
100
AcDbLayerTableRecord
  2
PART_PADS_LAYER_BOTTOM
 70
         0
 62
        20
  6
CONTINUOUS
  0
LAYER
  5
2A
100
AcDbSymbolTableRecord
100
AcDbLayerTableRecord
  2
PART_PADS_SMD_TOP
 70
         0
 62
       170
  6
CONTINUOUS
  0
LAYER
  5
2B
100
AcDbSymbolTableRecord
100
AcDbLayerTableRecord
  2
PIN_NUMBERS_TOP
 70
         0
 62
         8
  6
CONTINUOUS
  0
LAYER
  5
2C
100
AcDbSymbolTableRecord
100
AcDbLayerTableRecord
  2
SILKSCREEN_OUTLINES_BTM
 70
         0
 62
       244
  6
CONTINUOUS
  0
LAYER
  5
2D
100
AcDbSymbolTableRecord
100
AcDbLayerTableRecord
  2
SILKSCREEN_OUTLINES_TOP
 70
         0
 62
       104
  6
CONTINUOUS
  0
ENDTAB
  0
TABLE
  2
STYLE
  5
3
100
AcDbSymbolTable
 70
         3
  0
STYLE
  5
17
100
AcDbSymbolTableRecord
100
AcDbTextStyleTableRecord
  2
STANDARD
 70
         0
 40
0.0
 41
1.0
 50
0.0
 71
         0
 42
0.0
  3
txt
  4

  0
STYLE
  5
60
100
AcDbSymbolTableRecord
100
AcDbTextStyleTableRecord
  2
ARIAL
 70
         0
 40
0.0
 41
1.0
 50
0.0
 71
         0
 42
0.0
  3
arial.ttf
  4

  0
STYLE
  5
1D3
100
AcDbSymbolTableRecord
100
AcDbTextStyleTableRecord
  2
COURIER_NEW
 70
         0
 40
0.0
 41
1.0
 50
0.0
 71
         0
 42
0.0
  3
cour.ttf
  4

  0
ENDTAB
  0
TABLE
  2
VIEW
  5
5
100
AcDbSymbolTable
 70
         0
  0
ENDTAB
  0
TABLE
  2
UCS
  5
6
100
AcDbSymbolTable
 70
         0
  0
ENDTAB
  0
TABLE
  2
APPID
  5
8
100
AcDbSymbolTable
 70
         1
  0
APPID
  5
16
100
AcDbSymbolTableRecord
100
AcDbRegAppTableRecord
  2
ACAD
 70
         0
  0
ENDTAB
  0
TABLE
  2
DIMSTYLE
  5
9
100
AcDbSymbolTable
 70
         1
  0
DIMSTYLE
105
18
100
AcDbSymbolTableRecord
100
AcDbDimStyleTableRecord
  2
STANDARD
 70
         0
  3

  4

  5

  6

  7

 40
1.0
 41
0.18
 42
0.0625
 43
0.38
 44
0.18
 45
0.0
 46
0.0
 47
0.0
 48
0.0
 71
         0
 72
         0
 73
         1
 74
         1
 75
         0
 76
         0
 77
         0
 78
         0
140
0.18
141
0.09
142
0.0
143
25.4
144
1.0
145
0.0
146
1.0
147
0.09
170
         0
171
         2
172
         0
173
         0
174
         0
175
         0
176
         0
177
         0
178
         0
270
         2
271
         4
272
         4
273
         2
274
         2
275
         0
280
         0
281
         0
282
         0
283
         1
284
         0
285
         0
286
         0
287
         3
288
         0
340
17
  0
ENDTAB
  0
TABLE
  2
BLOCK_RECORD
  5
1
100
AcDbSymbolTable
 70
         0
  0
BLOCK_RECORD
  5
A
100
AcDbSymbolTableRecord
100
AcDbBlockTableRecord
  2
*MODEL_SPACE
  0
BLOCK_RECORD
  5
B
100
AcDbSymbolTableRecord
100
AcDbBlockTableRecord
  2
*PAPER_SPACE
  0
ENDTAB
  0
ENDSEC
  0
SECTION
  2
BLOCKS
  0
BLOCK
  5
D
100
AcDbEntity
  8
0
100
AcDbBlockBegin
  2
*MODEL_SPACE
 70
         0
 10
0.0
 20
0.0
 30
0.0
  3
*MODEL_SPACE
  1

  0
ENDBLK
  5
E
100
AcDbEntity
  8
0
100
AcDbBlockEnd
  0
BLOCK
  5
F
100
AcDbEntity
 67
         1
  8
0
100
AcDbBlockBegin
  2
*PAPER_SPACE
 70
         0
 10
0.0
 20
0.0
 30
0.0
  3
*PAPER_SPACE
  1

  0
ENDBLK
  5
10
100
AcDbEntity
 67
         1
  8
0
100
AcDbBlockEnd
  0
ENDSEC
  0
SECTION
  2
ENTITIES
  0
LWPOLYLINE
  5
2E
100
AcDbEntity
  8
ASSEMBLY_OUTLINES_BTM
100
AcDbPolyline
 90
        5
 70
         1
 43
0.1
 10
66.416
 20
5.26
 10
66.416
 20
1.06
 10
6.414
 20
1.06
 10
6.414
 20
4.06
 10
7.614
 20
5.26
  0
LWPOLYLINE
  5
2F
100
AcDbEntity
  8
ASSEMBLY_OUTLINES_TOP
100
AcDbPolyline
 90
        4
 70
         0
 43
0.2
 10
22.9
 20
7.09843
 10
22.5
 20
7.09843
 10
22.5
 20
8.29843
 10
22.9
 20
8.29843
  0
LWPOLYLINE
  5
30
100
AcDbEntity
  8
ASSEMBLY_OUTLINES_TOP
100
AcDbPolyline
 90
        4
 70
         0
 43
0.25
 10
22.69843
 20
9.1
 10
22.49843
 20
9.1
 10
22.49843
 20
8.7
 10
22.69843
 20
8.7
  0
LWPOLYLINE
  5
31
100
AcDbEntity
  8
ASSEMBLY_OUTLINES_TOP
100
AcDbPolyline
 90
        4
 70
         0
 43
0.2
 10
10.7
 20
8.09843
 10
11.1
 20
8.09843
 10
11.1
 20
6.89843
 10
10.7
 20
6.89843
  0
LWPOLYLINE
  5
32
100
AcDbEntity
  8
ASSEMBLY_OUTLINES_TOP
100
AcDbPolyline
 90
        4
 70
         0
 43
0.25
 10
11.30157
 20
8.5
 10
11.50157
 20
8.5
 10
11.50157
 20
8.9
 10
11.30157
 20
8.9
  0
LWPOLYLINE
  5
33
100
AcDbEntity
  8
ASSEMBLY_OUTLINES_TOP
100
AcDbPolyline
 90
        4
 70
         0
 43
0.25
 10
34.20157
 20
13.0
 10
34.20157
 20
12.8
 10
34.60157
 20
12.8
 10
34.60157
 20
13.0
  0
LWPOLYLINE
  5
34
100
AcDbEntity
  8
ASSEMBLY_OUTLINES_TOP
100
AcDbPolyline
 90
        4
 70
         0
 43
0.25
 10
41.75
 20
18.95157
 10
41.55
 20
18.95157
 10
41.55
 20
18.55157
 10
41.75
 20
18.55157
  0
LWPOLYLINE
  5
35
100
AcDbEntity
  8
ASSEMBLY_OUTLINES_TOP
100
AcDbPolyline
 90
        4
 70
         0
 43
0.25
 10
32.99843
 20
23.2
 10
32.99843
 20
23.0
 10
33.39843
 20
23.0
 10
33.39843
 20
23.2
  0
LWPOLYLINE
  5
36
100
AcDbEntity
  8
ASSEMBLY_OUTLINES_TOP
100
AcDbPolyline
 90
        4
 70
         0
 43
0.25
 10
32.99843
 20
21.6
 10
32.99843
 20
21.4
 10
33.39843
 20
21.4
 10
33.39843
 20
21.6
  0
LWPOLYLINE
  5
37
100
AcDbEntity
  8
ASSEMBLY_OUTLINES_TOP
100
AcDbPolyline
 90
        4
 70
         0
 43
0.25
 10
42.4
 20
7.8
 10
42.6
 20
7.8
 10
42.6
 20
8.2
 10
42.4
 20
8.2
  0
LWPOLYLINE
  5
38
100
AcDbEntity
  8
ASSEMBLY_OUTLINES_TOP
100
AcDbPolyline
 90
        4
 70
         0
 43
0.25
 10
3.1
 20
14.2
 10
3.1
 20
14.0
 10
3.5
 20
14.0
 10
3.5
 20
14.2
  0
LWPOLYLINE
  5
39
100
AcDbEntity
  8
ASSEMBLY_OUTLINES_TOP
100
AcDbPolyline
 90
        4
 70
         0
 43
0.25
 10
48.552355
 20
23.072645
 10
48.552355
 20
22.872645
 10
48.952355
 20
22.872645
 10
48.952355
 20
23.072645
  0
LWPOLYLINE
  5
3A
100
AcDbEntity
  8
ASSEMBLY_OUTLINES_TOP
100
AcDbPolyline
 90
        4
 70
         0
 43
0.25
 10
50.372645
 20
15.622645
 10
50.172645
 20
15.622645
 10
50.172645
 20
15.222645
 10
50.372645
 20
15.222645
  0
LWPOLYLINE
  5
3B
100
AcDbEntity
  8
ASSEMBLY_OUTLINES_TOP
100
AcDbPolyline
 90
        4
 70
         0
 43
0.25
 10
33.54843
 20
16.85
 10
33.54843
 20
17.05
 10
33.14843
 20
17.05
 10
33.14843
 20
16.85
  0
LWPOLYLINE
  5
3C
100
AcDbEntity
  8
ASSEMBLY_OUTLINES_TOP
100
AcDbPolyline
 90
        2
 70
         1
 43
0.15
 10
43.28
 20
9.76
 42
-1.0
 10
49.28
 20
9.76
 42
-1.0
  0
LWPOLYLINE
  5
3D
100
AcDbEntity
  8
ASSEMBLY_OUTLINES_TOP
100
AcDbPolyline
 90
        2
 70
         1
 43
0.15
 10
0.28
 20
9.76
 42
-1.0
 10
6.28
 20
9.76
 42
-1.0
  0
LWPOLYLINE
  5
3E
100
AcDbEntity
  8
ASSEMBLY_OUTLINES_TOP
100
AcDbPolyline
 90
        2
 70
         1
 43
0.2
 10
51.607355
 20
14.075785
 42
-1.0
 10
52.107355
 20
14.075785
 42
-1.0
  0
LWPOLYLINE
  5
3F
100
AcDbEntity
  8
ASSEMBLY_OUTLINES_TOP
100
AcDbPolyline
 90
        4
 70
         1
 43
0.15
 10
51.537355
 20
13.755785
 10
51.537355
 20
14.395785
 10
54.707355
 20
14.395785
 10
54.707355
 20
13.755785
  0
LWPOLYLINE
  5
40
100
AcDbEntity
  8
ASSEMBLY_OUTLINES_TOP
100
AcDbPolyline
 90
        5
 70
         1
 43
0.2
 10
49.368285
 20
21.480785
 10
55.083285
 20
21.480785
 10
55.083285
 20
17.670785
 10
50.003285
 20
17.670785
 10
49.368285
 20
18.305785
  0
LWPOLYLINE
  5
41
100
AcDbEntity
  8
ASSEMBLY_OUTLINES_TOP
100
AcDbPolyline
 90
        5
 70
         1
 43
0.2
 10
40.54581
 20
11.20593
 10
40.54581
 20
18.35593
 10
37.29581
 20
18.35593
 10
36.64581
 20
17.70593
 10
36.64581
 20
11.20593
  0
LWPOLYLINE
  5
42
100
AcDbEntity
  8
ASSEMBLY_OUTLINES_TOP
100
AcDbPolyline
 90
        4
 70
         1
 43
0.15
 10
30.82343
 20
11.0
 10
30.82343
 20
14.6
 10
33.22343
 20
14.6
 10
33.22343
 20
11.0
  0
LWPOLYLINE
  5
43
100
AcDbEntity
  8
ASSEMBLY_OUTLINES_TOP
100
AcDbPolyline
 90
        3
 70
         1
 10
33.22343
 20
11.0
 10
32.598431
 20
11.0
 10
33.22343
 20
11.499999
  0
HATCH
  5
44
100
AcDbEntity
  8
ASSEMBLY_OUTLINES_TOP
100
AcDbHatch
 10
0.0
 20
0.0
 30
0.0
210
0.0
220
0.0
230
1.0
  2
SOLID
 70
         1
 71
         1
 91
        1
 92
        2
 72
         0
 73
         1
 93
        3
 10
33.22343
 20
11.0
 10
32.598430999999998
 20
11.0
 10
33.22343
 20
11.499999000000001
 97
        1
330
43
 75
         0
 76
         1
 98
        1
 10
0.0
 20
0.0
  0
CIRCLE
  5
45
100
AcDbEntity
  8
ASSEMBLY_OUTLINES_TOP
100
AcDbCircle
 10
32.42343
 20
11.4
 30
0.0
 40
0.2
  0
HATCH
  5
46
100
AcDbEntity
  8
ASSEMBLY_OUTLINES_TOP
100
AcDbHatch
 10
0.0
 20
0.0
 30
0.0
210
0.0
220
0.0
230
1.0
  2
SOLID
 70
         1
 71
         1
 91
        1
 92
        1
 93
        1
 72
         2
 10
32.423430000000003
 20
11.4
 40
0.2
 50
0.0
 51
360.0
 73
         1
 97
        1
330
45
 75
         0
 76
         1
 98
        1
 10
0.0
 20
0.0
  0
LWPOLYLINE
  5
47
100
AcDbEntity
  8
ASSEMBLY_OUTLINES_TOP
100
AcDbPolyline
 90
        4
 70
         0
 43
0.25
 10
31.1
 20
18.0
 10
30.9
 20
18.0
 10
30.9
 20
17.6
 10
31.1
 20
17.6
  0
LWPOLYLINE
  5
48
100
AcDbEntity
  8
ASSEMBLY_OUTLINES_TOP
100
AcDbPolyline
 90
        4
 70
         0
 43
0.25
 10
31.1
 20
16.4
 10
30.9
 20
16.4
 10
30.9
 20
16.0
 10
31.1
 20
16.0
  0
LWPOLYLINE
  5
49
100
AcDbEntity
  8
ASSEMBLY_OUTLINES_TOP
100
AcDbPolyline
 90
        4
 70
         0
 43
0.25
 10
31.1
 20
17.2
 10
30.9
 20
17.2
 10
30.9
 20
16.8
 10
31.1
 20
16.8
  0
LWPOLYLINE
  5
4A
100
AcDbEntity
  8
ASSEMBLY_OUTLINES_TOP
100
AcDbPolyline
 90
        4
 70
         0
 43
0.25
 10
30.9
 20
15.2
 10
31.1
 20
15.2
 10
31.1
 20
15.6
 10
30.9
 20
15.6
  0
LWPOLYLINE
  5
4B
100
AcDbEntity
  8
ASSEMBLY_OUTLINES_TOP
100
AcDbPolyline
 90
        4
 70
         1
 43
0.1
 10
1.5
 20
16.87657
 10
1.5
 20
23.87657
 10
3.5
 20
23.87657
 10
3.5
 20
16.87657
  0
LWPOLYLINE
  5
4C
100
AcDbEntity
  8
ASSEMBLY_OUTLINES_TOP
100
AcDbPolyline
 90
        3
 70
         1
 10
3.516
 20
18.59857
 10
1.484
 20
17.58257
 10
3.516
 20
17.58257
  0
HATCH
  5
4D
100
AcDbEntity
  8
ASSEMBLY_OUTLINES_TOP
100
AcDbHatch
 10
0.0
 20
0.0
 30
0.0
210
0.0
220
0.0
230
1.0
  2
SOLID
 70
         1
 71
         1
 91
        1
 92
        2
 72
         0
 73
         1
 93
        3
 10
3.516
 20
18.598569999999999
 10
1.484
 20
17.58257
 10
3.516
 20
17.58257
 97
        1
330
4C
 75
         0
 76
         1
 98
        1
 10
0.0
 20
0.0
  0
LWPOLYLINE
  5
4E
100
AcDbEntity
  8
ASSEMBLY_OUTLINES_TOP
100
AcDbPolyline
 90
        5
 70
         1
 43
0.1
 10
34.64843
 20
20.15
 10
34.44843
 20
20.35
 10
34.44843
 20
23.75
 10
40.04843
 20
23.75
 10
40.04843
 20
20.15
  0
CIRCLE
  5
4F
100
AcDbEntity
  8
ASSEMBLY_OUTLINES_TOP
100
AcDbCircle
 10
33.99843
 20
20.55
 30
0.0
 40
0.35
  0
HATCH
  5
50
100
AcDbEntity
  8
ASSEMBLY_OUTLINES_TOP
100
AcDbHatch
 10
0.0
 20
0.0
 30
0.0
210
0.0
220
0.0
230
1.0
  2
SOLID
 70
         1
 71
         1
 91
        1
 92
        1
 93
        1
 72
         2
 10
33.998429999999999
 20
20.550000000000001
 40
0.35
 50
0.0
 51
360.0
 73
         1
 97
        1
330
4F
 75
         0
 76
         1
 98
        1
 10
0.0
 20
0.0
  0
LWPOLYLINE
  5
51
100
AcDbEntity
  8
ASSEMBLY_OUTLINES_TOP
100
AcDbPolyline
 90
        4
 70
         0
 43
0.25
 10
18.0
 20
25.3
 10
18.2
 20
25.3
 10
18.2
 20
25.7
 10
18.0
 20
25.7
  0
LWPOLYLINE
  5
52
100
AcDbEntity
  8
ASSEMBLY_OUTLINES_TOP
100
AcDbPolyline
 90
        4
 70
         0
 43
0.25
 10
15.1
 20
25.3
 10
15.3
 20
25.3
 10
15.3
 20
25.7
 10
15.1
 20
25.7
  0
LWPOLYLINE
  5
53
100
AcDbEntity
  8
ASSEMBLY_OUTLINES_TOP
100
AcDbPolyline
 90
        4
 70
         0
 43
0.25
 10
23.7
 20
25.3
 10
23.9
 20
25.3
 10
23.9
 20
25.7
 10
23.7
 20
25.7
  0
LWPOLYLINE
  5
54
100
AcDbEntity
  8
ASSEMBLY_OUTLINES_TOP
100
AcDbPolyline
 90
        4
 70
         0
 43
0.25
 10
8.6
 20
17.2
 10
8.4
 20
17.2
 10
8.4
 20
16.8
 10
8.6
 20
16.8
  0
LWPOLYLINE
  5
55
100
AcDbEntity
  8
ASSEMBLY_OUTLINES_TOP
100
AcDbPolyline
 90
        4
 70
         0
 43
0.25
 10
6.2
 20
17.2
 10
6.0
 20
17.2
 10
6.0
 20
16.8
 10
6.2
 20
16.8
  0
LWPOLYLINE
  5
56
100
AcDbEntity
  8
ASSEMBLY_OUTLINES_TOP
100
AcDbPolyline
 90
        4
 70
         0
 43
0.25
 10
7.1
 20
17.5
 10
7.1
 20
17.3
 10
7.5
 20
17.3
 10
7.5
 20
17.5
  0
LWPOLYLINE
  5
57
100
AcDbEntity
  8
ASSEMBLY_OUTLINES_TOP
100
AcDbPolyline
 90
        2
 70
         1
 43
0.2
 10
43.95
 20
17.77157
 42
-1.0
 10
44.45
 20
17.77157
 42
-1.0
  0
LWPOLYLINE
  5
58
100
AcDbEntity
  8
ASSEMBLY_OUTLINES_TOP
100
AcDbPolyline
 90
        4
 70
         1
 43
0.15
 10
43.88
 20
14.92157
 10
43.88
 20
18.09157
 10
44.52
 20
18.09157
 10
44.52
 20
14.92157
  0
LWPOLYLINE
  5
59
100
AcDbEntity
  8
ASSEMBLY_OUTLINES_TOP
100
AcDbPolyline
 90
        4
 70
         0
 43
0.25
 10
44.2
 20
14.40157
 10
44.0
 20
14.40157
 10
44.0
 20
14.00157
 10
44.2
 20
14.00157
  0
LWPOLYLINE
  5
5A
100
AcDbEntity
  8
ASSEMBLY_OUTLINES_TOP
100
AcDbPolyline
 90
        4
 70
         0
 43
0.25
 10
10.1
 20
25.60157
 10
9.9
 20
25.60157
 10
9.9
 20
25.20157
 10
10.1
 20
25.20157
  0
LWPOLYLINE
  5
5B
100
AcDbEntity
  8
ASSEMBLY_OUTLINES_TOP
100
AcDbPolyline
 90
        5
 70
         1
 10
28.48
 20
10.53
 10
11.75
 20
10.53
 10
10.48
 20
11.8
 10
10.48
 20
23.53
 10
28.48
 20
23.53
  0
LWPOLYLINE
  5
5C
100
AcDbEntity
  8
ASSEMBLY_OUTLINES_TOP
100
AcDbPolyline
 90
        5
 70
         1
 43
0.15
 10
28.48
 20
10.53
 10
11.75
 20
10.53
 10
10.48
 20
11.8
 10
10.48
 20
23.53
 10
28.48
 20
23.53
  0
CIRCLE
  5
5D
100
AcDbEntity
  8
ASSEMBLY_OUTLINES_TOP
100
AcDbCircle
 10
10.48
 20
10.03
 30
0.0
 40
0.5
  0
HATCH
  5
5E
100
AcDbEntity
  8
ASSEMBLY_OUTLINES_TOP
100
AcDbHatch
 10
0.0
 20
0.0
 30
0.0
210
0.0
220
0.0
230
1.0
  2
SOLID
 70
         1
 71
         1
 91
        1
 92
        1
 93
        1
 72
         2
 10
10.48
 20
10.029999999999999
 40
0.5
 50
0.0
 51
360.0
 73
         1
 97
        1
330
5D
 75
         0
 76
         1
 98
        1
 10
0.0
 20
0.0
  0
LWPOLYLINE
  5
5F
100
AcDbEntity
  8
ASSEMBLY_OUTLINES_TOP
100
AcDbPolyline
 90
        4
 70
         0
 43
0.25
 10
15.5
 20
8.0
 10
15.5
 20
8.2
 10
15.1
 20
8.2
 10
15.1
 20
8.0
  0
TEXT
  5
61
100
AcDbEntity
  8
ASSEMBLY_REF_DES_TOP
100
AcDbText
 10
21.6512
 20
7.28243
 30
0.0
 40
0.8
  1
C11
  7
ARIAL
 72
         1
 11
22.7
 21
7.69843
 31
0.0
100
AcDbText
 73
         2
  0
TEXT
  5
62
100
AcDbEntity
  8
ASSEMBLY_REF_DES_TOP
100
AcDbText
 10
21.86763
 20
8.484
 30
0.0
 40
0.8
  1
C5
  7
ARIAL
 72
         1
 11
22.59843
 21
8.9
 31
0.0
100
AcDbText
 73
         2
  0
TEXT
  5
63
100
AcDbEntity
  8
ASSEMBLY_REF_DES_TOP
100
AcDbText
 10
9.8512
 20
7.08243
 30
0.0
 40
0.8
  1
C10
  7
ARIAL
 72
         1
 11
10.9
 21
7.49843
 31
0.0
100
AcDbText
 73
         2
  0
TEXT
  5
64
100
AcDbEntity
  8
ASSEMBLY_REF_DES_TOP
100
AcDbText
 10
10.67077
 20
8.284
 30
0.0
 40
0.8
  1
C4
  7
ARIAL
 72
         1
 11
11.40157
 21
8.7
 31
0.0
100
AcDbText
 73
         2
  0
TEXT
  5
65
100
AcDbEntity
  8
ASSEMBLY_REF_DES_TOP
100
AcDbText
 10
33.98557
 20
13.6308
 30
0.0
 40
0.8
  1
C3
 50
270.0
  7
ARIAL
 72
         1
 11
34.40157
 21
12.9
 31
0.0
100
AcDbText
 73
         2
  0
TEXT
  5
66
100
AcDbEntity
  8
ASSEMBLY_REF_DES_TOP
100
AcDbText
 10
40.9192
 20
18.33557
 30
0.0
 40
0.8
  1
C1
  7
ARIAL
 72
         1
 11
41.65
 21
18.75157
 31
0.0
100
AcDbText
 73
         2
  0
TEXT
  5
67
100
AcDbEntity
  8
ASSEMBLY_REF_DES_TOP
100
AcDbText
 10
32.78243
 20
23.8308
 30
0.0
 40
0.8
  1
C9
 50
270.0
  7
ARIAL
 72
         1
 11
33.19843
 21
23.1
 31
0.0
100
AcDbText
 73
         2
  0
TEXT
  5
68
100
AcDbEntity
  8
ASSEMBLY_REF_DES_TOP
100
AcDbText
 10
32.78243
 20
22.2308
 30
0.0
 40
0.8
  1
C8
 50
270.0
  7
ARIAL
 72
         1
 11
33.19843
 21
21.5
 31
0.0
100
AcDbText
 73
         2
  0
TEXT
  5
69
100
AcDbEntity
  8
ASSEMBLY_REF_DES_TOP
100
AcDbText
 10
41.25
 20
7.8
 30
0.0
 40
0.8
  1
R13
  7
ARIAL
 11
41.25
 21
7.8
 31
0.0
100
AcDbText
 73
         1
  0
TEXT
  5
6A
100
AcDbEntity
  8
ASSEMBLY_REF_DES_TOP
100
AcDbText
 10
2.85
 20
15.35
 30
0.0
 40
0.8
  1
R12
 50
270.0
  7
ARIAL
 11
2.85
 21
15.35
 31
0.0
100
AcDbText
 73
         1
  0
TEXT
  5
6B
100
AcDbEntity
  8
ASSEMBLY_REF_DES_TOP
100
AcDbText
 10
48.336355
 20
23.703445
 30
0.0
 40
0.8
  1
C6
 50
270.0
  7
ARIAL
 72
         1
 11
48.752355
 21
22.972645
 31
0.0
100
AcDbText
 73
         2
  0
TEXT
  5
6C
100
AcDbEntity
  8
ASSEMBLY_REF_DES_TOP
100
AcDbText
 10
49.541845
 20
15.006645
 30
0.0
 40
0.8
  1
C7
  7
ARIAL
 72
         1
 11
50.272645
 21
15.422645
 31
0.0
100
AcDbText
 73
         2
  0
TEXT
  5
6D
100
AcDbEntity
  8
ASSEMBLY_REF_DES_TOP
100
AcDbText
 10
32.93243
 20
17.6808
 30
0.0
 40
0.8
  1
C2
 50
270.0
  7
ARIAL
 72
         1
 11
33.34843
 21
16.95
 31
0.0
100
AcDbText
 73
         2
  0
TEXT
  5
6E
100
AcDbEntity
  8
ASSEMBLY_REF_DES_TOP
100
AcDbText
 10
45.772
 20
9.02
 30
0.0
 40
1.0
  1
X2
  7
ARIAL
 72
         2
 11
47.52
 21
9.02
 31
0.0
100
AcDbText
 73
         1
  0
TEXT
  5
6F
100
AcDbEntity
  8
ASSEMBLY_REF_DES_TOP
100
AcDbText
 10
2.272
 20
9.02
 30
0.0
 40
1.0
  1
X3
  7
ARIAL
 72
         2
 11
4.02
 21
9.02
 31
0.0
100
AcDbText
 73
         1
  0
TEXT
  5
70
100
AcDbEntity
  8
ASSEMBLY_REF_DES_TOP
100
AcDbText
 10
51.983755
 20
13.659785
 30
0.0
 40
0.8
  1
RN2
  7
ARIAL
 72
         1
 11
53.127355
 21
14.075785
 31
0.0
100
AcDbText
 73
         2
  0
TEXT
  5
71
100
AcDbEntity
  8
ASSEMBLY_REF_DES_TOP
100
AcDbText
 10
51.500625
 20
19.180595
 30
0.0
 40
0.8
  1
U1
  7
ARIAL
 72
         1
 11
52.231425
 21
19.596595
 31
0.0
100
AcDbText
 73
         2
  0
TEXT
  5
72
100
AcDbEntity
  8
ASSEMBLY_REF_DES_TOP
100
AcDbText
 10
38.20481
 20
15.51173
 30
0.0
 40
0.8
  1
U3
 50
270.0
  7
ARIAL
 72
         1
 11
38.62081
 21
14.78093
 31
0.0
100
AcDbText
 73
         2
  0
TEXT
  5
73
100
AcDbEntity
  8
ASSEMBLY_REF_DES_TOP
100
AcDbText
 10
31.60743
 20
13.912
 30
0.0
 40
0.8
  1
OZ1
 50
270.0
  7
ARIAL
 72
         1
 11
32.02343
 21
12.8
 31
0.0
100
AcDbText
 73
         2
  0
TEXT
  5
74
100
AcDbEntity
  8
ASSEMBLY_REF_DES_TOP
100
AcDbText
 10
30.2692
 20
17.384
 30
0.0
 40
0.8
  1
R1
  7
ARIAL
 72
         1
 11
31.0
 21
17.8
 31
0.0
100
AcDbText
 73
         2
  0
TEXT
  5
75
100
AcDbEntity
  8
ASSEMBLY_REF_DES_TOP
100
AcDbText
 10
30.2692
 20
15.784
 30
0.0
 40
0.8
  1
R8
  7
ARIAL
 72
         1
 11
31.0
 21
16.2
 31
0.0
100
AcDbText
 73
         2
  0
TEXT
  5
76
100
AcDbEntity
  8
ASSEMBLY_REF_DES_TOP
100
AcDbText
 10
30.2692
 20
16.584
 30
0.0
 40
0.8
  1
R7
  7
ARIAL
 72
         1
 11
31.0
 21
17.0
 31
0.0
100
AcDbText
 73
         2
  0
TEXT
  5
77
100
AcDbEntity
  8
ASSEMBLY_REF_DES_TOP
100
AcDbText
 10
30.2692
 20
14.984
 30
0.0
 40
0.8
  1
R9
  7
ARIAL
 72
         1
 11
31.0
 21
15.4
 31
0.0
100
AcDbText
 73
         2
  0
TEXT
  5
78
100
AcDbEntity
  8
ASSEMBLY_REF_DES_TOP
100
AcDbText
 10
2.084
 20
21.83777
 30
0.0
 40
0.8
  1
ANT1
 50
270.0
  7
ARIAL
 72
         1
 11
2.5
 21
20.37657
 31
0.0
100
AcDbText
 73
         2
  0
TEXT
  5
79
100
AcDbEntity
  8
ASSEMBLY_REF_DES_TOP
100
AcDbText
 10
36.51763
 20
21.534
 30
0.0
 40
0.8
  1
U2
  7
ARIAL
 72
         1
 11
37.24843
 21
21.95
 31
0.0
100
AcDbText
 73
         2
  0
TEXT
  5
7A
100
AcDbEntity
  8
ASSEMBLY_REF_DES_TOP
100
AcDbText
 10
17.3692
 20
25.084
 30
0.0
 40
0.8
  1
R5
  7
ARIAL
 72
         1
 11
18.1
 21
25.5
 31
0.0
100
AcDbText
 73
         2
  0
TEXT
  5
7B
100
AcDbEntity
  8
ASSEMBLY_REF_DES_TOP
100
AcDbText
 10
14.4692
 20
25.084
 30
0.0
 40
0.8
  1
R6
  7
ARIAL
 72
         1
 11
15.2
 21
25.5
 31
0.0
100
AcDbText
 73
         2
  0
TEXT
  5
7C
100
AcDbEntity
  8
ASSEMBLY_REF_DES_TOP
100
AcDbText
 10
23.0692
 20
25.084
 30
0.0
 40
0.8
  1
R4
  7
ARIAL
 72
         1
 11
23.8
 21
25.5
 31
0.0
100
AcDbText
 73
         2
  0
TEXT
  5
7D
100
AcDbEntity
  8
ASSEMBLY_REF_DES_TOP
100
AcDbText
 10
7.7692
 20
16.584
 30
0.0
 40
0.8
  1
R3
  7
ARIAL
 72
         1
 11
8.5
 21
17.0
 31
0.0
100
AcDbText
 73
         2
  0
TEXT
  5
7E
100
AcDbEntity
  8
ASSEMBLY_REF_DES_TOP
100
AcDbText
 10
5.464
 20
16.584
 30
0.0
 40
0.8
  1
L1
  7
ARIAL
 72
         1
 11
6.1
 21
17.0
 31
0.0
100
AcDbText
 73
         2
  0
TEXT
  5
7F
100
AcDbEntity
  8
ASSEMBLY_REF_DES_TOP
100
AcDbText
 10
6.884
 20
18.036
 30
0.0
 40
0.8
  1
L2
 50
270.0
  7
ARIAL
 72
         1
 11
7.3
 21
17.4
 31
0.0
100
AcDbText
 73
         2
  0
TEXT
  5
80
100
AcDbEntity
  8
ASSEMBLY_REF_DES_TOP
100
AcDbText
 10
43.784
 20
17.64517
 30
0.0
 40
0.8
  1
RN1
 50
270.0
  7
ARIAL
 72
         1
 11
44.2
 21
16.50157
 31
0.0
100
AcDbText
 73
         2
  0
TEXT
  5
81
100
AcDbEntity
  8
ASSEMBLY_REF_DES_TOP
100
AcDbText
 10
43.0512
 20
13.78557
 30
0.0
 40
0.8
  1
R11
  7
ARIAL
 72
         1
 11
44.1
 21
14.20157
 31
0.0
100
AcDbText
 73
         2
  0
TEXT
  5
82
100
AcDbEntity
  8
ASSEMBLY_REF_DES_TOP
100
AcDbText
 10
9.2692
 20
24.98557
 30
0.0
 40
0.8
  1
R2
  7
ARIAL
 72
         1
 11
10.0
 21
25.40157
 31
0.0
100
AcDbText
 73
         2
  0
TEXT
  5
83
100
AcDbEntity
  8
ASSEMBLY_REF_DES_TOP
100
AcDbText
 10
11.9516
 20
8.084
 30
0.0
 40
0.8
  1
TP2
  7
ARIAL
 72
         1
 11
13.0
 21
8.5
 31
0.0
100
AcDbText
 73
         2
  0
TEXT
  5
84
100
AcDbEntity
  8
ASSEMBLY_REF_DES_TOP
100
AcDbText
 10
12.6516
 20
6.784
 30
0.0
 40
0.8
  1
TP3
  7
ARIAL
 72
         1
 11
13.7
 21
7.2
 31
0.0
100
AcDbText
 73
         2
  0
TEXT
  5
85
100
AcDbEntity
  8
ASSEMBLY_REF_DES_TOP
100
AcDbText
 10
16.8516
 20
8.184
 30
0.0
 40
0.8
  1
TP4
  7
ARIAL
 72
         1
 11
17.9
 21
8.6
 31
0.0
100
AcDbText
 73
         2
  0
TEXT
  5
86
100
AcDbEntity
  8
ASSEMBLY_REF_DES_TOP
100
AcDbText
 10
18.0516
 20
7.284
 30
0.0
 40
0.8
  1
TP5
  7
ARIAL
 72
         1
 11
19.1
 21
7.7
 31
0.0
100
AcDbText
 73
         2
  0
TEXT
  5
87
100
AcDbEntity
  8
ASSEMBLY_REF_DES_TOP
100
AcDbText
 10
12.0516
 20
25.084
 30
0.0
 40
0.8
  1
TP1
  7
ARIAL
 72
         1
 11
13.1
 21
25.5
 31
0.0
100
AcDbText
 73
         2
  0
TEXT
  5
88
100
AcDbEntity
  8
ASSEMBLY_REF_DES_TOP
100
AcDbText
 10
19.064
 20
17.7608
 30
0.0
 40
0.8
  1
U4
 50
270.0
  7
ARIAL
 72
         1
 11
19.48
 21
17.03
 31
0.0
100
AcDbText
 73
         2
  0
TEXT
  5
89
100
AcDbEntity
  8
ASSEMBLY_REF_DES_TOP
100
AcDbText
 10
14.884
 20
9.1488
 30
0.0
 40
0.8
  1
R10
 50
270.0
  7
ARIAL
 72
         1
 11
15.3
 21
8.1
 31
0.0
100
AcDbText
 73
         2
  0
LWPOLYLINE
  5
8A
100
AcDbEntity
  8
BOARD_OUTLINE
100
AcDbPolyline
 90
        4
 70
         1
 10
0.0
 20
0.0
 10
0.0
 20
27.0
 10
67.25
 20
27.0
 10
67.25
 20
0.0
  0
CIRCLE
  5
8B
100
AcDbEntity
  8
PART_PADS_LAYER_TOP
100
AcDbCircle
 10
46.28
 20
9.76
 30
0.0
 40
2.5
  0
CIRCLE
  5
8C
100
AcDbEntity
  8
PART_PADS_LAYER_TOP
100
AcDbCircle
 10
3.28
 20
9.76
 30
0.0
 40
2.5
  0
CIRCLE
  5
8D
100
AcDbEntity
  8
PART_PADS_LAYER_TOP
100
AcDbCircle
 10
7.48
 20
4.16
 30
0.0
 40
0.625
  0
CIRCLE
  5
8E
100
AcDbEntity
  8
PART_PADS_LAYER_TOP
100
AcDbCircle
 10
7.48
 20
2.16
 30
0.0
 40
0.625
  0
CIRCLE
  5
8F
100
AcDbEntity
  8
PART_PADS_LAYER_TOP
100
AcDbCircle
 10
9.48
 20
4.16
 30
0.0
 40
0.625
  0
CIRCLE
  5
90
100
AcDbEntity
  8
PART_PADS_LAYER_TOP
100
AcDbCircle
 10
9.48
 20
2.16
 30
0.0
 40
0.625
  0
CIRCLE
  5
91
100
AcDbEntity
  8
PART_PADS_LAYER_TOP
100
AcDbCircle
 10
11.48
 20
4.16
 30
0.0
 40
0.625
  0
CIRCLE
  5
92
100
AcDbEntity
  8
PART_PADS_LAYER_TOP
100
AcDbCircle
 10
11.48
 20
2.16
 30
0.0
 40
0.625
  0
CIRCLE
  5
93
100
AcDbEntity
  8
PART_PADS_LAYER_TOP
100
AcDbCircle
 10
13.48
 20
4.16
 30
0.0
 40
0.625
  0
CIRCLE
  5
94
100
AcDbEntity
  8
PART_PADS_LAYER_TOP
100
AcDbCircle
 10
13.48
 20
2.16
 30
0.0
 40
0.625
  0
CIRCLE
  5
95
100
AcDbEntity
  8
PART_PADS_LAYER_TOP
100
AcDbCircle
 10
15.48
 20
4.16
 30
0.0
 40
0.625
  0
CIRCLE
  5
96
100
AcDbEntity
  8
PART_PADS_LAYER_TOP
100
AcDbCircle
 10
15.48
 20
2.16
 30
0.0
 40
0.625
  0
CIRCLE
  5
97
100
AcDbEntity
  8
PART_PADS_LAYER_TOP
100
AcDbCircle
 10
17.48
 20
4.16
 30
0.0
 40
0.625
  0
CIRCLE
  5
98
100
AcDbEntity
  8
PART_PADS_LAYER_TOP
100
AcDbCircle
 10
17.48
 20
2.16
 30
0.0
 40
0.625
  0
CIRCLE
  5
99
100
AcDbEntity
  8
PART_PADS_LAYER_TOP
100
AcDbCircle
 10
19.48
 20
4.16
 30
0.0
 40
0.625
  0
CIRCLE
  5
9A
100
AcDbEntity
  8
PART_PADS_LAYER_TOP
100
AcDbCircle
 10
19.48
 20
2.16
 30
0.0
 40
0.625
  0
CIRCLE
  5
9B
100
AcDbEntity
  8
PART_PADS_LAYER_TOP
100
AcDbCircle
 10
21.48
 20
4.16
 30
0.0
 40
0.625
  0
CIRCLE
  5
9C
100
AcDbEntity
  8
PART_PADS_LAYER_TOP
100
AcDbCircle
 10
21.48
 20
2.16
 30
0.0
 40
0.625
  0
CIRCLE
  5
9D
100
AcDbEntity
  8
PART_PADS_LAYER_TOP
100
AcDbCircle
 10
23.48
 20
4.16
 30
0.0
 40
0.625
  0
CIRCLE
  5
9E
100
AcDbEntity
  8
PART_PADS_LAYER_TOP
100
AcDbCircle
 10
23.48
 20
2.16
 30
0.0
 40
0.625
  0
CIRCLE
  5
9F
100
AcDbEntity
  8
PART_PADS_LAYER_TOP
100
AcDbCircle
 10
25.48
 20
4.16
 30
0.0
 40
0.625
  0
CIRCLE
  5
A0
100
AcDbEntity
  8
PART_PADS_LAYER_TOP
100
AcDbCircle
 10
25.48
 20
2.16
 30
0.0
 40
0.625
  0
CIRCLE
  5
A1
100
AcDbEntity
  8
PART_PADS_LAYER_TOP
100
AcDbCircle
 10
27.48
 20
4.16
 30
0.0
 40
0.625
  0
CIRCLE
  5
A2
100
AcDbEntity
  8
PART_PADS_LAYER_TOP
100
AcDbCircle
 10
27.48
 20
2.16
 30
0.0
 40
0.625
  0
CIRCLE
  5
A3
100
AcDbEntity
  8
PART_PADS_LAYER_TOP
100
AcDbCircle
 10
29.48
 20
4.16
 30
0.0
 40
0.625
  0
CIRCLE
  5
A4
100
AcDbEntity
  8
PART_PADS_LAYER_TOP
100
AcDbCircle
 10
29.48
 20
2.16
 30
0.0
 40
0.625
  0
CIRCLE
  5
A5
100
AcDbEntity
  8
PART_PADS_LAYER_TOP
100
AcDbCircle
 10
31.48
 20
4.16
 30
0.0
 40
0.625
  0
CIRCLE
  5
A6
100
AcDbEntity
  8
PART_PADS_LAYER_TOP
100
AcDbCircle
 10
31.48
 20
2.16
 30
0.0
 40
0.625
  0
CIRCLE
  5
A7
100
AcDbEntity
  8
PART_PADS_LAYER_TOP
100
AcDbCircle
 10
33.48
 20
4.16
 30
0.0
 40
0.625
  0
CIRCLE
  5
A8
100
AcDbEntity
  8
PART_PADS_LAYER_TOP
100
AcDbCircle
 10
33.48
 20
2.16
 30
0.0
 40
0.625
  0
CIRCLE
  5
A9
100
AcDbEntity
  8
PART_PADS_LAYER_TOP
100
AcDbCircle
 10
35.48
 20
4.16
 30
0.0
 40
0.625
  0
CIRCLE
  5
AA
100
AcDbEntity
  8
PART_PADS_LAYER_TOP
100
AcDbCircle
 10
35.48
 20
2.16
 30
0.0
 40
0.625
  0
CIRCLE
  5
AB
100
AcDbEntity
  8
PART_PADS_LAYER_TOP
100
AcDbCircle
 10
37.48
 20
4.16
 30
0.0
 40
0.625
  0
CIRCLE
  5
AC
100
AcDbEntity
  8
PART_PADS_LAYER_TOP
100
AcDbCircle
 10
37.48
 20
2.16
 30
0.0
 40
0.625
  0
CIRCLE
  5
AD
100
AcDbEntity
  8
PART_PADS_LAYER_TOP
100
AcDbCircle
 10
39.48
 20
4.16
 30
0.0
 40
0.625
  0
CIRCLE
  5
AE
100
AcDbEntity
  8
PART_PADS_LAYER_TOP
100
AcDbCircle
 10
39.48
 20
2.16
 30
0.0
 40
0.625
  0
CIRCLE
  5
AF
100
AcDbEntity
  8
PART_PADS_LAYER_TOP
100
AcDbCircle
 10
41.48
 20
4.16
 30
0.0
 40
0.625
  0
CIRCLE
  5
B0
100
AcDbEntity
  8
PART_PADS_LAYER_TOP
100
AcDbCircle
 10
41.48
 20
2.16
 30
0.0
 40
0.625
  0
CIRCLE
  5
B1
100
AcDbEntity
  8
PART_PADS_LAYER_TOP
100
AcDbCircle
 10
43.48
 20
4.16
 30
0.0
 40
0.625
  0
CIRCLE
  5
B2
100
AcDbEntity
  8
PART_PADS_LAYER_TOP
100
AcDbCircle
 10
43.48
 20
2.16
 30
0.0
 40
0.625
  0
CIRCLE
  5
B3
100
AcDbEntity
  8
PART_PADS_LAYER_TOP
100
AcDbCircle
 10
45.48
 20
4.16
 30
0.0
 40
0.625
  0
CIRCLE
  5
B4
100
AcDbEntity
  8
PART_PADS_LAYER_TOP
100
AcDbCircle
 10
45.48
 20
2.16
 30
0.0
 40
0.625
  0
CIRCLE
  5
B5
100
AcDbEntity
  8
PART_PADS_LAYER_TOP
100
AcDbCircle
 10
47.48
 20
4.16
 30
0.0
 40
0.625
  0
CIRCLE
  5
B6
100
AcDbEntity
  8
PART_PADS_LAYER_TOP
100
AcDbCircle
 10
47.48
 20
2.16
 30
0.0
 40
0.625
  0
CIRCLE
  5
B7
100
AcDbEntity
  8
PART_PADS_LAYER_TOP
100
AcDbCircle
 10
49.48
 20
4.16
 30
0.0
 40
0.625
  0
CIRCLE
  5
B8
100
AcDbEntity
  8
PART_PADS_LAYER_TOP
100
AcDbCircle
 10
49.48
 20
2.16
 30
0.0
 40
0.625
  0
CIRCLE
  5
B9
100
AcDbEntity
  8
PART_PADS_LAYER_TOP
100
AcDbCircle
 10
51.48
 20
4.16
 30
0.0
 40
0.625
  0
CIRCLE
  5
BA
100
AcDbEntity
  8
PART_PADS_LAYER_TOP
100
AcDbCircle
 10
51.48
 20
2.16
 30
0.0
 40
0.625
  0
CIRCLE
  5
BB
100
AcDbEntity
  8
PART_PADS_LAYER_TOP
100
AcDbCircle
 10
53.48
 20
4.16
 30
0.0
 40
0.625
  0
CIRCLE
  5
BC
100
AcDbEntity
  8
PART_PADS_LAYER_TOP
100
AcDbCircle
 10
53.48
 20
2.16
 30
0.0
 40
0.625
  0
CIRCLE
  5
BD
100
AcDbEntity
  8
PART_PADS_LAYER_TOP
100
AcDbCircle
 10
55.48
 20
4.16
 30
0.0
 40
0.625
  0
CIRCLE
  5
BE
100
AcDbEntity
  8
PART_PADS_LAYER_TOP
100
AcDbCircle
 10
55.48
 20
2.16
 30
0.0
 40
0.625
  0
CIRCLE
  5
BF
100
AcDbEntity
  8
PART_PADS_LAYER_TOP
100
AcDbCircle
 10
57.48
 20
4.16
 30
0.0
 40
0.625
  0
CIRCLE
  5
C0
100
AcDbEntity
  8
PART_PADS_LAYER_TOP
100
AcDbCircle
 10
57.48
 20
2.16
 30
0.0
 40
0.625
  0
CIRCLE
  5
C1
100
AcDbEntity
  8
PART_PADS_LAYER_TOP
100
AcDbCircle
 10
59.48
 20
4.16
 30
0.0
 40
0.625
  0
CIRCLE
  5
C2
100
AcDbEntity
  8
PART_PADS_LAYER_TOP
100
AcDbCircle
 10
59.48
 20
2.16
 30
0.0
 40
0.625
  0
CIRCLE
  5
C3
100
AcDbEntity
  8
PART_PADS_LAYER_TOP
100
AcDbCircle
 10
61.48
 20
4.16
 30
0.0
 40
0.625
  0
CIRCLE
  5
C4
100
AcDbEntity
  8
PART_PADS_LAYER_TOP
100
AcDbCircle
 10
61.48
 20
2.16
 30
0.0
 40
0.625
  0
CIRCLE
  5
C5
100
AcDbEntity
  8
PART_PADS_LAYER_TOP
100
AcDbCircle
 10
63.48
 20
4.16
 30
0.0
 40
0.625
  0
CIRCLE
  5
C6
100
AcDbEntity
  8
PART_PADS_LAYER_TOP
100
AcDbCircle
 10
63.48
 20
2.16
 30
0.0
 40
0.625
  0
CIRCLE
  5
C7
100
AcDbEntity
  8
PART_PADS_LAYER_TOP
100
AcDbCircle
 10
65.48
 20
4.16
 30
0.0
 40
0.625
  0
CIRCLE
  5
C8
100
AcDbEntity
  8
PART_PADS_LAYER_TOP
100
AcDbCircle
 10
65.48
 20
2.16
 30
0.0
 40
0.625
  0
CIRCLE
  5
C9
100
AcDbEntity
  8
PART_PADS_LAYER_BOTTOM
100
AcDbCircle
 10
46.28
 20
9.76
 30
0.0
 40
2.5
  0
CIRCLE
  5
CA
100
AcDbEntity
  8
PART_PADS_LAYER_BOTTOM
100
AcDbCircle
 10
3.28
 20
9.76
 30
0.0
 40
2.5
  0
CIRCLE
  5
CB
100
AcDbEntity
  8
PART_PADS_LAYER_BOTTOM
100
AcDbCircle
 10
7.48
 20
4.16
 30
0.0
 40
0.625
  0
CIRCLE
  5
CC
100
AcDbEntity
  8
PART_PADS_LAYER_BOTTOM
100
AcDbCircle
 10
7.48
 20
2.16
 30
0.0
 40
0.625
  0
CIRCLE
  5
CD
100
AcDbEntity
  8
PART_PADS_LAYER_BOTTOM
100
AcDbCircle
 10
9.48
 20
4.16
 30
0.0
 40
0.625
  0
CIRCLE
  5
CE
100
AcDbEntity
  8
PART_PADS_LAYER_BOTTOM
100
AcDbCircle
 10
9.48
 20
2.16
 30
0.0
 40
0.625
  0
CIRCLE
  5
CF
100
AcDbEntity
  8
PART_PADS_LAYER_BOTTOM
100
AcDbCircle
 10
11.48
 20
4.16
 30
0.0
 40
0.625
  0
CIRCLE
  5
D0
100
AcDbEntity
  8
PART_PADS_LAYER_BOTTOM
100
AcDbCircle
 10
11.48
 20
2.16
 30
0.0
 40
0.625
  0
CIRCLE
  5
D1
100
AcDbEntity
  8
PART_PADS_LAYER_BOTTOM
100
AcDbCircle
 10
13.48
 20
4.16
 30
0.0
 40
0.625
  0
CIRCLE
  5
D2
100
AcDbEntity
  8
PART_PADS_LAYER_BOTTOM
100
AcDbCircle
 10
13.48
 20
2.16
 30
0.0
 40
0.625
  0
CIRCLE
  5
D3
100
AcDbEntity
  8
PART_PADS_LAYER_BOTTOM
100
AcDbCircle
 10
15.48
 20
4.16
 30
0.0
 40
0.625
  0
CIRCLE
  5
D4
100
AcDbEntity
  8
PART_PADS_LAYER_BOTTOM
100
AcDbCircle
 10
15.48
 20
2.16
 30
0.0
 40
0.625
  0
CIRCLE
  5
D5
100
AcDbEntity
  8
PART_PADS_LAYER_BOTTOM
100
AcDbCircle
 10
17.48
 20
4.16
 30
0.0
 40
0.625
  0
CIRCLE
  5
D6
100
AcDbEntity
  8
PART_PADS_LAYER_BOTTOM
100
AcDbCircle
 10
17.48
 20
2.16
 30
0.0
 40
0.625
  0
CIRCLE
  5
D7
100
AcDbEntity
  8
PART_PADS_LAYER_BOTTOM
100
AcDbCircle
 10
19.48
 20
4.16
 30
0.0
 40
0.625
  0
CIRCLE
  5
D8
100
AcDbEntity
  8
PART_PADS_LAYER_BOTTOM
100
AcDbCircle
 10
19.48
 20
2.16
 30
0.0
 40
0.625
  0
CIRCLE
  5
D9
100
AcDbEntity
  8
PART_PADS_LAYER_BOTTOM
100
AcDbCircle
 10
21.48
 20
4.16
 30
0.0
 40
0.625
  0
CIRCLE
  5
DA
100
AcDbEntity
  8
PART_PADS_LAYER_BOTTOM
100
AcDbCircle
 10
21.48
 20
2.16
 30
0.0
 40
0.625
  0
CIRCLE
  5
DB
100
AcDbEntity
  8
PART_PADS_LAYER_BOTTOM
100
AcDbCircle
 10
23.48
 20
4.16
 30
0.0
 40
0.625
  0
CIRCLE
  5
DC
100
AcDbEntity
  8
PART_PADS_LAYER_BOTTOM
100
AcDbCircle
 10
23.48
 20
2.16
 30
0.0
 40
0.625
  0
CIRCLE
  5
DD
100
AcDbEntity
  8
PART_PADS_LAYER_BOTTOM
100
AcDbCircle
 10
25.48
 20
4.16
 30
0.0
 40
0.625
  0
CIRCLE
  5
DE
100
AcDbEntity
  8
PART_PADS_LAYER_BOTTOM
100
AcDbCircle
 10
25.48
 20
2.16
 30
0.0
 40
0.625
  0
CIRCLE
  5
DF
100
AcDbEntity
  8
PART_PADS_LAYER_BOTTOM
100
AcDbCircle
 10
27.48
 20
4.16
 30
0.0
 40
0.625
  0
CIRCLE
  5
E0
100
AcDbEntity
  8
PART_PADS_LAYER_BOTTOM
100
AcDbCircle
 10
27.48
 20
2.16
 30
0.0
 40
0.625
  0
CIRCLE
  5
E1
100
AcDbEntity
  8
PART_PADS_LAYER_BOTTOM
100
AcDbCircle
 10
29.48
 20
4.16
 30
0.0
 40
0.625
  0
CIRCLE
  5
E2
100
AcDbEntity
  8
PART_PADS_LAYER_BOTTOM
100
AcDbCircle
 10
29.48
 20
2.16
 30
0.0
 40
0.625
  0
CIRCLE
  5
E3
100
AcDbEntity
  8
PART_PADS_LAYER_BOTTOM
100
AcDbCircle
 10
31.48
 20
4.16
 30
0.0
 40
0.625
  0
CIRCLE
  5
E4
100
AcDbEntity
  8
PART_PADS_LAYER_BOTTOM
100
AcDbCircle
 10
31.48
 20
2.16
 30
0.0
 40
0.625
  0
CIRCLE
  5
E5
100
AcDbEntity
  8
PART_PADS_LAYER_BOTTOM
100
AcDbCircle
 10
33.48
 20
4.16
 30
0.0
 40
0.625
  0
CIRCLE
  5
E6
100
AcDbEntity
  8
PART_PADS_LAYER_BOTTOM
100
AcDbCircle
 10
33.48
 20
2.16
 30
0.0
 40
0.625
  0
CIRCLE
  5
E7
100
AcDbEntity
  8
PART_PADS_LAYER_BOTTOM
100
AcDbCircle
 10
35.48
 20
4.16
 30
0.0
 40
0.625
  0
CIRCLE
  5
E8
100
AcDbEntity
  8
PART_PADS_LAYER_BOTTOM
100
AcDbCircle
 10
35.48
 20
2.16
 30
0.0
 40
0.625
  0
CIRCLE
  5
E9
100
AcDbEntity
  8
PART_PADS_LAYER_BOTTOM
100
AcDbCircle
 10
37.48
 20
4.16
 30
0.0
 40
0.625
  0
CIRCLE
  5
EA
100
AcDbEntity
  8
PART_PADS_LAYER_BOTTOM
100
AcDbCircle
 10
37.48
 20
2.16
 30
0.0
 40
0.625
  0
CIRCLE
  5
EB
100
AcDbEntity
  8
PART_PADS_LAYER_BOTTOM
100
AcDbCircle
 10
39.48
 20
4.16
 30
0.0
 40
0.625
  0
CIRCLE
  5
EC
100
AcDbEntity
  8
PART_PADS_LAYER_BOTTOM
100
AcDbCircle
 10
39.48
 20
2.16
 30
0.0
 40
0.625
  0
CIRCLE
  5
ED
100
AcDbEntity
  8
PART_PADS_LAYER_BOTTOM
100
AcDbCircle
 10
41.48
 20
4.16
 30
0.0
 40
0.625
  0
CIRCLE
  5
EE
100
AcDbEntity
  8
PART_PADS_LAYER_BOTTOM
100
AcDbCircle
 10
41.48
 20
2.16
 30
0.0
 40
0.625
  0
CIRCLE
  5
EF
100
AcDbEntity
  8
PART_PADS_LAYER_BOTTOM
100
AcDbCircle
 10
43.48
 20
4.16
 30
0.0
 40
0.625
  0
CIRCLE
  5
F0
100
AcDbEntity
  8
PART_PADS_LAYER_BOTTOM
100
AcDbCircle
 10
43.48
 20
2.16
 30
0.0
 40
0.625
  0
CIRCLE
  5
F1
100
AcDbEntity
  8
PART_PADS_LAYER_BOTTOM
100
AcDbCircle
 10
45.48
 20
4.16
 30
0.0
 40
0.625
  0
CIRCLE
  5
F2
100
AcDbEntity
  8
PART_PADS_LAYER_BOTTOM
100
AcDbCircle
 10
45.48
 20
2.16
 30
0.0
 40
0.625
  0
CIRCLE
  5
F3
100
AcDbEntity
  8
PART_PADS_LAYER_BOTTOM
100
AcDbCircle
 10
47.48
 20
4.16
 30
0.0
 40
0.625
  0
CIRCLE
  5
F4
100
AcDbEntity
  8
PART_PADS_LAYER_BOTTOM
100
AcDbCircle
 10
47.48
 20
2.16
 30
0.0
 40
0.625
  0
CIRCLE
  5
F5
100
AcDbEntity
  8
PART_PADS_LAYER_BOTTOM
100
AcDbCircle
 10
49.48
 20
4.16
 30
0.0
 40
0.625
  0
CIRCLE
  5
F6
100
AcDbEntity
  8
PART_PADS_LAYER_BOTTOM
100
AcDbCircle
 10
49.48
 20
2.16
 30
0.0
 40
0.625
  0
CIRCLE
  5
F7
100
AcDbEntity
  8
PART_PADS_LAYER_BOTTOM
100
AcDbCircle
 10
51.48
 20
4.16
 30
0.0
 40
0.625
  0
CIRCLE
  5
F8
100
AcDbEntity
  8
PART_PADS_LAYER_BOTTOM
100
AcDbCircle
 10
51.48
 20
2.16
 30
0.0
 40
0.625
  0
CIRCLE
  5
F9
100
AcDbEntity
  8
PART_PADS_LAYER_BOTTOM
100
AcDbCircle
 10
53.48
 20
4.16
 30
0.0
 40
0.625
  0
CIRCLE
  5
FA
100
AcDbEntity
  8
PART_PADS_LAYER_BOTTOM
100
AcDbCircle
 10
53.48
 20
2.16
 30
0.0
 40
0.625
  0
CIRCLE
  5
FB
100
AcDbEntity
  8
PART_PADS_LAYER_BOTTOM
100
AcDbCircle
 10
55.48
 20
4.16
 30
0.0
 40
0.625
  0
CIRCLE
  5
FC
100
AcDbEntity
  8
PART_PADS_LAYER_BOTTOM
100
AcDbCircle
 10
55.48
 20
2.16
 30
0.0
 40
0.625
  0
CIRCLE
  5
FD
100
AcDbEntity
  8
PART_PADS_LAYER_BOTTOM
100
AcDbCircle
 10
57.48
 20
4.16
 30
0.0
 40
0.625
  0
CIRCLE
  5
FE
100
AcDbEntity
  8
PART_PADS_LAYER_BOTTOM
100
AcDbCircle
 10
57.48
 20
2.16
 30
0.0
 40
0.625
  0
CIRCLE
  5
FF
100
AcDbEntity
  8
PART_PADS_LAYER_BOTTOM
100
AcDbCircle
 10
59.48
 20
4.16
 30
0.0
 40
0.625
  0
CIRCLE
  5
100
100
AcDbEntity
  8
PART_PADS_LAYER_BOTTOM
100
AcDbCircle
 10
59.48
 20
2.16
 30
0.0
 40
0.625
  0
CIRCLE
  5
101
100
AcDbEntity
  8
PART_PADS_LAYER_BOTTOM
100
AcDbCircle
 10
61.48
 20
4.16
 30
0.0
 40
0.625
  0
CIRCLE
  5
102
100
AcDbEntity
  8
PART_PADS_LAYER_BOTTOM
100
AcDbCircle
 10
61.48
 20
2.16
 30
0.0
 40
0.625
  0
CIRCLE
  5
103
100
AcDbEntity
  8
PART_PADS_LAYER_BOTTOM
100
AcDbCircle
 10
63.48
 20
4.16
 30
0.0
 40
0.625
  0
CIRCLE
  5
104
100
AcDbEntity
  8
PART_PADS_LAYER_BOTTOM
100
AcDbCircle
 10
63.48
 20
2.16
 30
0.0
 40
0.625
  0
CIRCLE
  5
105
100
AcDbEntity
  8
PART_PADS_LAYER_BOTTOM
100
AcDbCircle
 10
65.48
 20
4.16
 30
0.0
 40
0.625
  0
CIRCLE
  5
106
100
AcDbEntity
  8
PART_PADS_LAYER_BOTTOM
100
AcDbCircle
 10
65.48
 20
2.16
 30
0.0
 40
0.625
  0
LWPOLYLINE
  5
107
100
AcDbEntity
  8
PART_PADS_SMD_TOP
100
AcDbPolyline
 90
        4
 70
         1
 10
21.5
 20
7.07343
 10
21.5
 20
8.32343
 10
22.35
 20
8.32343
 10
22.35
 20
7.07343
  0
LWPOLYLINE
  5
108
100
AcDbEntity
  8
PART_PADS_SMD_TOP
100
AcDbPolyline
 90
        4
 70
         1
 10
23.05
 20
7.07343
 10
23.05
 20
8.32343
 10
23.9
 20
8.32343
 10
23.9
 20
7.07343
  0
LWPOLYLINE
  5
109
100
AcDbEntity
  8
PART_PADS_SMD_TOP
100
AcDbPolyline
 90
        4
 70
         1
 10
22.79843
 20
8.65
 10
22.79843
 20
9.15
 10
23.19843
 20
9.15
 10
23.19843
 20
8.65
  0
LWPOLYLINE
  5
10A
100
AcDbEntity
  8
PART_PADS_SMD_TOP
100
AcDbPolyline
 90
        4
 70
         1
 10
21.99843
 20
8.65
 10
21.99843
 20
9.15
 10
22.39843
 20
9.15
 10
22.39843
 20
8.65
  0
LWPOLYLINE
  5
10B
100
AcDbEntity
  8
PART_PADS_SMD_TOP
100
AcDbPolyline
 90
        4
 70
         1
 10
11.25
 20
6.87343
 10
11.25
 20
8.12343
 10
12.1
 20
8.12343
 10
12.1
 20
6.87343
  0
LWPOLYLINE
  5
10C
100
AcDbEntity
  8
PART_PADS_SMD_TOP
100
AcDbPolyline
 90
        4
 70
         1
 10
9.7
 20
6.87343
 10
9.7
 20
8.12343
 10
10.55
 20
8.12343
 10
10.55
 20
6.87343
  0
LWPOLYLINE
  5
10D
100
AcDbEntity
  8
PART_PADS_SMD_TOP
100
AcDbPolyline
 90
        4
 70
         1
 10
10.80157
 20
8.45
 10
10.80157
 20
8.95
 10
11.20157
 20
8.95
 10
11.20157
 20
8.45
  0
LWPOLYLINE
  5
10E
100
AcDbEntity
  8
PART_PADS_SMD_TOP
100
AcDbPolyline
 90
        4
 70
         1
 10
11.60157
 20
8.45
 10
11.60157
 20
8.95
 10
12.00157
 20
8.95
 10
12.00157
 20
8.45
  0
LWPOLYLINE
  5
10F
100
AcDbEntity
  8
PART_PADS_SMD_TOP
100
AcDbPolyline
 90
        4
 70
         1
 10
34.15157
 20
13.1
 10
34.15157
 20
13.5
 10
34.65157
 20
13.5
 10
34.65157
 20
13.1
  0
LWPOLYLINE
  5
110
100
AcDbEntity
  8
PART_PADS_SMD_TOP
100
AcDbPolyline
 90
        4
 70
         1
 10
34.15157
 20
12.3
 10
34.15157
 20
12.7
 10
34.65157
 20
12.7
 10
34.65157
 20
12.3
  0
LWPOLYLINE
  5
111
100
AcDbEntity
  8
PART_PADS_SMD_TOP
100
AcDbPolyline
 90
        4
 70
         1
 10
41.85
 20
18.50157
 10
41.85
 20
19.00157
 10
42.25
 20
19.00157
 10
42.25
 20
18.50157
  0
LWPOLYLINE
  5
112
100
AcDbEntity
  8
PART_PADS_SMD_TOP
100
AcDbPolyline
 90
        4
 70
         1
 10
41.05
 20
18.50157
 10
41.05
 20
19.00157
 10
41.45
 20
19.00157
 10
41.45
 20
18.50157
  0
LWPOLYLINE
  5
113
100
AcDbEntity
  8
PART_PADS_SMD_TOP
100
AcDbPolyline
 90
        4
 70
         1
 10
32.94843
 20
23.3
 10
32.94843
 20
23.7
 10
33.44843
 20
23.7
 10
33.44843
 20
23.3
  0
LWPOLYLINE
  5
114
100
AcDbEntity
  8
PART_PADS_SMD_TOP
100
AcDbPolyline
 90
        4
 70
         1
 10
32.94843
 20
22.5
 10
32.94843
 20
22.9
 10
33.44843
 20
22.9
 10
33.44843
 20
22.5
  0
LWPOLYLINE
  5
115
100
AcDbEntity
  8
PART_PADS_SMD_TOP
100
AcDbPolyline
 90
        4
 70
         1
 10
32.94843
 20
21.7
 10
32.94843
 20
22.1
 10
33.44843
 20
22.1
 10
33.44843
 20
21.7
  0
LWPOLYLINE
  5
116
100
AcDbEntity
  8
PART_PADS_SMD_TOP
100
AcDbPolyline
 90
        4
 70
         1
 10
32.94843
 20
20.9
 10
32.94843
 20
21.3
 10
33.44843
 20
21.3
 10
33.44843
 20
20.9
  0
LWPOLYLINE
  5
117
100
AcDbEntity
  8
PART_PADS_SMD_TOP
100
AcDbPolyline
 90
        4
 70
         1
 10
41.9
 20
7.75
 10
41.9
 20
8.25
 10
42.3
 20
8.25
 10
42.3
 20
7.75
  0
LWPOLYLINE
  5
118
100
AcDbEntity
  8
PART_PADS_SMD_TOP
100
AcDbPolyline
 90
        4
 70
         1
 10
42.7
 20
7.75
 10
42.7
 20
8.25
 10
43.1
 20
8.25
 10
43.1
 20
7.75
  0
LWPOLYLINE
  5
119
100
AcDbEntity
  8
PART_PADS_SMD_TOP
100
AcDbPolyline
 90
        4
 70
         1
 10
3.05
 20
14.3
 10
3.05
 20
14.7
 10
3.55
 20
14.7
 10
3.55
 20
14.3
  0
LWPOLYLINE
  5
11A
100
AcDbEntity
  8
PART_PADS_SMD_TOP
100
AcDbPolyline
 90
        4
 70
         1
 10
3.05
 20
13.5
 10
3.05
 20
13.9
 10
3.55
 20
13.9
 10
3.55
 20
13.5
  0
LWPOLYLINE
  5
11B
100
AcDbEntity
  8
PART_PADS_SMD_TOP
100
AcDbPolyline
 90
        4
 70
         1
 10
48.502355
 20
23.172645
 10
48.502355
 20
23.572645
 10
49.002355
 20
23.572645
 10
49.002355
 20
23.172645
  0
LWPOLYLINE
  5
11C
100
AcDbEntity
  8
PART_PADS_SMD_TOP
100
AcDbPolyline
 90
        4
 70
         1
 10
48.502355
 20
22.372645
 10
48.502355
 20
22.772645
 10
49.002355
 20
22.772645
 10
49.002355
 20
22.372645
  0
LWPOLYLINE
  5
11D
100
AcDbEntity
  8
PART_PADS_SMD_TOP
100
AcDbPolyline
 90
        4
 70
         1
 10
50.472645
 20
15.172645
 10
50.472645
 20
15.672645
 10
50.872645
 20
15.672645
 10
50.872645
 20
15.172645
  0
LWPOLYLINE
  5
11E
100
AcDbEntity
  8
PART_PADS_SMD_TOP
100
AcDbPolyline
 90
        4
 70
         1
 10
49.672645
 20
15.172645
 10
49.672645
 20
15.672645
 10
50.072645
 20
15.672645
 10
50.072645
 20
15.172645
  0
LWPOLYLINE
  5
11F
100
AcDbEntity
  8
PART_PADS_SMD_TOP
100
AcDbPolyline
 90
        4
 70
         1
 10
33.09843
 20
16.35
 10
33.09843
 20
16.75
 10
33.59843
 20
16.75
 10
33.59843
 20
16.35
  0
LWPOLYLINE
  5
120
100
AcDbEntity
  8
PART_PADS_SMD_TOP
100
AcDbPolyline
 90
        4
 70
         1
 10
33.09843
 20
17.15
 10
33.09843
 20
17.55
 10
33.59843
 20
17.55
 10
33.59843
 20
17.15
  0
LWPOLYLINE
  5
121
100
AcDbEntity
  8
PART_PADS_SMD_TOP
100
AcDbPolyline
 90
        4
 70
         1
 10
52.527355
 20
12.975785
 10
52.527355
 20
13.575785
 10
52.927355
 20
13.575785
 10
52.927355
 20
12.975785
  0
LWPOLYLINE
  5
122
100
AcDbEntity
  8
PART_PADS_SMD_TOP
100
AcDbPolyline
 90
        4
 70
         1
 10
53.327355
 20
12.975785
 10
53.327355
 20
13.575785
 10
53.727355
 20
13.575785
 10
53.727355
 20
12.975785
  0
LWPOLYLINE
  5
123
100
AcDbEntity
  8
PART_PADS_SMD_TOP
100
AcDbPolyline
 90
        4
 70
         1
 10
53.327355
 20
14.575785
 10
53.327355
 20
15.175785
 10
53.727355
 20
15.175785
 10
53.727355
 20
14.575785
  0
LWPOLYLINE
  5
124
100
AcDbEntity
  8
PART_PADS_SMD_TOP
100
AcDbPolyline
 90
        4
 70
         1
 10
52.527355
 20
14.575785
 10
52.527355
 20
15.175785
 10
52.927355
 20
15.175785
 10
52.927355
 20
14.575785
  0
LWPOLYLINE
  5
125
100
AcDbEntity
  8
PART_PADS_SMD_TOP
100
AcDbPolyline
 90
        4
 70
         1
 10
51.577355
 20
12.975785
 10
51.577355
 20
13.575785
 10
52.177355
 20
13.575785
 10
52.177355
 20
12.975785
  0
LWPOLYLINE
  5
126
100
AcDbEntity
  8
PART_PADS_SMD_TOP
100
AcDbPolyline
 90
        4
 70
         1
 10
54.077355
 20
12.975785
 10
54.077355
 20
13.575785
 10
54.677355
 20
13.575785
 10
54.677355
 20
12.975785
  0
LWPOLYLINE
  5
127
100
AcDbEntity
  8
PART_PADS_SMD_TOP
100
AcDbPolyline
 90
        4
 70
         1
 10
54.077355
 20
14.575785
 10
54.077355
 20
15.175785
 10
54.677355
 20
15.175785
 10
54.677355
 20
14.575785
  0
LWPOLYLINE
  5
128
100
AcDbEntity
  8
PART_PADS_SMD_TOP
100
AcDbPolyline
 90
        4
 70
         1
 10
51.577355
 20
14.575785
 10
51.577355
 20
15.175785
 10
52.177355
 20
15.175785
 10
52.177355
 20
14.575785
  0
LWPOLYLINE
  5
129
100
AcDbEntity
  8
PART_PADS_SMD_TOP
100
AcDbPolyline
 90
        4
 70
         1
 10
49.806425
 20
16.046595
 10
49.806425
 20
17.246595
 10
50.106425
 20
17.246595
 10
50.106425
 20
16.046595
  0
LWPOLYLINE
  5
12A
100
AcDbEntity
  8
PART_PADS_SMD_TOP
100
AcDbPolyline
 90
        4
 70
         1
 10
50.456425
 20
16.046595
 10
50.456425
 20
17.246595
 10
50.756425
 20
17.246595
 10
50.756425
 20
16.046595
  0
LWPOLYLINE
  5
12B
100
AcDbEntity
  8
PART_PADS_SMD_TOP
100
AcDbPolyline
 90
        4
 70
         1
 10
51.106425
 20
16.046595
 10
51.106425
 20
17.246595
 10
51.406425
 20
17.246595
 10
51.406425
 20
16.046595
  0
LWPOLYLINE
  5
12C
100
AcDbEntity
  8
PART_PADS_SMD_TOP
100
AcDbPolyline
 90
        4
 70
         1
 10
51.756425
 20
16.046595
 10
51.756425
 20
17.246595
 10
52.056425
 20
17.246595
 10
52.056425
 20
16.046595
  0
LWPOLYLINE
  5
12D
100
AcDbEntity
  8
PART_PADS_SMD_TOP
100
AcDbPolyline
 90
        4
 70
         1
 10
52.406425
 20
16.046595
 10
52.406425
 20
17.246595
 10
52.706425
 20
17.246595
 10
52.706425
 20
16.046595
  0
LWPOLYLINE
  5
12E
100
AcDbEntity
  8
PART_PADS_SMD_TOP
100
AcDbPolyline
 90
        4
 70
         1
 10
53.056425
 20
16.046595
 10
53.056425
 20
17.246595
 10
53.356425
 20
17.246595
 10
53.356425
 20
16.046595
  0
LWPOLYLINE
  5
12F
100
AcDbEntity
  8
PART_PADS_SMD_TOP
100
AcDbPolyline
 90
        4
 70
         1
 10
53.706425
 20
16.046595
 10
53.706425
 20
17.246595
 10
54.006425
 20
17.246595
 10
54.006425
 20
16.046595
  0
LWPOLYLINE
  5
130
100
AcDbEntity
  8
PART_PADS_SMD_TOP
100
AcDbPolyline
 90
        4
 70
         1
 10
54.356425
 20
16.046595
 10
54.356425
 20
17.246595
 10
54.656425
 20
17.246595
 10
54.656425
 20
16.046595
  0
LWPOLYLINE
  5
131
100
AcDbEntity
  8
PART_PADS_SMD_TOP
100
AcDbPolyline
 90
        4
 70
         1
 10
54.356425
 20
21.946595
 10
54.356425
 20
23.146595
 10
54.656425
 20
23.146595
 10
54.656425
 20
21.946595
  0
LWPOLYLINE
  5
132
100
AcDbEntity
  8
PART_PADS_SMD_TOP
100
AcDbPolyline
 90
        4
 70
         1
 10
53.706425
 20
21.946595
 10
53.706425
 20
23.146595
 10
54.006425
 20
23.146595
 10
54.006425
 20
21.946595
  0
LWPOLYLINE
  5
133
100
AcDbEntity
  8
PART_PADS_SMD_TOP
100
AcDbPolyline
 90
        4
 70
         1
 10
53.056425
 20
21.946595
 10
53.056425
 20
23.146595
 10
53.356425
 20
23.146595
 10
53.356425
 20
21.946595
  0
LWPOLYLINE
  5
134
100
AcDbEntity
  8
PART_PADS_SMD_TOP
100
AcDbPolyline
 90
        4
 70
         1
 10
52.406425
 20
21.946595
 10
52.406425
 20
23.146595
 10
52.706425
 20
23.146595
 10
52.706425
 20
21.946595
  0
LWPOLYLINE
  5
135
100
AcDbEntity
  8
PART_PADS_SMD_TOP
100
AcDbPolyline
 90
        4
 70
         1
 10
51.756425
 20
21.946595
 10
51.756425
 20
23.146595
 10
52.056425
 20
23.146595
 10
52.056425
 20
21.946595
  0
LWPOLYLINE
  5
136
100
AcDbEntity
  8
PART_PADS_SMD_TOP
100
AcDbPolyline
 90
        4
 70
         1
 10
51.106425
 20
21.946595
 10
51.106425
 20
23.146595
 10
51.406425
 20
23.146595
 10
51.406425
 20
21.946595
  0
LWPOLYLINE
  5
137
100
AcDbEntity
  8
PART_PADS_SMD_TOP
100
AcDbPolyline
 90
        4
 70
         1
 10
50.456425
 20
21.946595
 10
50.456425
 20
23.146595
 10
50.756425
 20
23.146595
 10
50.756425
 20
21.946595
  0
LWPOLYLINE
  5
138
100
AcDbEntity
  8
PART_PADS_SMD_TOP
100
AcDbPolyline
 90
        4
 70
         1
 10
49.806425
 20
21.946595
 10
49.806425
 20
23.146595
 10
50.106425
 20
23.146595
 10
50.106425
 20
21.946595
  0
LWPOLYLINE
  5
139
100
AcDbEntity
  8
PART_PADS_SMD_TOP
100
AcDbPolyline
 90
        4
 70
         1
 10
35.07081
 20
17.55593
 10
35.07081
 20
17.85593
 10
36.27081
 20
17.85593
 10
36.27081
 20
17.55593
  0
LWPOLYLINE
  5
13A
100
AcDbEntity
  8
PART_PADS_SMD_TOP
100
AcDbPolyline
 90
        4
 70
         1
 10
35.07081
 20
16.90593
 10
35.07081
 20
17.20593
 10
36.27081
 20
17.20593
 10
36.27081
 20
16.90593
  0
LWPOLYLINE
  5
13B
100
AcDbEntity
  8
PART_PADS_SMD_TOP
100
AcDbPolyline
 90
        4
 70
         1
 10
35.07081
 20
16.25593
 10
35.07081
 20
16.55593
 10
36.27081
 20
16.55593
 10
36.27081
 20
16.25593
  0
LWPOLYLINE
  5
13C
100
AcDbEntity
  8
PART_PADS_SMD_TOP
100
AcDbPolyline
 90
        4
 70
         1
 10
35.07081
 20
15.60593
 10
35.07081
 20
15.90593
 10
36.27081
 20
15.90593
 10
36.27081
 20
15.60593
  0
LWPOLYLINE
  5
13D
100
AcDbEntity
  8
PART_PADS_SMD_TOP
100
AcDbPolyline
 90
        4
 70
         1
 10
35.07081
 20
14.95593
 10
35.07081
 20
15.25593
 10
36.27081
 20
15.25593
 10
36.27081
 20
14.95593
  0
LWPOLYLINE
  5
13E
100
AcDbEntity
  8
PART_PADS_SMD_TOP
100
AcDbPolyline
 90
        4
 70
         1
 10
35.07081
 20
14.30593
 10
35.07081
 20
14.60593
 10
36.27081
 20
14.60593
 10
36.27081
 20
14.30593
  0
LWPOLYLINE
  5
13F
100
AcDbEntity
  8
PART_PADS_SMD_TOP
100
AcDbPolyline
 90
        4
 70
         1
 10
35.07081
 20
13.65593
 10
35.07081
 20
13.95593
 10
36.27081
 20
13.95593
 10
36.27081
 20
13.65593
  0
LWPOLYLINE
  5
140
100
AcDbEntity
  8
PART_PADS_SMD_TOP
100
AcDbPolyline
 90
        4
 70
         1
 10
35.07081
 20
13.00593
 10
35.07081
 20
13.30593
 10
36.27081
 20
13.30593
 10
36.27081
 20
13.00593
  0
LWPOLYLINE
  5
141
100
AcDbEntity
  8
PART_PADS_SMD_TOP
100
AcDbPolyline
 90
        4
 70
         1
 10
35.07081
 20
12.35593
 10
35.07081
 20
12.65593
 10
36.27081
 20
12.65593
 10
36.27081
 20
12.35593
  0
LWPOLYLINE
  5
142
100
AcDbEntity
  8
PART_PADS_SMD_TOP
100
AcDbPolyline
 90
        4
 70
         1
 10
35.07081
 20
11.70593
 10
35.07081
 20
12.00593
 10
36.27081
 20
12.00593
 10
36.27081
 20
11.70593
  0
LWPOLYLINE
  5
143
100
AcDbEntity
  8
PART_PADS_SMD_TOP
100
AcDbPolyline
 90
        4
 70
         1
 10
40.97081
 20
11.70593
 10
40.97081
 20
12.00593
 10
42.17081
 20
12.00593
 10
42.17081
 20
11.70593
  0
LWPOLYLINE
  5
144
100
AcDbEntity
  8
PART_PADS_SMD_TOP
100
AcDbPolyline
 90
        4
 70
         1
 10
40.97081
 20
12.35593
 10
40.97081
 20
12.65593
 10
42.17081
 20
12.65593
 10
42.17081
 20
12.35593
  0
LWPOLYLINE
  5
145
100
AcDbEntity
  8
PART_PADS_SMD_TOP
100
AcDbPolyline
 90
        4
 70
         1
 10
40.97081
 20
13.00593
 10
40.97081
 20
13.30593
 10
42.17081
 20
13.30593
 10
42.17081
 20
13.00593
  0
LWPOLYLINE
  5
146
100
AcDbEntity
  8
PART_PADS_SMD_TOP
100
AcDbPolyline
 90
        4
 70
         1
 10
40.97081
 20
13.65593
 10
40.97081
 20
13.95593
 10
42.17081
 20
13.95593
 10
42.17081
 20
13.65593
  0
LWPOLYLINE
  5
147
100
AcDbEntity
  8
PART_PADS_SMD_TOP
100
AcDbPolyline
 90
        4
 70
         1
 10
40.97081
 20
14.30593
 10
40.97081
 20
14.60593
 10
42.17081
 20
14.60593
 10
42.17081
 20
14.30593
  0
LWPOLYLINE
  5
148
100
AcDbEntity
  8
PART_PADS_SMD_TOP
100
AcDbPolyline
 90
        4
 70
         1
 10
40.97081
 20
14.95593
 10
40.97081
 20
15.25593
 10
42.17081
 20
15.25593
 10
42.17081
 20
14.95593
  0
LWPOLYLINE
  5
149
100
AcDbEntity
  8
PART_PADS_SMD_TOP
100
AcDbPolyline
 90
        4
 70
         1
 10
40.97081
 20
15.60593
 10
40.97081
 20
15.90593
 10
42.17081
 20
15.90593
 10
42.17081
 20
15.60593
  0
LWPOLYLINE
  5
14A
100
AcDbEntity
  8
PART_PADS_SMD_TOP
100
AcDbPolyline
 90
        4
 70
         1
 10
40.97081
 20
16.25593
 10
40.97081
 20
16.55593
 10
42.17081
 20
16.55593
 10
42.17081
 20
16.25593
  0
LWPOLYLINE
  5
14B
100
AcDbEntity
  8
PART_PADS_SMD_TOP
100
AcDbPolyline
 90
        4
 70
         1
 10
40.97081
 20
16.90593
 10
40.97081
 20
17.20593
 10
42.17081
 20
17.20593
 10
42.17081
 20
16.90593
  0
LWPOLYLINE
  5
14C
100
AcDbEntity
  8
PART_PADS_SMD_TOP
100
AcDbPolyline
 90
        4
 70
         1
 10
40.97081
 20
17.55593
 10
40.97081
 20
17.85593
 10
42.17081
 20
17.85593
 10
42.17081
 20
17.55593
  0
LWPOLYLINE
  5
14D
100
AcDbEntity
  8
PART_PADS_SMD_TOP
100
AcDbPolyline
 90
        4
 70
         1
 10
32.82343
 20
11.415
 10
32.82343
 20
11.685
 10
33.62343
 20
11.685
 10
33.62343
 20
11.415
  0
LWPOLYLINE
  5
14E
100
AcDbEntity
  8
PART_PADS_SMD_TOP
100
AcDbPolyline
 90
        4
 70
         1
 10
32.82343
 20
11.915
 10
32.82343
 20
12.185
 10
33.62343
 20
12.185
 10
33.62343
 20
11.915
  0
LWPOLYLINE
  5
14F
100
AcDbEntity
  8
PART_PADS_SMD_TOP
100
AcDbPolyline
 90
        4
 70
         1
 10
32.82343
 20
12.415
 10
32.82343
 20
12.685
 10
33.62343
 20
12.685
 10
33.62343
 20
12.415
  0
LWPOLYLINE
  5
150
100
AcDbEntity
  8
PART_PADS_SMD_TOP
100
AcDbPolyline
 90
        4
 70
         1
 10
32.82343
 20
12.915
 10
32.82343
 20
13.185
 10
33.62343
 20
13.185
 10
33.62343
 20
12.915
  0
LWPOLYLINE
  5
151
100
AcDbEntity
  8
PART_PADS_SMD_TOP
100
AcDbPolyline
 90
        4
 70
         1
 10
32.82343
 20
13.415
 10
32.82343
 20
13.685
 10
33.62343
 20
13.685
 10
33.62343
 20
13.415
  0
LWPOLYLINE
  5
152
100
AcDbEntity
  8
PART_PADS_SMD_TOP
100
AcDbPolyline
 90
        4
 70
         1
 10
32.82343
 20
13.915
 10
32.82343
 20
14.185
 10
33.62343
 20
14.185
 10
33.62343
 20
13.915
  0
LWPOLYLINE
  5
153
100
AcDbEntity
  8
PART_PADS_SMD_TOP
100
AcDbPolyline
 90
        4
 70
         1
 10
30.42343
 20
13.915
 10
30.42343
 20
14.185
 10
31.22343
 20
14.185
 10
31.22343
 20
13.915
  0
LWPOLYLINE
  5
154
100
AcDbEntity
  8
PART_PADS_SMD_TOP
100
AcDbPolyline
 90
        4
 70
         1
 10
30.42343
 20
13.415
 10
30.42343
 20
13.685
 10
31.22343
 20
13.685
 10
31.22343
 20
13.415
  0
LWPOLYLINE
  5
155
100
AcDbEntity
  8
PART_PADS_SMD_TOP
100
AcDbPolyline
 90
        4
 70
         1
 10
30.42343
 20
12.915
 10
30.42343
 20
13.185
 10
31.22343
 20
13.185
 10
31.22343
 20
12.915
  0
LWPOLYLINE
  5
156
100
AcDbEntity
  8
PART_PADS_SMD_TOP
100
AcDbPolyline
 90
        4
 70
         1
 10
30.42343
 20
12.415
 10
30.42343
 20
12.685
 10
31.22343
 20
12.685
 10
31.22343
 20
12.415
  0
LWPOLYLINE
  5
157
100
AcDbEntity
  8
PART_PADS_SMD_TOP
100
AcDbPolyline
 90
        4
 70
         1
 10
30.42343
 20
11.915
 10
30.42343
 20
12.185
 10
31.22343
 20
12.185
 10
31.22343
 20
11.915
  0
LWPOLYLINE
  5
158
100
AcDbEntity
  8
PART_PADS_SMD_TOP
100
AcDbPolyline
 90
        4
 70
         1
 10
30.42343
 20
11.415
 10
30.42343
 20
11.685
 10
31.22343
 20
11.685
 10
31.22343
 20
11.415
  0
LWPOLYLINE
  5
159
100
AcDbEntity
  8
PART_PADS_SMD_TOP
100
AcDbPolyline
 90
        4
 70
         1
 10
31.2
 20
17.55
 10
31.2
 20
18.05
 10
31.6
 20
18.05
 10
31.6
 20
17.55
  0
LWPOLYLINE
  5
15A
100
AcDbEntity
  8
PART_PADS_SMD_TOP
100
AcDbPolyline
 90
        4
 70
         1
 10
30.4
 20
17.55
 10
30.4
 20
18.05
 10
30.8
 20
18.05
 10
30.8
 20
17.55
  0
LWPOLYLINE
  5
15B
100
AcDbEntity
  8
PART_PADS_SMD_TOP
100
AcDbPolyline
 90
        4
 70
         1
 10
31.2
 20
15.95
 10
31.2
 20
16.45
 10
31.6
 20
16.45
 10
31.6
 20
15.95
  0
LWPOLYLINE
  5
15C
100
AcDbEntity
  8
PART_PADS_SMD_TOP
100
AcDbPolyline
 90
        4
 70
         1
 10
30.4
 20
15.95
 10
30.4
 20
16.45
 10
30.8
 20
16.45
 10
30.8
 20
15.95
  0
LWPOLYLINE
  5
15D
100
AcDbEntity
  8
PART_PADS_SMD_TOP
100
AcDbPolyline
 90
        4
 70
         1
 10
31.2
 20
16.75
 10
31.2
 20
17.25
 10
31.6
 20
17.25
 10
31.6
 20
16.75
  0
LWPOLYLINE
  5
15E
100
AcDbEntity
  8
PART_PADS_SMD_TOP
100
AcDbPolyline
 90
        4
 70
         1
 10
30.4
 20
16.75
 10
30.4
 20
17.25
 10
30.8
 20
17.25
 10
30.8
 20
16.75
  0
LWPOLYLINE
  5
15F
100
AcDbEntity
  8
PART_PADS_SMD_TOP
100
AcDbPolyline
 90
        4
 70
         1
 10
30.4
 20
15.15
 10
30.4
 20
15.65
 10
30.8
 20
15.65
 10
30.8
 20
15.15
  0
LWPOLYLINE
  5
160
100
AcDbEntity
  8
PART_PADS_SMD_TOP
100
AcDbPolyline
 90
        4
 70
         1
 10
31.2
 20
15.15
 10
31.2
 20
15.65
 10
31.6
 20
15.65
 10
31.6
 20
15.15
  0
LWPOLYLINE
  5
161
100
AcDbEntity
  8
PART_PADS_SMD_TOP
100
AcDbPolyline
 90
        4
 70
         1
 10
1.5
 20
16.37657
 10
1.5
 20
17.62657
 10
3.5
 20
17.62657
 10
3.5
 20
16.37657
  0
LWPOLYLINE
  5
162
100
AcDbEntity
  8
PART_PADS_SMD_TOP
100
AcDbPolyline
 90
        4
 70
         1
 10
1.5
 20
23.12657
 10
1.5
 20
24.37657
 10
3.5
 20
24.37657
 10
3.5
 20
23.12657
  0
LWPOLYLINE
  5
163
100
AcDbEntity
  8
PART_PADS_SMD_TOP
100
AcDbPolyline
 90
        4
 70
         1
 10
34.79843
 20
21.05
 10
33.94843
 20
21.05
 10
33.94843
 20
21.35
 10
34.79843
 20
21.35
 42
-1.0
  0
LWPOLYLINE
  5
164
100
AcDbEntity
  8
PART_PADS_SMD_TOP
100
AcDbPolyline
 90
        4
 70
         1
 10
35.14843
 20
20.5
 10
35.14843
 20
19.65
 10
34.84843
 20
19.65
 10
34.84843
 20
20.5
 42
-1.0
  0
LWPOLYLINE
  5
165
100
AcDbEntity
  8
PART_PADS_SMD_TOP
100
AcDbPolyline
 90
        4
 70
         1
 10
35.64843
 20
20.5
 10
35.64843
 20
19.65
 10
35.34843
 20
19.65
 10
35.34843
 20
20.5
 42
-1.0
  0
LWPOLYLINE
  5
166
100
AcDbEntity
  8
PART_PADS_SMD_TOP
100
AcDbPolyline
 90
        4
 70
         1
 10
36.14843
 20
20.5
 10
36.14843
 20
19.65
 10
35.84843
 20
19.65
 10
35.84843
 20
20.5
 42
-1.0
  0
LWPOLYLINE
  5
167
100
AcDbEntity
  8
PART_PADS_SMD_TOP
100
AcDbPolyline
 90
        4
 70
         1
 10
36.64843
 20
20.5
 10
36.64843
 20
19.65
 10
36.34843
 20
19.65
 10
36.34843
 20
20.5
 42
-1.0
  0
LWPOLYLINE
  5
168
100
AcDbEntity
  8
PART_PADS_SMD_TOP
100
AcDbPolyline
 90
        4
 70
         1
 10
37.14843
 20
20.5
 10
37.14843
 20
19.65
 10
36.84843
 20
19.65
 10
36.84843
 20
20.5
 42
-1.0
  0
LWPOLYLINE
  5
169
100
AcDbEntity
  8
PART_PADS_SMD_TOP
100
AcDbPolyline
 90
        4
 70
         1
 10
37.64843
 20
20.5
 10
37.64843
 20
19.65
 10
37.34843
 20
19.65
 10
37.34843
 20
20.5
 42
-1.0
  0
LWPOLYLINE
  5
16A
100
AcDbEntity
  8
PART_PADS_SMD_TOP
100
AcDbPolyline
 90
        4
 70
         1
 10
38.14843
 20
20.5
 10
38.14843
 20
19.65
 10
37.84843
 20
19.65
 10
37.84843
 20
20.5
 42
-1.0
  0
LWPOLYLINE
  5
16B
100
AcDbEntity
  8
PART_PADS_SMD_TOP
100
AcDbPolyline
 90
        4
 70
         1
 10
38.64843
 20
20.5
 10
38.64843
 20
19.65
 10
38.34843
 20
19.65
 10
38.34843
 20
20.5
 42
-1.0
  0
LWPOLYLINE
  5
16C
100
AcDbEntity
  8
PART_PADS_SMD_TOP
100
AcDbPolyline
 90
        4
 70
         1
 10
39.14843
 20
20.5
 10
39.14843
 20
19.65
 10
38.84843
 20
19.65
 10
38.84843
 20
20.5
 42
-1.0
  0
LWPOLYLINE
  5
16D
100
AcDbEntity
  8
PART_PADS_SMD_TOP
100
AcDbPolyline
 90
        4
 70
         1
 10
39.64843
 20
20.5
 10
39.64843
 20
19.65
 10
39.34843
 20
19.65
 10
39.34843
 20
20.5
 42
-1.0
  0
LWPOLYLINE
  5
16E
100
AcDbEntity
  8
PART_PADS_SMD_TOP
100
AcDbPolyline
 90
        4
 70
         1
 10
39.69843
 20
21.35
 10
40.54843
 20
21.35
 10
40.54843
 20
21.05
 10
39.69843
 20
21.05
 42
-1.0
  0
LWPOLYLINE
  5
16F
100
AcDbEntity
  8
PART_PADS_SMD_TOP
100
AcDbPolyline
 90
        4
 70
         1
 10
39.69843
 20
22.85
 10
40.54843
 20
22.85
 10
40.54843
 20
22.55
 10
39.69843
 20
22.55
 42
-1.0
  0
LWPOLYLINE
  5
170
100
AcDbEntity
  8
PART_PADS_SMD_TOP
100
AcDbPolyline
 90
        4
 70
         1
 10
39.34843
 20
23.4
 10
39.34843
 20
24.25
 10
39.64843
 20
24.25
 10
39.64843
 20
23.4
 42
-1.0
  0
LWPOLYLINE
  5
171
100
AcDbEntity
  8
PART_PADS_SMD_TOP
100
AcDbPolyline
 90
        4
 70
         1
 10
38.84843
 20
23.4
 10
38.84843
 20
24.25
 10
39.14843
 20
24.25
 10
39.14843
 20
23.4
 42
-1.0
  0
LWPOLYLINE
  5
172
100
AcDbEntity
  8
PART_PADS_SMD_TOP
100
AcDbPolyline
 90
        4
 70
         1
 10
38.34843
 20
23.4
 10
38.34843
 20
24.25
 10
38.64843
 20
24.25
 10
38.64843
 20
23.4
 42
-1.0
  0
LWPOLYLINE
  5
173
100
AcDbEntity
  8
PART_PADS_SMD_TOP
100
AcDbPolyline
 90
        4
 70
         1
 10
37.84843
 20
23.4
 10
37.84843
 20
24.25
 10
38.14843
 20
24.25
 10
38.14843
 20
23.4
 42
-1.0
  0
LWPOLYLINE
  5
174
100
AcDbEntity
  8
PART_PADS_SMD_TOP
100
AcDbPolyline
 90
        4
 70
         1
 10
37.34843
 20
23.4
 10
37.34843
 20
24.25
 10
37.64843
 20
24.25
 10
37.64843
 20
23.4
 42
-1.0
  0
LWPOLYLINE
  5
175
100
AcDbEntity
  8
PART_PADS_SMD_TOP
100
AcDbPolyline
 90
        4
 70
         1
 10
36.84843
 20
23.4
 10
36.84843
 20
24.25
 10
37.14843
 20
24.25
 10
37.14843
 20
23.4
 42
-1.0
  0
LWPOLYLINE
  5
176
100
AcDbEntity
  8
PART_PADS_SMD_TOP
100
AcDbPolyline
 90
        4
 70
         1
 10
36.34843
 20
23.4
 10
36.34843
 20
24.25
 10
36.64843
 20
24.25
 10
36.64843
 20
23.4
 42
-1.0
  0
LWPOLYLINE
  5
177
100
AcDbEntity
  8
PART_PADS_SMD_TOP
100
AcDbPolyline
 90
        4
 70
         1
 10
35.84843
 20
23.4
 10
35.84843
 20
24.25
 10
36.14843
 20
24.25
 10
36.14843
 20
23.4
 42
-1.0
  0
LWPOLYLINE
  5
178
100
AcDbEntity
  8
PART_PADS_SMD_TOP
100
AcDbPolyline
 90
        4
 70
         1
 10
35.34843
 20
23.4
 10
35.34843
 20
24.25
 10
35.64843
 20
24.25
 10
35.64843
 20
23.4
 42
-1.0
  0
LWPOLYLINE
  5
179
100
AcDbEntity
  8
PART_PADS_SMD_TOP
100
AcDbPolyline
 90
        4
 70
         1
 10
34.84843
 20
23.4
 10
34.84843
 20
24.25
 10
35.14843
 20
24.25
 10
35.14843
 20
23.4
 42
-1.0
  0
LWPOLYLINE
  5
17A
100
AcDbEntity
  8
PART_PADS_SMD_TOP
100
AcDbPolyline
 90
        4
 70
         1
 10
34.79843
 20
22.55
 10
33.94843
 20
22.55
 10
33.94843
 20
22.85
 10
34.79843
 20
22.85
 42
-1.0
  0
LWPOLYLINE
  5
17B
100
AcDbEntity
  8
PART_PADS_SMD_TOP
100
AcDbPolyline
 90
        4
 70
         1
 10
35.22343
 20
20.925
 10
35.22343
 20
22.975
 10
39.27343
 20
22.975
 10
39.27343
 20
20.925
  0
LWPOLYLINE
  5
17C
100
AcDbEntity
  8
PART_PADS_SMD_TOP
100
AcDbPolyline
 90
        4
 70
         1
 10
17.5
 20
25.25
 10
17.5
 20
25.75
 10
17.9
 20
25.75
 10
17.9
 20
25.25
  0
LWPOLYLINE
  5
17D
100
AcDbEntity
  8
PART_PADS_SMD_TOP
100
AcDbPolyline
 90
        4
 70
         1
 10
18.3
 20
25.25
 10
18.3
 20
25.75
 10
18.7
 20
25.75
 10
18.7
 20
25.25
  0
LWPOLYLINE
  5
17E
100
AcDbEntity
  8
PART_PADS_SMD_TOP
100
AcDbPolyline
 90
        4
 70
         1
 10
14.6
 20
25.25
 10
14.6
 20
25.75
 10
15.0
 20
25.75
 10
15.0
 20
25.25
  0
LWPOLYLINE
  5
17F
100
AcDbEntity
  8
PART_PADS_SMD_TOP
100
AcDbPolyline
 90
        4
 70
         1
 10
15.4
 20
25.25
 10
15.4
 20
25.75
 10
15.8
 20
25.75
 10
15.8
 20
25.25
  0
LWPOLYLINE
  5
180
100
AcDbEntity
  8
PART_PADS_SMD_TOP
100
AcDbPolyline
 90
        4
 70
         1
 10
23.2
 20
25.25
 10
23.2
 20
25.75
 10
23.6
 20
25.75
 10
23.6
 20
25.25
  0
LWPOLYLINE
  5
181
100
AcDbEntity
  8
PART_PADS_SMD_TOP
100
AcDbPolyline
 90
        4
 70
         1
 10
24.0
 20
25.25
 10
24.0
 20
25.75
 10
24.4
 20
25.75
 10
24.4
 20
25.25
  0
LWPOLYLINE
  5
182
100
AcDbEntity
  8
PART_PADS_SMD_TOP
100
AcDbPolyline
 90
        4
 70
         1
 10
8.7
 20
16.75
 10
8.7
 20
17.25
 10
9.1
 20
17.25
 10
9.1
 20
16.75
  0
LWPOLYLINE
  5
183
100
AcDbEntity
  8
PART_PADS_SMD_TOP
100
AcDbPolyline
 90
        4
 70
         1
 10
7.9
 20
16.75
 10
7.9
 20
17.25
 10
8.3
 20
17.25
 10
8.3
 20
16.75
  0
LWPOLYLINE
  5
184
100
AcDbEntity
  8
PART_PADS_SMD_TOP
100
AcDbPolyline
 90
        4
 70
         1
 10
6.3
 20
16.75
 10
6.3
 20
17.25
 10
6.7
 20
17.25
 10
6.7
 20
16.75
  0
LWPOLYLINE
  5
185
100
AcDbEntity
  8
PART_PADS_SMD_TOP
100
AcDbPolyline
 90
        4
 70
         1
 10
5.5
 20
16.75
 10
5.5
 20
17.25
 10
5.9
 20
17.25
 10
5.9
 20
16.75
  0
LWPOLYLINE
  5
186
100
AcDbEntity
  8
PART_PADS_SMD_TOP
100
AcDbPolyline
 90
        4
 70
         1
 10
7.05
 20
17.6
 10
7.05
 20
18.0
 10
7.55
 20
18.0
 10
7.55
 20
17.6
  0
LWPOLYLINE
  5
187
100
AcDbEntity
  8
PART_PADS_SMD_TOP
100
AcDbPolyline
 90
        4
 70
         1
 10
7.05
 20
16.8
 10
7.05
 20
17.2
 10
7.55
 20
17.2
 10
7.55
 20
16.8
  0
LWPOLYLINE
  5
188
100
AcDbEntity
  8
PART_PADS_SMD_TOP
100
AcDbPolyline
 90
        4
 70
         1
 10
43.1
 20
16.70157
 10
43.1
 20
17.10157
 10
43.7
 20
17.10157
 10
43.7
 20
16.70157
  0
LWPOLYLINE
  5
189
100
AcDbEntity
  8
PART_PADS_SMD_TOP
100
AcDbPolyline
 90
        4
 70
         1
 10
43.1
 20
15.90157
 10
43.1
 20
16.30157
 10
43.7
 20
16.30157
 10
43.7
 20
15.90157
  0
LWPOLYLINE
  5
18A
100
AcDbEntity
  8
PART_PADS_SMD_TOP
100
AcDbPolyline
 90
        4
 70
         1
 10
44.7
 20
15.90157
 10
44.7
 20
16.30157
 10
45.3
 20
16.30157
 10
45.3
 20
15.90157
  0
LWPOLYLINE
  5
18B
100
AcDbEntity
  8
PART_PADS_SMD_TOP
100
AcDbPolyline
 90
        4
 70
         1
 10
44.7
 20
16.70157
 10
44.7
 20
17.10157
 10
45.3
 20
17.10157
 10
45.3
 20
16.70157
  0
LWPOLYLINE
  5
18C
100
AcDbEntity
  8
PART_PADS_SMD_TOP
100
AcDbPolyline
 90
        4
 70
         1
 10
43.1
 20
17.45157
 10
43.1
 20
18.05157
 10
43.7
 20
18.05157
 10
43.7
 20
17.45157
  0
LWPOLYLINE
  5
18D
100
AcDbEntity
  8
PART_PADS_SMD_TOP
100
AcDbPolyline
 90
        4
 70
         1
 10
43.1
 20
14.95157
 10
43.1
 20
15.55157
 10
43.7
 20
15.55157
 10
43.7
 20
14.95157
  0
LWPOLYLINE
  5
18E
100
AcDbEntity
  8
PART_PADS_SMD_TOP
100
AcDbPolyline
 90
        4
 70
         1
 10
44.7
 20
14.95157
 10
44.7
 20
15.55157
 10
45.3
 20
15.55157
 10
45.3
 20
14.95157
  0
LWPOLYLINE
  5
18F
100
AcDbEntity
  8
PART_PADS_SMD_TOP
100
AcDbPolyline
 90
        4
 70
         1
 10
44.7
 20
17.45157
 10
44.7
 20
18.05157
 10
45.3
 20
18.05157
 10
45.3
 20
17.45157
  0
LWPOLYLINE
  5
190
100
AcDbEntity
  8
PART_PADS_SMD_TOP
100
AcDbPolyline
 90
        4
 70
         1
 10
44.3
 20
13.95157
 10
44.3
 20
14.45157
 10
44.7
 20
14.45157
 10
44.7
 20
13.95157
  0
LWPOLYLINE
  5
191
100
AcDbEntity
  8
PART_PADS_SMD_TOP
100
AcDbPolyline
 90
        4
 70
         1
 10
43.5
 20
13.95157
 10
43.5
 20
14.45157
 10
43.9
 20
14.45157
 10
43.9
 20
13.95157
  0
LWPOLYLINE
  5
192
100
AcDbEntity
  8
PART_PADS_SMD_TOP
100
AcDbPolyline
 90
        4
 70
         1
 10
10.2
 20
25.15157
 10
10.2
 20
25.65157
 10
10.6
 20
25.65157
 10
10.6
 20
25.15157
  0
LWPOLYLINE
  5
193
100
AcDbEntity
  8
PART_PADS_SMD_TOP
100
AcDbPolyline
 90
        4
 70
         1
 10
9.4
 20
25.15157
 10
9.4
 20
25.65157
 10
9.8
 20
25.65157
 10
9.8
 20
25.15157
  0
CIRCLE
  5
194
100
AcDbEntity
  8
PART_PADS_SMD_TOP
100
AcDbCircle
 10
13.0
 20
8.5
 30
0.0
 40
0.5
  0
CIRCLE
  5
195
100
AcDbEntity
  8
PART_PADS_SMD_TOP
100
AcDbCircle
 10
14.2
 20
7.7
 30
0.0
 40
0.5
  0
CIRCLE
  5
196
100
AcDbEntity
  8
PART_PADS_SMD_TOP
100
AcDbCircle
 10
17.9
 20
8.6
 30
0.0
 40
0.5
  0
CIRCLE
  5
197
100
AcDbEntity
  8
PART_PADS_SMD_TOP
100
AcDbCircle
 10
19.1
 20
7.7
 30
0.0
 40
0.5
  0
CIRCLE
  5
198
100
AcDbEntity
  8
PART_PADS_SMD_TOP
100
AcDbCircle
 10
13.1
 20
25.5
 30
0.0
 40
0.5
  0
LWPOLYLINE
  5
199
100
AcDbEntity
  8
PART_PADS_SMD_TOP
100
AcDbPolyline
 90
        4
 70
         1
 10
27.88
 20
11.63
 42
-1.0
 10
27.88
 20
12.43
 10
29.08
 20
12.43
 42
-1.0
 10
29.08
 20
11.63
  0
LWPOLYLINE
  5
19A
100
AcDbEntity
  8
PART_PADS_SMD_TOP
100
AcDbPolyline
 90
        4
 70
         1
 10
27.88
 20
12.63
 42
-1.0
 10
27.88
 20
13.43
 10
29.08
 20
13.43
 42
-1.0
 10
29.08
 20
12.63
  0
LWPOLYLINE
  5
19B
100
AcDbEntity
  8
PART_PADS_SMD_TOP
100
AcDbPolyline
 90
        4
 70
         1
 10
27.88
 20
13.63
 42
-1.0
 10
27.88
 20
14.43
 10
29.08
 20
14.43
 42
-1.0
 10
29.08
 20
13.63
  0
LWPOLYLINE
  5
19C
100
AcDbEntity
  8
PART_PADS_SMD_TOP
100
AcDbPolyline
 90
        4
 70
         1
 10
27.88
 20
14.63
 42
-1.0
 10
27.88
 20
15.43
 10
29.08
 20
15.43
 42
-1.0
 10
29.08
 20
14.63
  0
LWPOLYLINE
  5
19D
100
AcDbEntity
  8
PART_PADS_SMD_TOP
100
AcDbPolyline
 90
        4
 70
         1
 10
27.88
 20
15.63
 42
-1.0
 10
27.88
 20
16.43
 10
29.08
 20
16.43
 42
-1.0
 10
29.08
 20
15.63
  0
LWPOLYLINE
  5
19E
100
AcDbEntity
  8
PART_PADS_SMD_TOP
100
AcDbPolyline
 90
        4
 70
         1
 10
27.88
 20
16.63
 42
-1.0
 10
27.88
 20
17.43
 10
29.08
 20
17.43
 42
-1.0
 10
29.08
 20
16.63
  0
LWPOLYLINE
  5
19F
100
AcDbEntity
  8
PART_PADS_SMD_TOP
100
AcDbPolyline
 90
        4
 70
         1
 10
27.88
 20
17.63
 42
-1.0
 10
27.88
 20
18.43
 10
29.08
 20
18.43
 42
-1.0
 10
29.08
 20
17.63
  0
LWPOLYLINE
  5
1A0
100
AcDbEntity
  8
PART_PADS_SMD_TOP
100
AcDbPolyline
 90
        4
 70
         1
 10
27.88
 20
18.63
 42
-1.0
 10
27.88
 20
19.43
 10
29.08
 20
19.43
 42
-1.0
 10
29.08
 20
18.63
  0
LWPOLYLINE
  5
1A1
100
AcDbEntity
  8
PART_PADS_SMD_TOP
100
AcDbPolyline
 90
        4
 70
         1
 10
27.88
 20
19.63
 42
-1.0
 10
27.88
 20
20.43
 10
29.08
 20
20.43
 42
-1.0
 10
29.08
 20
19.63
  0
LWPOLYLINE
  5
1A2
100
AcDbEntity
  8
PART_PADS_SMD_TOP
100
AcDbPolyline
 90
        4
 70
         1
 10
27.88
 20
20.63
 42
-1.0
 10
27.88
 20
21.43
 10
29.08
 20
21.43
 42
-1.0
 10
29.08
 20
20.63
  0
LWPOLYLINE
  5
1A3
100
AcDbEntity
  8
PART_PADS_SMD_TOP
100
AcDbPolyline
 90
        4
 70
         1
 10
27.88
 20
21.63
 42
-1.0
 10
27.88
 20
22.43
 10
29.08
 20
22.43
 42
-1.0
 10
29.08
 20
21.63
  0
LWPOLYLINE
  5
1A4
100
AcDbEntity
  8
PART_PADS_SMD_TOP
100
AcDbPolyline
 90
        4
 70
         1
 10
27.38
 20
22.93
 42
-1.0
 10
26.58
 20
22.93
 10
26.58
 20
24.13
 42
-1.0
 10
27.38
 20
24.13
  0
LWPOLYLINE
  5
1A5
100
AcDbEntity
  8
PART_PADS_SMD_TOP
100
AcDbPolyline
 90
        4
 70
         1
 10
26.38
 20
22.93
 42
-1.0
 10
25.58
 20
22.93
 10
25.58
 20
24.13
 42
-1.0
 10
26.38
 20
24.13
  0
LWPOLYLINE
  5
1A6
100
AcDbEntity
  8
PART_PADS_SMD_TOP
100
AcDbPolyline
 90
        4
 70
         1
 10
25.38
 20
22.93
 42
-1.0
 10
24.58
 20
22.93
 10
24.58
 20
24.13
 42
-1.0
 10
25.38
 20
24.13
  0
LWPOLYLINE
  5
1A7
100
AcDbEntity
  8
PART_PADS_SMD_TOP
100
AcDbPolyline
 90
        4
 70
         1
 10
24.38
 20
22.93
 42
-1.0
 10
23.58
 20
22.93
 10
23.58
 20
24.13
 42
-1.0
 10
24.38
 20
24.13
  0
LWPOLYLINE
  5
1A8
100
AcDbEntity
  8
PART_PADS_SMD_TOP
100
AcDbPolyline
 90
        4
 70
         1
 10
23.38
 20
22.93
 42
-1.0
 10
22.58
 20
22.93
 10
22.58
 20
24.13
 42
-1.0
 10
23.38
 20
24.13
  0
LWPOLYLINE
  5
1A9
100
AcDbEntity
  8
PART_PADS_SMD_TOP
100
AcDbPolyline
 90
        4
 70
         1
 10
22.38
 20
22.93
 42
-1.0
 10
21.58
 20
22.93
 10
21.58
 20
24.13
 42
-1.0
 10
22.38
 20
24.13
  0
LWPOLYLINE
  5
1AA
100
AcDbEntity
  8
PART_PADS_SMD_TOP
100
AcDbPolyline
 90
        4
 70
         1
 10
21.38
 20
22.93
 42
-1.0
 10
20.58
 20
22.93
 10
20.58
 20
24.13
 42
-1.0
 10
21.38
 20
24.13
  0
LWPOLYLINE
  5
1AB
100
AcDbEntity
  8
PART_PADS_SMD_TOP
100
AcDbPolyline
 90
        4
 70
         1
 10
20.38
 20
22.93
 42
-1.0
 10
19.58
 20
22.93
 10
19.58
 20
24.13
 42
-1.0
 10
20.38
 20
24.13
  0
LWPOLYLINE
  5
1AC
100
AcDbEntity
  8
PART_PADS_SMD_TOP
100
AcDbPolyline
 90
        4
 70
         1
 10
19.38
 20
22.93
 42
-1.0
 10
18.58
 20
22.93
 10
18.58
 20
24.13
 42
-1.0
 10
19.38
 20
24.13
  0
LWPOLYLINE
  5
1AD
100
AcDbEntity
  8
PART_PADS_SMD_TOP
100
AcDbPolyline
 90
        4
 70
         1
 10
18.38
 20
22.93
 42
-1.0
 10
17.58
 20
22.93
 10
17.58
 20
24.13
 42
-1.0
 10
18.38
 20
24.13
  0
LWPOLYLINE
  5
1AE
100
AcDbEntity
  8
PART_PADS_SMD_TOP
100
AcDbPolyline
 90
        4
 70
         1
 10
17.38
 20
22.93
 42
-1.0
 10
16.58
 20
22.93
 10
16.58
 20
24.13
 42
-1.0
 10
17.38
 20
24.13
  0
LWPOLYLINE
  5
1AF
100
AcDbEntity
  8
PART_PADS_SMD_TOP
100
AcDbPolyline
 90
        4
 70
         1
 10
16.38
 20
22.93
 42
-1.0
 10
15.58
 20
22.93
 10
15.58
 20
24.13
 42
-1.0
 10
16.38
 20
24.13
  0
LWPOLYLINE
  5
1B0
100
AcDbEntity
  8
PART_PADS_SMD_TOP
100
AcDbPolyline
 90
        4
 70
         1
 10
15.38
 20
22.93
 42
-1.0
 10
14.58
 20
22.93
 10
14.58
 20
24.13
 42
-1.0
 10
15.38
 20
24.13
  0
LWPOLYLINE
  5
1B1
100
AcDbEntity
  8
PART_PADS_SMD_TOP
100
AcDbPolyline
 90
        4
 70
         1
 10
14.38
 20
22.93
 42
-1.0
 10
13.58
 20
22.93
 10
13.58
 20
24.13
 42
-1.0
 10
14.38
 20
24.13
  0
LWPOLYLINE
  5
1B2
100
AcDbEntity
  8
PART_PADS_SMD_TOP
100
AcDbPolyline
 90
        4
 70
         1
 10
13.38
 20
22.93
 42
-1.0
 10
12.58
 20
22.93
 10
12.58
 20
24.13
 42
-1.0
 10
13.38
 20
24.13
  0
LWPOLYLINE
  5
1B3
100
AcDbEntity
  8
PART_PADS_SMD_TOP
100
AcDbPolyline
 90
        4
 70
         1
 10
12.38
 20
22.93
 42
-1.0
 10
11.58
 20
22.93
 10
11.58
 20
24.13
 42
-1.0
 10
12.38
 20
24.13
  0
LWPOLYLINE
  5
1B4
100
AcDbEntity
  8
PART_PADS_SMD_TOP
100
AcDbPolyline
 90
        4
 70
         1
 10
11.58
 20
11.13
 42
-1.0
 10
12.38
 20
11.13
 10
12.38
 20
9.93
 42
-1.0
 10
11.58
 20
9.93
  0
LWPOLYLINE
  5
1B5
100
AcDbEntity
  8
PART_PADS_SMD_TOP
100
AcDbPolyline
 90
        4
 70
         1
 10
12.58
 20
11.13
 42
-1.0
 10
13.38
 20
11.13
 10
13.38
 20
9.93
 42
-1.0
 10
12.58
 20
9.93
  0
LWPOLYLINE
  5
1B6
100
AcDbEntity
  8
PART_PADS_SMD_TOP
100
AcDbPolyline
 90
        4
 70
         1
 10
13.58
 20
11.13
 42
-1.0
 10
14.38
 20
11.13
 10
14.38
 20
9.93
 42
-1.0
 10
13.58
 20
9.93
  0
LWPOLYLINE
  5
1B7
100
AcDbEntity
  8
PART_PADS_SMD_TOP
100
AcDbPolyline
 90
        4
 70
         1
 10
14.58
 20
11.13
 42
-1.0
 10
15.38
 20
11.13
 10
15.38
 20
9.93
 42
-1.0
 10
14.58
 20
9.93
  0
LWPOLYLINE
  5
1B8
100
AcDbEntity
  8
PART_PADS_SMD_TOP
100
AcDbPolyline
 90
        4
 70
         1
 10
15.58
 20
11.13
 42
-1.0
 10
16.38
 20
11.13
 10
16.38
 20
9.93
 42
-1.0
 10
15.58
 20
9.93
  0
LWPOLYLINE
  5
1B9
100
AcDbEntity
  8
PART_PADS_SMD_TOP
100
AcDbPolyline
 90
        4
 70
         1
 10
16.58
 20
11.13
 42
-1.0
 10
17.38
 20
11.13
 10
17.38
 20
9.93
 42
-1.0
 10
16.58
 20
9.93
  0
LWPOLYLINE
  5
1BA
100
AcDbEntity
  8
PART_PADS_SMD_TOP
100
AcDbPolyline
 90
        4
 70
         1
 10
17.58
 20
11.13
 42
-1.0
 10
18.38
 20
11.13
 10
18.38
 20
9.93
 42
-1.0
 10
17.58
 20
9.93
  0
LWPOLYLINE
  5
1BB
100
AcDbEntity
  8
PART_PADS_SMD_TOP
100
AcDbPolyline
 90
        4
 70
         1
 10
18.58
 20
11.13
 42
-1.0
 10
19.38
 20
11.13
 10
19.38
 20
9.93
 42
-1.0
 10
18.58
 20
9.93
  0
LWPOLYLINE
  5
1BC
100
AcDbEntity
  8
PART_PADS_SMD_TOP
100
AcDbPolyline
 90
        4
 70
         1
 10
19.58
 20
11.13
 42
-1.0
 10
20.38
 20
11.13
 10
20.38
 20
9.93
 42
-1.0
 10
19.58
 20
9.93
  0
LWPOLYLINE
  5
1BD
100
AcDbEntity
  8
PART_PADS_SMD_TOP
100
AcDbPolyline
 90
        4
 70
         1
 10
20.58
 20
11.13
 42
-1.0
 10
21.38
 20
11.13
 10
21.38
 20
9.93
 42
-1.0
 10
20.58
 20
9.93
  0
LWPOLYLINE
  5
1BE
100
AcDbEntity
  8
PART_PADS_SMD_TOP
100
AcDbPolyline
 90
        4
 70
         1
 10
21.58
 20
11.13
 42
-1.0
 10
22.38
 20
11.13
 10
22.38
 20
9.93
 42
-1.0
 10
21.58
 20
9.93
  0
LWPOLYLINE
  5
1BF
100
AcDbEntity
  8
PART_PADS_SMD_TOP
100
AcDbPolyline
 90
        4
 70
         1
 10
22.58
 20
11.13
 42
-1.0
 10
23.38
 20
11.13
 10
23.38
 20
9.93
 42
-1.0
 10
22.58
 20
9.93
  0
LWPOLYLINE
  5
1C0
100
AcDbEntity
  8
PART_PADS_SMD_TOP
100
AcDbPolyline
 90
        4
 70
         1
 10
23.58
 20
11.13
 42
-1.0
 10
24.38
 20
11.13
 10
24.38
 20
9.93
 42
-1.0
 10
23.58
 20
9.93
  0
LWPOLYLINE
  5
1C1
100
AcDbEntity
  8
PART_PADS_SMD_TOP
100
AcDbPolyline
 90
        4
 70
         1
 10
24.58
 20
11.13
 42
-1.0
 10
25.38
 20
11.13
 10
25.38
 20
9.93
 42
-1.0
 10
24.58
 20
9.93
  0
LWPOLYLINE
  5
1C2
100
AcDbEntity
  8
PART_PADS_SMD_TOP
100
AcDbPolyline
 90
        4
 70
         1
 10
25.58
 20
11.13
 42
-1.0
 10
26.38
 20
11.13
 10
26.38
 20
9.93
 42
-1.0
 10
25.58
 20
9.93
  0
LWPOLYLINE
  5
1C3
100
AcDbEntity
  8
PART_PADS_SMD_TOP
100
AcDbPolyline
 90
        4
 70
         1
 10
26.58
 20
11.13
 42
-1.0
 10
27.38
 20
11.13
 10
27.38
 20
9.93
 42
-1.0
 10
26.58
 20
9.93
  0
LWPOLYLINE
  5
1C4
100
AcDbEntity
  8
PART_PADS_SMD_TOP
100
AcDbPolyline
 90
        4
 70
         1
 10
11.08
 20
22.43
 42
-1.0
 10
11.08
 20
21.63
 10
9.88
 20
21.63
 42
-1.0
 10
9.88
 20
22.43
  0
LWPOLYLINE
  5
1C5
100
AcDbEntity
  8
PART_PADS_SMD_TOP
100
AcDbPolyline
 90
        4
 70
         1
 10
11.08
 20
21.43
 42
-1.0
 10
11.08
 20
20.63
 10
9.88
 20
20.63
 42
-1.0
 10
9.88
 20
21.43
  0
LWPOLYLINE
  5
1C6
100
AcDbEntity
  8
PART_PADS_SMD_TOP
100
AcDbPolyline
 90
        4
 70
         1
 10
11.08
 20
20.43
 42
-1.0
 10
11.08
 20
19.63
 10
9.88
 20
19.63
 42
-1.0
 10
9.88
 20
20.43
  0
LWPOLYLINE
  5
1C7
100
AcDbEntity
  8
PART_PADS_SMD_TOP
100
AcDbPolyline
 90
        4
 70
         1
 10
11.08
 20
19.43
 42
-1.0
 10
11.08
 20
18.63
 10
9.88
 20
18.63
 42
-1.0
 10
9.88
 20
19.43
  0
LWPOLYLINE
  5
1C8
100
AcDbEntity
  8
PART_PADS_SMD_TOP
100
AcDbPolyline
 90
        4
 70
         1
 10
11.08
 20
17.43
 42
-1.0
 10
11.08
 20
16.63
 10
9.88
 20
16.63
 42
-1.0
 10
9.88
 20
17.43
  0
LWPOLYLINE
  5
1C9
100
AcDbEntity
  8
PART_PADS_SMD_TOP
100
AcDbPolyline
 90
        4
 70
         1
 10
11.08
 20
15.43
 42
-1.0
 10
11.08
 20
14.63
 10
9.88
 20
14.63
 42
-1.0
 10
9.88
 20
15.43
  0
LWPOLYLINE
  5
1CA
100
AcDbEntity
  8
PART_PADS_SMD_TOP
100
AcDbPolyline
 90
        4
 70
         1
 10
11.08
 20
14.43
 42
-1.0
 10
11.08
 20
13.63
 10
9.88
 20
13.63
 42
-1.0
 10
9.88
 20
14.43
  0
LWPOLYLINE
  5
1CB
100
AcDbEntity
  8
PART_PADS_SMD_TOP
100
AcDbPolyline
 90
        4
 70
         1
 10
11.08
 20
13.43
 42
-1.0
 10
11.08
 20
12.63
 10
9.88
 20
12.63
 42
-1.0
 10
9.88
 20
13.43
  0
LWPOLYLINE
  5
1CC
100
AcDbEntity
  8
PART_PADS_SMD_TOP
100
AcDbPolyline
 90
        4
 70
         1
 10
11.08
 20
12.43
 42
-1.0
 10
11.08
 20
11.63
 10
9.88
 20
11.63
 42
-1.0
 10
9.88
 20
12.43
  0
LWPOLYLINE
  5
1CD
100
AcDbEntity
  8
PART_PADS_SMD_TOP
100
AcDbPolyline
 90
        4
 70
         1
 10
16.68
 20
15.03
 10
16.68
 20
15.73
 10
17.88
 20
15.73
 10
17.88
 20
15.03
  0
LWPOLYLINE
  5
1CE
100
AcDbEntity
  8
PART_PADS_SMD_TOP
100
AcDbPolyline
 90
        4
 70
         1
 10
21.08
 20
15.03
 10
21.08
 20
15.73
 10
22.28
 20
15.73
 10
22.28
 20
15.03
  0
LWPOLYLINE
  5
1CF
100
AcDbEntity
  8
PART_PADS_SMD_TOP
100
AcDbPolyline
 90
        4
 70
         1
 10
21.08
 20
18.33
 10
21.08
 20
19.03
 10
22.28
 20
19.03
 10
22.28
 20
18.33
  0
LWPOLYLINE
  5
1D0
100
AcDbEntity
  8
PART_PADS_SMD_TOP
100
AcDbPolyline
 90
        4
 70
         1
 10
16.68
 20
18.33
 10
16.68
 20
19.03
 10
17.88
 20
19.03
 10
17.88
 20
18.33
  0
LWPOLYLINE
  5
1D1
100
AcDbEntity
  8
PART_PADS_SMD_TOP
100
AcDbPolyline
 90
        4
 70
         1
 10
15.05
 20
7.5
 10
15.05
 20
7.9
 10
15.55
 20
7.9
 10
15.55
 20
7.5
  0
LWPOLYLINE
  5
1D2
100
AcDbEntity
  8
PART_PADS_SMD_TOP
100
AcDbPolyline
 90
        4
 70
         1
 10
15.05
 20
8.3
 10
15.05
 20
8.7
 10
15.55
 20
8.7
 10
15.55
 20
8.3
  0
TEXT
  5
1D4
100
AcDbEntity
  8
PIN_NUMBERS_TOP
100
AcDbText
 10
21.707068
 20
7.475926
 30
0.0
 40
0.508
  1
1
  7
COURIER_NEW
 72
         1
 11
21.925
 21
7.69843
 31
0.0
100
AcDbText
 73
         2
  0
TEXT
  5
1D5
100
AcDbEntity
  8
PIN_NUMBERS_TOP
100
AcDbText
 10
23.257068
 20
7.475926
 30
0.0
 40
0.508
  1
2
  7
COURIER_NEW
 72
         1
 11
23.475
 21
7.69843
 31
0.0
100
AcDbText
 73
         2
  0
TEXT
  5
1D6
100
AcDbEntity
  8
PIN_NUMBERS_TOP
100
AcDbText
 10
22.780498
 20
8.677496
 30
0.0
 40
0.508
  1
2
  7
COURIER_NEW
 72
         1
 11
22.99843
 21
8.9
 31
0.0
100
AcDbText
 73
         2
  0
TEXT
  5
1D7
100
AcDbEntity
  8
PIN_NUMBERS_TOP
100
AcDbText
 10
21.980498
 20
8.677496
 30
0.0
 40
0.508
  1
1
  7
COURIER_NEW
 72
         1
 11
22.19843
 21
8.9
 31
0.0
100
AcDbText
 73
         2
  0
TEXT
  5
1D8
100
AcDbEntity
  8
PIN_NUMBERS_TOP
100
AcDbText
 10
11.457068
 20
7.275926
 30
0.0
 40
0.508
  1
1
  7
COURIER_NEW
 72
         1
 11
11.675
 21
7.49843
 31
0.0
100
AcDbText
 73
         2
  0
TEXT
  5
1D9
100
AcDbEntity
  8
PIN_NUMBERS_TOP
100
AcDbText
 10
9.907068
 20
7.275926
 30
0.0
 40
0.508
  1
2
  7
COURIER_NEW
 72
         1
 11
10.125
 21
7.49843
 31
0.0
100
AcDbText
 73
         2
  0
TEXT
  5
1DA
100
AcDbEntity
  8
PIN_NUMBERS_TOP
100
AcDbText
 10
10.783638
 20
8.477496
 30
0.0
 40
0.508
  1
2
  7
COURIER_NEW
 72
         1
 11
11.00157
 21
8.7
 31
0.0
100
AcDbText
 73
         2
  0
TEXT
  5
1DB
100
AcDbEntity
  8
PIN_NUMBERS_TOP
100
AcDbText
 10
11.583638
 20
8.477496
 30
0.0
 40
0.508
  1
1
  7
COURIER_NEW
 72
         1
 11
11.80157
 21
8.7
 31
0.0
100
AcDbText
 73
         2
  0
TEXT
  5
1DC
100
AcDbEntity
  8
PIN_NUMBERS_TOP
100
AcDbText
 10
34.183638
 20
13.077496
 30
0.0
 40
0.508
  1
2
  7
COURIER_NEW
 72
         1
 11
34.40157
 21
13.3
 31
0.0
100
AcDbText
 73
         2
  0
TEXT
  5
1DD
100
AcDbEntity
  8
PIN_NUMBERS_TOP
100
AcDbText
 10
34.183638
 20
12.277496
 30
0.0
 40
0.508
  1
1
  7
COURIER_NEW
 72
         1
 11
34.40157
 21
12.5
 31
0.0
100
AcDbText
 73
         2
  0
TEXT
  5
1DE
100
AcDbEntity
  8
PIN_NUMBERS_TOP
100
AcDbText
 10
41.832068
 20
18.529066
 30
0.0
 40
0.508
  1
2
  7
COURIER_NEW
 72
         1
 11
42.05
 21
18.75157
 31
0.0
100
AcDbText
 73
         2
  0
TEXT
  5
1DF
100
AcDbEntity
  8
PIN_NUMBERS_TOP
100
AcDbText
 10
41.032068
 20
18.529066
 30
0.0
 40
0.508
  1
1
  7
COURIER_NEW
 72
         1
 11
41.25
 21
18.75157
 31
0.0
100
AcDbText
 73
         2
  0
TEXT
  5
1E0
100
AcDbEntity
  8
PIN_NUMBERS_TOP
100
AcDbText
 10
32.980498
 20
23.277496
 30
0.0
 40
0.508
  1
2
  7
COURIER_NEW
 72
         1
 11
33.19843
 21
23.5
 31
0.0
100
AcDbText
 73
         2
  0
TEXT
  5
1E1
100
AcDbEntity
  8
PIN_NUMBERS_TOP
100
AcDbText
 10
32.980498
 20
22.477496
 30
0.0
 40
0.508
  1
1
  7
COURIER_NEW
 72
         1
 11
33.19843
 21
22.7
 31
0.0
100
AcDbText
 73
         2
  0
TEXT
  5
1E2
100
AcDbEntity
  8
PIN_NUMBERS_TOP
100
AcDbText
 10
32.980498
 20
21.677496
 30
0.0
 40
0.508
  1
2
  7
COURIER_NEW
 72
         1
 11
33.19843
 21
21.9
 31
0.0
100
AcDbText
 73
         2
  0
TEXT
  5
1E3
100
AcDbEntity
  8
PIN_NUMBERS_TOP
100
AcDbText
 10
32.980498
 20
20.877496
 30
0.0
 40
0.508
  1
1
  7
COURIER_NEW
 72
         1
 11
33.19843
 21
21.1
 31
0.0
100
AcDbText
 73
         2
  0
TEXT
  5
1E4
100
AcDbEntity
  8
PIN_NUMBERS_TOP
100
AcDbText
 10
41.882068
 20
7.777496
 30
0.0
 40
0.508
  1
2
  7
COURIER_NEW
 72
         1
 11
42.1
 21
8.0
 31
0.0
100
AcDbText
 73
         2
  0
TEXT
  5
1E5
100
AcDbEntity
  8
PIN_NUMBERS_TOP
100
AcDbText
 10
42.682068
 20
7.777496
 30
0.0
 40
0.508
  1
1
  7
COURIER_NEW
 72
         1
 11
42.9
 21
8.0
 31
0.0
100
AcDbText
 73
         2
  0
TEXT
  5
1E6
100
AcDbEntity
  8
PIN_NUMBERS_TOP
100
AcDbText
 10
3.082068
 20
14.277496
 30
0.0
 40
0.508
  1
2
  7
COURIER_NEW
 72
         1
 11
3.3
 21
14.5
 31
0.0
100
AcDbText
 73
         2
  0
TEXT
  5
1E7
100
AcDbEntity
  8
PIN_NUMBERS_TOP
100
AcDbText
 10
3.082068
 20
13.477496
 30
0.0
 40
0.508
  1
1
  7
COURIER_NEW
 72
         1
 11
3.3
 21
13.7
 31
0.0
100
AcDbText
 73
         2
  0
TEXT
  5
1E8
100
AcDbEntity
  8
PIN_NUMBERS_TOP
100
AcDbText
 10
48.534423
 20
23.150141
 30
0.0
 40
0.508
  1
2
  7
COURIER_NEW
 72
         1
 11
48.752355
 21
23.372645
 31
0.0
100
AcDbText
 73
         2
  0
TEXT
  5
1E9
100
AcDbEntity
  8
PIN_NUMBERS_TOP
100
AcDbText
 10
48.534423
 20
22.350141
 30
0.0
 40
0.508
  1
1
  7
COURIER_NEW
 72
         1
 11
48.752355
 21
22.572645
 31
0.0
100
AcDbText
 73
         2
  0
TEXT
  5
1EA
100
AcDbEntity
  8
PIN_NUMBERS_TOP
100
AcDbText
 10
50.454713
 20
15.200141
 30
0.0
 40
0.508
  1
2
  7
COURIER_NEW
 72
         1
 11
50.672645
 21
15.422645
 31
0.0
100
AcDbText
 73
         2
  0
TEXT
  5
1EB
100
AcDbEntity
  8
PIN_NUMBERS_TOP
100
AcDbText
 10
49.654713
 20
15.200141
 30
0.0
 40
0.508
  1
1
  7
COURIER_NEW
 72
         1
 11
49.872645
 21
15.422645
 31
0.0
100
AcDbText
 73
         2
  0
TEXT
  5
1EC
100
AcDbEntity
  8
PIN_NUMBERS_TOP
100
AcDbText
 10
33.130498
 20
16.327496
 30
0.0
 40
0.508
  1
2
  7
COURIER_NEW
 72
         1
 11
33.34843
 21
16.55
 31
0.0
100
AcDbText
 73
         2
  0
TEXT
  5
1ED
100
AcDbEntity
  8
PIN_NUMBERS_TOP
100
AcDbText
 10
33.130498
 20
17.127496
 30
0.0
 40
0.508
  1
1
  7
COURIER_NEW
 72
         1
 11
33.34843
 21
17.35
 31
0.0
100
AcDbText
 73
         2
  0
TEXT
  5
1EE
100
AcDbEntity
  8
PIN_NUMBERS_TOP
100
AcDbText
 10
46.062068
 20
9.537496
 30
0.0
 40
0.508
  1
1
  7
COURIER_NEW
 72
         1
 11
46.28
 21
9.76
 31
0.0
100
AcDbText
 73
         2
  0
TEXT
  5
1EF
100
AcDbEntity
  8
PIN_NUMBERS_TOP
100
AcDbText
 10
3.062068
 20
9.537496
 30
0.0
 40
0.508
  1
1
  7
COURIER_NEW
 72
         1
 11
3.28
 21
9.76
 31
0.0
100
AcDbText
 73
         2
  0
TEXT
  5
1F0
100
AcDbEntity
  8
PIN_NUMBERS_TOP
100
AcDbText
 10
52.509423
 20
13.053281
 30
0.0
 40
0.508
  1
7
  7
COURIER_NEW
 72
         1
 11
52.727355
 21
13.275785
 31
0.0
100
AcDbText
 73
         2
  0
TEXT
  5
1F1
100
AcDbEntity
  8
PIN_NUMBERS_TOP
100
AcDbText
 10
53.309423
 20
13.053281
 30
0.0
 40
0.508
  1
6
  7
COURIER_NEW
 72
         1
 11
53.527355
 21
13.275785
 31
0.0
100
AcDbText
 73
         2
  0
TEXT
  5
1F2
100
AcDbEntity
  8
PIN_NUMBERS_TOP
100
AcDbText
 10
53.309423
 20
14.653281
 30
0.0
 40
0.508
  1
3
  7
COURIER_NEW
 72
         1
 11
53.527355
 21
14.875785
 31
0.0
100
AcDbText
 73
         2
  0
TEXT
  5
1F3
100
AcDbEntity
  8
PIN_NUMBERS_TOP
100
AcDbText
 10
52.509423
 20
14.653281
 30
0.0
 40
0.508
  1
2
  7
COURIER_NEW
 72
         1
 11
52.727355
 21
14.875785
 31
0.0
100
AcDbText
 73
         2
  0
TEXT
  5
1F4
100
AcDbEntity
  8
PIN_NUMBERS_TOP
100
AcDbText
 10
51.659423
 20
13.053281
 30
0.0
 40
0.508
  1
8
  7
COURIER_NEW
 72
         1
 11
51.877355
 21
13.275785
 31
0.0
100
AcDbText
 73
         2
  0
TEXT
  5
1F5
100
AcDbEntity
  8
PIN_NUMBERS_TOP
100
AcDbText
 10
54.159423
 20
13.053281
 30
0.0
 40
0.508
  1
5
  7
COURIER_NEW
 72
         1
 11
54.377355
 21
13.275785
 31
0.0
100
AcDbText
 73
         2
  0
TEXT
  5
1F6
100
AcDbEntity
  8
PIN_NUMBERS_TOP
100
AcDbText
 10
54.159423
 20
14.653281
 30
0.0
 40
0.508
  1
4
  7
COURIER_NEW
 72
         1
 11
54.377355
 21
14.875785
 31
0.0
100
AcDbText
 73
         2
  0
TEXT
  5
1F7
100
AcDbEntity
  8
PIN_NUMBERS_TOP
100
AcDbText
 10
51.659423
 20
14.653281
 30
0.0
 40
0.508
  1
1
  7
COURIER_NEW
 72
         1
 11
51.877355
 21
14.875785
 31
0.0
100
AcDbText
 73
         2
  0
TEXT
  5
1F8
100
AcDbEntity
  8
PIN_NUMBERS_TOP
100
AcDbText
 10
49.738493
 20
16.424091
 30
0.0
 40
0.508
  1
1
  7
COURIER_NEW
 72
         1
 11
49.956425
 21
16.646595
 31
0.0
100
AcDbText
 73
         2
  0
TEXT
  5
1F9
100
AcDbEntity
  8
PIN_NUMBERS_TOP
100
AcDbText
 10
50.388493
 20
16.424091
 30
0.0
 40
0.508
  1
2
  7
COURIER_NEW
 72
         1
 11
50.606425
 21
16.646595
 31
0.0
100
AcDbText
 73
         2
  0
TEXT
  5
1FA
100
AcDbEntity
  8
PIN_NUMBERS_TOP
100
AcDbText
 10
51.038493
 20
16.424091
 30
0.0
 40
0.508
  1
3
  7
COURIER_NEW
 72
         1
 11
51.256425
 21
16.646595
 31
0.0
100
AcDbText
 73
         2
  0
TEXT
  5
1FB
100
AcDbEntity
  8
PIN_NUMBERS_TOP
100
AcDbText
 10
51.688493
 20
16.424091
 30
0.0
 40
0.508
  1
4
  7
COURIER_NEW
 72
         1
 11
51.906425
 21
16.646595
 31
0.0
100
AcDbText
 73
         2
  0
TEXT
  5
1FC
100
AcDbEntity
  8
PIN_NUMBERS_TOP
100
AcDbText
 10
52.338493
 20
16.424091
 30
0.0
 40
0.508
  1
5
  7
COURIER_NEW
 72
         1
 11
52.556425
 21
16.646595
 31
0.0
100
AcDbText
 73
         2
  0
TEXT
  5
1FD
100
AcDbEntity
  8
PIN_NUMBERS_TOP
100
AcDbText
 10
52.988493
 20
16.424091
 30
0.0
 40
0.508
  1
6
  7
COURIER_NEW
 72
         1
 11
53.206425
 21
16.646595
 31
0.0
100
AcDbText
 73
         2
  0
TEXT
  5
1FE
100
AcDbEntity
  8
PIN_NUMBERS_TOP
100
AcDbText
 10
53.638493
 20
16.424091
 30
0.0
 40
0.508
  1
7
  7
COURIER_NEW
 72
         1
 11
53.856425
 21
16.646595
 31
0.0
100
AcDbText
 73
         2
  0
TEXT
  5
1FF
100
AcDbEntity
  8
PIN_NUMBERS_TOP
100
AcDbText
 10
54.288493
 20
16.424091
 30
0.0
 40
0.508
  1
8
  7
COURIER_NEW
 72
         1
 11
54.506425
 21
16.646595
 31
0.0
100
AcDbText
 73
         2
  0
TEXT
  5
200
100
AcDbEntity
  8
PIN_NUMBERS_TOP
100
AcDbText
 10
54.288493
 20
22.324091
 30
0.0
 40
0.508
  1
9
  7
COURIER_NEW
 72
         1
 11
54.506425
 21
22.546595
 31
0.0
100
AcDbText
 73
         2
  0
TEXT
  5
201
100
AcDbEntity
  8
PIN_NUMBERS_TOP
100
AcDbText
 10
53.420561
 20
22.324091
 30
0.0
 40
0.508
  1
10
  7
COURIER_NEW
 72
         1
 11
53.856425
 21
22.546595
 31
0.0
100
AcDbText
 73
         2
  0
TEXT
  5
202
100
AcDbEntity
  8
PIN_NUMBERS_TOP
100
AcDbText
 10
52.770561
 20
22.324091
 30
0.0
 40
0.508
  1
11
  7
COURIER_NEW
 72
         1
 11
53.206425
 21
22.546595
 31
0.0
100
AcDbText
 73
         2
  0
TEXT
  5
203
100
AcDbEntity
  8
PIN_NUMBERS_TOP
100
AcDbText
 10
52.120561
 20
22.324091
 30
0.0
 40
0.508
  1
12
  7
COURIER_NEW
 72
         1
 11
52.556425
 21
22.546595
 31
0.0
100
AcDbText
 73
         2
  0
TEXT
  5
204
100
AcDbEntity
  8
PIN_NUMBERS_TOP
100
AcDbText
 10
51.470561
 20
22.324091
 30
0.0
 40
0.508
  1
13
  7
COURIER_NEW
 72
         1
 11
51.906425
 21
22.546595
 31
0.0
100
AcDbText
 73
         2
  0
TEXT
  5
205
100
AcDbEntity
  8
PIN_NUMBERS_TOP
100
AcDbText
 10
50.820561
 20
22.324091
 30
0.0
 40
0.508
  1
14
  7
COURIER_NEW
 72
         1
 11
51.256425
 21
22.546595
 31
0.0
100
AcDbText
 73
         2
  0
TEXT
  5
206
100
AcDbEntity
  8
PIN_NUMBERS_TOP
100
AcDbText
 10
50.170561
 20
22.324091
 30
0.0
 40
0.508
  1
15
  7
COURIER_NEW
 72
         1
 11
50.606425
 21
22.546595
 31
0.0
100
AcDbText
 73
         2
  0
TEXT
  5
207
100
AcDbEntity
  8
PIN_NUMBERS_TOP
100
AcDbText
 10
49.520561
 20
22.324091
 30
0.0
 40
0.508
  1
16
  7
COURIER_NEW
 72
         1
 11
49.956425
 21
22.546595
 31
0.0
100
AcDbText
 73
         2
  0
TEXT
  5
208
100
AcDbEntity
  8
PIN_NUMBERS_TOP
100
AcDbText
 10
35.452878
 20
17.483426
 30
0.0
 40
0.508
  1
1
  7
COURIER_NEW
 72
         1
 11
35.67081
 21
17.70593
 31
0.0
100
AcDbText
 73
         2
  0
TEXT
  5
209
100
AcDbEntity
  8
PIN_NUMBERS_TOP
100
AcDbText
 10
35.452878
 20
16.833426
 30
0.0
 40
0.508
  1
2
  7
COURIER_NEW
 72
         1
 11
35.67081
 21
17.05593
 31
0.0
100
AcDbText
 73
         2
  0
TEXT
  5
20A
100
AcDbEntity
  8
PIN_NUMBERS_TOP
100
AcDbText
 10
35.452878
 20
16.183426
 30
0.0
 40
0.508
  1
3
  7
COURIER_NEW
 72
         1
 11
35.67081
 21
16.40593
 31
0.0
100
AcDbText
 73
         2
  0
TEXT
  5
20B
100
AcDbEntity
  8
PIN_NUMBERS_TOP
100
AcDbText
 10
35.452878
 20
15.533426
 30
0.0
 40
0.508
  1
4
  7
COURIER_NEW
 72
         1
 11
35.67081
 21
15.75593
 31
0.0
100
AcDbText
 73
         2
  0
TEXT
  5
20C
100
AcDbEntity
  8
PIN_NUMBERS_TOP
100
AcDbText
 10
35.452878
 20
14.883426
 30
0.0
 40
0.508
  1
5
  7
COURIER_NEW
 72
         1
 11
35.67081
 21
15.10593
 31
0.0
100
AcDbText
 73
         2
  0
TEXT
  5
20D
100
AcDbEntity
  8
PIN_NUMBERS_TOP
100
AcDbText
 10
35.452878
 20
14.233426
 30
0.0
 40
0.508
  1
6
  7
COURIER_NEW
 72
         1
 11
35.67081
 21
14.45593
 31
0.0
100
AcDbText
 73
         2
  0
TEXT
  5
20E
100
AcDbEntity
  8
PIN_NUMBERS_TOP
100
AcDbText
 10
35.452878
 20
13.583426
 30
0.0
 40
0.508
  1
7
  7
COURIER_NEW
 72
         1
 11
35.67081
 21
13.80593
 31
0.0
100
AcDbText
 73
         2
  0
TEXT
  5
20F
100
AcDbEntity
  8
PIN_NUMBERS_TOP
100
AcDbText
 10
35.452878
 20
12.933426
 30
0.0
 40
0.508
  1
8
  7
COURIER_NEW
 72
         1
 11
35.67081
 21
13.15593
 31
0.0
100
AcDbText
 73
         2
  0
TEXT
  5
210
100
AcDbEntity
  8
PIN_NUMBERS_TOP
100
AcDbText
 10
35.452878
 20
12.283426
 30
0.0
 40
0.508
  1
9
  7
COURIER_NEW
 72
         1
 11
35.67081
 21
12.50593
 31
0.0
100
AcDbText
 73
         2
  0
TEXT
  5
211
100
AcDbEntity
  8
PIN_NUMBERS_TOP
100
AcDbText
 10
35.234946
 20
11.633426
 30
0.0
 40
0.508
  1
10
  7
COURIER_NEW
 72
         1
 11
35.67081
 21
11.85593
 31
0.0
100
AcDbText
 73
         2
  0
TEXT
  5
212
100
AcDbEntity
  8
PIN_NUMBERS_TOP
100
AcDbText
 10
41.134946
 20
11.633426
 30
0.0
 40
0.508
  1
11
  7
COURIER_NEW
 72
         1
 11
41.57081
 21
11.85593
 31
0.0
100
AcDbText
 73
         2
  0
TEXT
  5
213
100
AcDbEntity
  8
PIN_NUMBERS_TOP
100
AcDbText
 10
41.134946
 20
12.283426
 30
0.0
 40
0.508
  1
12
  7
COURIER_NEW
 72
         1
 11
41.57081
 21
12.50593
 31
0.0
100
AcDbText
 73
         2
  0
TEXT
  5
214
100
AcDbEntity
  8
PIN_NUMBERS_TOP
100
AcDbText
 10
41.134946
 20
12.933426
 30
0.0
 40
0.508
  1
13
  7
COURIER_NEW
 72
         1
 11
41.57081
 21
13.15593
 31
0.0
100
AcDbText
 73
         2
  0
TEXT
  5
215
100
AcDbEntity
  8
PIN_NUMBERS_TOP
100
AcDbText
 10
41.134946
 20
13.583426
 30
0.0
 40
0.508
  1
14
  7
COURIER_NEW
 72
         1
 11
41.57081
 21
13.80593
 31
0.0
100
AcDbText
 73
         2
  0
TEXT
  5
216
100
AcDbEntity
  8
PIN_NUMBERS_TOP
100
AcDbText
 10
41.134946
 20
14.233426
 30
0.0
 40
0.508
  1
15
  7
COURIER_NEW
 72
         1
 11
41.57081
 21
14.45593
 31
0.0
100
AcDbText
 73
         2
  0
TEXT
  5
217
100
AcDbEntity
  8
PIN_NUMBERS_TOP
100
AcDbText
 10
41.134946
 20
14.883426
 30
0.0
 40
0.508
  1
16
  7
COURIER_NEW
 72
         1
 11
41.57081
 21
15.10593
 31
0.0
100
AcDbText
 73
         2
  0
TEXT
  5
218
100
AcDbEntity
  8
PIN_NUMBERS_TOP
100
AcDbText
 10
41.134946
 20
15.533426
 30
0.0
 40
0.508
  1
17
  7
COURIER_NEW
 72
         1
 11
41.57081
 21
15.75593
 31
0.0
100
AcDbText
 73
         2
  0
TEXT
  5
219
100
AcDbEntity
  8
PIN_NUMBERS_TOP
100
AcDbText
 10
41.134946
 20
16.183426
 30
0.0
 40
0.508
  1
18
  7
COURIER_NEW
 72
         1
 11
41.57081
 21
16.40593
 31
0.0
100
AcDbText
 73
         2
  0
TEXT
  5
21A
100
AcDbEntity
  8
PIN_NUMBERS_TOP
100
AcDbText
 10
41.134946
 20
16.833426
 30
0.0
 40
0.508
  1
19
  7
COURIER_NEW
 72
         1
 11
41.57081
 21
17.05593
 31
0.0
100
AcDbText
 73
         2
  0
TEXT
  5
21B
100
AcDbEntity
  8
PIN_NUMBERS_TOP
100
AcDbText
 10
41.134946
 20
17.483426
 30
0.0
 40
0.508
  1
20
  7
COURIER_NEW
 72
         1
 11
41.57081
 21
17.70593
 31
0.0
100
AcDbText
 73
         2
  0
TEXT
  5
21C
100
AcDbEntity
  8
PIN_NUMBERS_TOP
100
AcDbText
 10
33.005498
 20
11.327496
 30
0.0
 40
0.508
  1
1
  7
COURIER_NEW
 72
         1
 11
33.22343
 21
11.55
 31
0.0
100
AcDbText
 73
         2
  0
TEXT
  5
21D
100
AcDbEntity
  8
PIN_NUMBERS_TOP
100
AcDbText
 10
33.005498
 20
11.827496
 30
0.0
 40
0.508
  1
2
  7
COURIER_NEW
 72
         1
 11
33.22343
 21
12.05
 31
0.0
100
AcDbText
 73
         2
  0
TEXT
  5
21E
100
AcDbEntity
  8
PIN_NUMBERS_TOP
100
AcDbText
 10
33.005498
 20
12.327496
 30
0.0
 40
0.508
  1
3
  7
COURIER_NEW
 72
         1
 11
33.22343
 21
12.55
 31
0.0
100
AcDbText
 73
         2
  0
TEXT
  5
21F
100
AcDbEntity
  8
PIN_NUMBERS_TOP
100
AcDbText
 10
33.005498
 20
12.827496
 30
0.0
 40
0.508
  1
4
  7
COURIER_NEW
 72
         1
 11
33.22343
 21
13.05
 31
0.0
100
AcDbText
 73
         2
  0
TEXT
  5
220
100
AcDbEntity
  8
PIN_NUMBERS_TOP
100
AcDbText
 10
33.005498
 20
13.327496
 30
0.0
 40
0.508
  1
5
  7
COURIER_NEW
 72
         1
 11
33.22343
 21
13.55
 31
0.0
100
AcDbText
 73
         2
  0
TEXT
  5
221
100
AcDbEntity
  8
PIN_NUMBERS_TOP
100
AcDbText
 10
33.005498
 20
13.827496
 30
0.0
 40
0.508
  1
6
  7
COURIER_NEW
 72
         1
 11
33.22343
 21
14.05
 31
0.0
100
AcDbText
 73
         2
  0
TEXT
  5
222
100
AcDbEntity
  8
PIN_NUMBERS_TOP
100
AcDbText
 10
30.605498
 20
13.827496
 30
0.0
 40
0.508
  1
7
  7
COURIER_NEW
 72
         1
 11
30.82343
 21
14.05
 31
0.0
100
AcDbText
 73
         2
  0
TEXT
  5
223
100
AcDbEntity
  8
PIN_NUMBERS_TOP
100
AcDbText
 10
30.605498
 20
13.327496
 30
0.0
 40
0.508
  1
8
  7
COURIER_NEW
 72
         1
 11
30.82343
 21
13.55
 31
0.0
100
AcDbText
 73
         2
  0
TEXT
  5
224
100
AcDbEntity
  8
PIN_NUMBERS_TOP
100
AcDbText
 10
30.605498
 20
12.827496
 30
0.0
 40
0.508
  1
9
  7
COURIER_NEW
 72
         1
 11
30.82343
 21
13.05
 31
0.0
100
AcDbText
 73
         2
  0
TEXT
  5
225
100
AcDbEntity
  8
PIN_NUMBERS_TOP
100
AcDbText
 10
30.387566
 20
12.327496
 30
0.0
 40
0.508
  1
10
  7
COURIER_NEW
 72
         1
 11
30.82343
 21
12.55
 31
0.0
100
AcDbText
 73
         2
  0
TEXT
  5
226
100
AcDbEntity
  8
PIN_NUMBERS_TOP
100
AcDbText
 10
30.387566
 20
11.827496
 30
0.0
 40
0.508
  1
11
  7
COURIER_NEW
 72
         1
 11
30.82343
 21
12.05
 31
0.0
100
AcDbText
 73
         2
  0
TEXT
  5
227
100
AcDbEntity
  8
PIN_NUMBERS_TOP
100
AcDbText
 10
30.387566
 20
11.327496
 30
0.0
 40
0.508
  1
12
  7
COURIER_NEW
 72
         1
 11
30.82343
 21
11.55
 31
0.0
100
AcDbText
 73
         2
  0
TEXT
  5
228
100
AcDbEntity
  8
PIN_NUMBERS_TOP
100
AcDbText
 10
31.182068
 20
17.577496
 30
0.0
 40
0.508
  1
2
  7
COURIER_NEW
 72
         1
 11
31.4
 21
17.8
 31
0.0
100
AcDbText
 73
         2
  0
TEXT
  5
229
100
AcDbEntity
  8
PIN_NUMBERS_TOP
100
AcDbText
 10
30.382068
 20
17.577496
 30
0.0
 40
0.508
  1
1
  7
COURIER_NEW
 72
         1
 11
30.6
 21
17.8
 31
0.0
100
AcDbText
 73
         2
  0
TEXT
  5
22A
100
AcDbEntity
  8
PIN_NUMBERS_TOP
100
AcDbText
 10
31.182068
 20
15.977496
 30
0.0
 40
0.508
  1
2
  7
COURIER_NEW
 72
         1
 11
31.4
 21
16.2
 31
0.0
100
AcDbText
 73
         2
  0
TEXT
  5
22B
100
AcDbEntity
  8
PIN_NUMBERS_TOP
100
AcDbText
 10
30.382068
 20
15.977496
 30
0.0
 40
0.508
  1
1
  7
COURIER_NEW
 72
         1
 11
30.6
 21
16.2
 31
0.0
100
AcDbText
 73
         2
  0
TEXT
  5
22C
100
AcDbEntity
  8
PIN_NUMBERS_TOP
100
AcDbText
 10
31.182068
 20
16.777496
 30
0.0
 40
0.508
  1
2
  7
COURIER_NEW
 72
         1
 11
31.4
 21
17.0
 31
0.0
100
AcDbText
 73
         2
  0
TEXT
  5
22D
100
AcDbEntity
  8
PIN_NUMBERS_TOP
100
AcDbText
 10
30.382068
 20
16.777496
 30
0.0
 40
0.508
  1
1
  7
COURIER_NEW
 72
         1
 11
30.6
 21
17.0
 31
0.0
100
AcDbText
 73
         2
  0
TEXT
  5
22E
100
AcDbEntity
  8
PIN_NUMBERS_TOP
100
AcDbText
 10
30.382068
 20
15.177496
 30
0.0
 40
0.508
  1
2
  7
COURIER_NEW
 72
         1
 11
30.6
 21
15.4
 31
0.0
100
AcDbText
 73
         2
  0
TEXT
  5
22F
100
AcDbEntity
  8
PIN_NUMBERS_TOP
100
AcDbText
 10
31.182068
 20
15.177496
 30
0.0
 40
0.508
  1
1
  7
COURIER_NEW
 72
         1
 11
31.4
 21
15.4
 31
0.0
100
AcDbText
 73
         2
  0
TEXT
  5
230
100
AcDbEntity
  8
PIN_NUMBERS_TOP
100
AcDbText
 10
2.282068
 20
16.779066
 30
0.0
 40
0.508
  1
1
  7
COURIER_NEW
 72
         1
 11
2.5
 21
17.00157
 31
0.0
100
AcDbText
 73
         2
  0
TEXT
  5
231
100
AcDbEntity
  8
PIN_NUMBERS_TOP
100
AcDbText
 10
2.282068
 20
23.529066
 30
0.0
 40
0.508
  1
2
  7
COURIER_NEW
 72
         1
 11
2.5
 21
23.75157
 31
0.0
100
AcDbText
 73
         2
  0
TEXT
  5
232
100
AcDbEntity
  8
PIN_NUMBERS_TOP
100
AcDbText
 10
34.230498
 20
20.977496
 30
0.0
 40
0.508
  1
1
  7
COURIER_NEW
 72
         1
 11
34.44843
 21
21.2
 31
0.0
100
AcDbText
 73
         2
  0
TEXT
  5
233
100
AcDbEntity
  8
PIN_NUMBERS_TOP
100
AcDbText
 10
34.780498
 20
19.927496
 30
0.0
 40
0.508
  1
2
  7
COURIER_NEW
 72
         1
 11
34.99843
 21
20.15
 31
0.0
100
AcDbText
 73
         2
  0
TEXT
  5
234
100
AcDbEntity
  8
PIN_NUMBERS_TOP
100
AcDbText
 10
35.280498
 20
19.927496
 30
0.0
 40
0.508
  1
3
  7
COURIER_NEW
 72
         1
 11
35.49843
 21
20.15
 31
0.0
100
AcDbText
 73
         2
  0
TEXT
  5
235
100
AcDbEntity
  8
PIN_NUMBERS_TOP
100
AcDbText
 10
35.780498
 20
19.927496
 30
0.0
 40
0.508
  1
4
  7
COURIER_NEW
 72
         1
 11
35.99843
 21
20.15
 31
0.0
100
AcDbText
 73
         2
  0
TEXT
  5
236
100
AcDbEntity
  8
PIN_NUMBERS_TOP
100
AcDbText
 10
36.280498
 20
19.927496
 30
0.0
 40
0.508
  1
5
  7
COURIER_NEW
 72
         1
 11
36.49843
 21
20.15
 31
0.0
100
AcDbText
 73
         2
  0
TEXT
  5
237
100
AcDbEntity
  8
PIN_NUMBERS_TOP
100
AcDbText
 10
36.780498
 20
19.927496
 30
0.0
 40
0.508
  1
6
  7
COURIER_NEW
 72
         1
 11
36.99843
 21
20.15
 31
0.0
100
AcDbText
 73
         2
  0
TEXT
  5
238
100
AcDbEntity
  8
PIN_NUMBERS_TOP
100
AcDbText
 10
37.280498
 20
19.927496
 30
0.0
 40
0.508
  1
7
  7
COURIER_NEW
 72
         1
 11
37.49843
 21
20.15
 31
0.0
100
AcDbText
 73
         2
  0
TEXT
  5
239
100
AcDbEntity
  8
PIN_NUMBERS_TOP
100
AcDbText
 10
37.780498
 20
19.927496
 30
0.0
 40
0.508
  1
8
  7
COURIER_NEW
 72
         1
 11
37.99843
 21
20.15
 31
0.0
100
AcDbText
 73
         2
  0
TEXT
  5
23A
100
AcDbEntity
  8
PIN_NUMBERS_TOP
100
AcDbText
 10
38.280498
 20
19.927496
 30
0.0
 40
0.508
  1
9
  7
COURIER_NEW
 72
         1
 11
38.49843
 21
20.15
 31
0.0
100
AcDbText
 73
         2
  0
TEXT
  5
23B
100
AcDbEntity
  8
PIN_NUMBERS_TOP
100
AcDbText
 10
38.562566
 20
19.927496
 30
0.0
 40
0.508
  1
10
  7
COURIER_NEW
 72
         1
 11
38.99843
 21
20.15
 31
0.0
100
AcDbText
 73
         2
  0
TEXT
  5
23C
100
AcDbEntity
  8
PIN_NUMBERS_TOP
100
AcDbText
 10
39.062566
 20
19.927496
 30
0.0
 40
0.508
  1
11
  7
COURIER_NEW
 72
         1
 11
39.49843
 21
20.15
 31
0.0
100
AcDbText
 73
         2
  0
TEXT
  5
23D
100
AcDbEntity
  8
PIN_NUMBERS_TOP
100
AcDbText
 10
39.612566
 20
20.977496
 30
0.0
 40
0.508
  1
12
  7
COURIER_NEW
 72
         1
 11
40.04843
 21
21.2
 31
0.0
100
AcDbText
 73
         2
  0
TEXT
  5
23E
100
AcDbEntity
  8
PIN_NUMBERS_TOP
100
AcDbText
 10
39.612566
 20
22.477496
 30
0.0
 40
0.508
  1
13
  7
COURIER_NEW
 72
         1
 11
40.04843
 21
22.7
 31
0.0
100
AcDbText
 73
         2
  0
TEXT
  5
23F
100
AcDbEntity
  8
PIN_NUMBERS_TOP
100
AcDbText
 10
39.062566
 20
23.527496
 30
0.0
 40
0.508
  1
14
  7
COURIER_NEW
 72
         1
 11
39.49843
 21
23.75
 31
0.0
100
AcDbText
 73
         2
  0
TEXT
  5
240
100
AcDbEntity
  8
PIN_NUMBERS_TOP
100
AcDbText
 10
38.562566
 20
23.527496
 30
0.0
 40
0.508
  1
15
  7
COURIER_NEW
 72
         1
 11
38.99843
 21
23.75
 31
0.0
100
AcDbText
 73
         2
  0
TEXT
  5
241
100
AcDbEntity
  8
PIN_NUMBERS_TOP
100
AcDbText
 10
38.062566
 20
23.527496
 30
0.0
 40
0.508
  1
16
  7
COURIER_NEW
 72
         1
 11
38.49843
 21
23.75
 31
0.0
100
AcDbText
 73
         2
  0
TEXT
  5
242
100
AcDbEntity
  8
PIN_NUMBERS_TOP
100
AcDbText
 10
37.562566
 20
23.527496
 30
0.0
 40
0.508
  1
17
  7
COURIER_NEW
 72
         1
 11
37.99843
 21
23.75
 31
0.0
100
AcDbText
 73
         2
  0
TEXT
  5
243
100
AcDbEntity
  8
PIN_NUMBERS_TOP
100
AcDbText
 10
37.062566
 20
23.527496
 30
0.0
 40
0.508
  1
18
  7
COURIER_NEW
 72
         1
 11
37.49843
 21
23.75
 31
0.0
100
AcDbText
 73
         2
  0
TEXT
  5
244
100
AcDbEntity
  8
PIN_NUMBERS_TOP
100
AcDbText
 10
36.562566
 20
23.527496
 30
0.0
 40
0.508
  1
19
  7
COURIER_NEW
 72
         1
 11
36.99843
 21
23.75
 31
0.0
100
AcDbText
 73
         2
  0
TEXT
  5
245
100
AcDbEntity
  8
PIN_NUMBERS_TOP
100
AcDbText
 10
36.062566
 20
23.527496
 30
0.0
 40
0.508
  1
20
  7
COURIER_NEW
 72
         1
 11
36.49843
 21
23.75
 31
0.0
100
AcDbText
 73
         2
  0
TEXT
  5
246
100
AcDbEntity
  8
PIN_NUMBERS_TOP
100
AcDbText
 10
35.562566
 20
23.527496
 30
0.0
 40
0.508
  1
21
  7
COURIER_NEW
 72
         1
 11
35.99843
 21
23.75
 31
0.0
100
AcDbText
 73
         2
  0
TEXT
  5
247
100
AcDbEntity
  8
PIN_NUMBERS_TOP
100
AcDbText
 10
35.062566
 20
23.527496
 30
0.0
 40
0.508
  1
22
  7
COURIER_NEW
 72
         1
 11
35.49843
 21
23.75
 31
0.0
100
AcDbText
 73
         2
  0
TEXT
  5
248
100
AcDbEntity
  8
PIN_NUMBERS_TOP
100
AcDbText
 10
34.562566
 20
23.527496
 30
0.0
 40
0.508
  1
23
  7
COURIER_NEW
 72
         1
 11
34.99843
 21
23.75
 31
0.0
100
AcDbText
 73
         2
  0
TEXT
  5
249
100
AcDbEntity
  8
PIN_NUMBERS_TOP
100
AcDbText
 10
34.012566
 20
22.477496
 30
0.0
 40
0.508
  1
24
  7
COURIER_NEW
 72
         1
 11
34.44843
 21
22.7
 31
0.0
100
AcDbText
 73
         2
  0
TEXT
  5
24A
100
AcDbEntity
  8
PIN_NUMBERS_TOP
100
AcDbText
 10
36.812566
 20
21.727496
 30
0.0
 40
0.508
  1
25
  7
COURIER_NEW
 72
         1
 11
37.24843
 21
21.95
 31
0.0
100
AcDbText
 73
         2
  0
TEXT
  5
24B
100
AcDbEntity
  8
PIN_NUMBERS_TOP
100
AcDbText
 10
17.482068
 20
25.277496
 30
0.0
 40
0.508
  1
2
  7
COURIER_NEW
 72
         1
 11
17.7
 21
25.5
 31
0.0
100
AcDbText
 73
         2
  0
TEXT
  5
24C
100
AcDbEntity
  8
PIN_NUMBERS_TOP
100
AcDbText
 10
18.282068
 20
25.277496
 30
0.0
 40
0.508
  1
1
  7
COURIER_NEW
 72
         1
 11
18.5
 21
25.5
 31
0.0
100
AcDbText
 73
         2
  0
TEXT
  5
24D
100
AcDbEntity
  8
PIN_NUMBERS_TOP
100
AcDbText
 10
14.582068
 20
25.277496
 30
0.0
 40
0.508
  1
2
  7
COURIER_NEW
 72
         1
 11
14.8
 21
25.5
 31
0.0
100
AcDbText
 73
         2
  0
TEXT
  5
24E
100
AcDbEntity
  8
PIN_NUMBERS_TOP
100
AcDbText
 10
15.382068
 20
25.277496
 30
0.0
 40
0.508
  1
1
  7
COURIER_NEW
 72
         1
 11
15.6
 21
25.5
 31
0.0
100
AcDbText
 73
         2
  0
TEXT
  5
24F
100
AcDbEntity
  8
PIN_NUMBERS_TOP
100
AcDbText
 10
23.182068
 20
25.277496
 30
0.0
 40
0.508
  1
2
  7
COURIER_NEW
 72
         1
 11
23.4
 21
25.5
 31
0.0
100
AcDbText
 73
         2
  0
TEXT
  5
250
100
AcDbEntity
  8
PIN_NUMBERS_TOP
100
AcDbText
 10
23.982068
 20
25.277496
 30
0.0
 40
0.508
  1
1
  7
COURIER_NEW
 72
         1
 11
24.2
 21
25.5
 31
0.0
100
AcDbText
 73
         2
  0
TEXT
  5
251
100
AcDbEntity
  8
PIN_NUMBERS_TOP
100
AcDbText
 10
8.682068
 20
16.777496
 30
0.0
 40
0.508
  1
2
  7
COURIER_NEW
 72
         1
 11
8.9
 21
17.0
 31
0.0
100
AcDbText
 73
         2
  0
TEXT
  5
252
100
AcDbEntity
  8
PIN_NUMBERS_TOP
100
AcDbText
 10
7.882068
 20
16.777496
 30
0.0
 40
0.508
  1
1
  7
COURIER_NEW
 72
         1
 11
8.1
 21
17.0
 31
0.0
100
AcDbText
 73
         2
  0
TEXT
  5
253
100
AcDbEntity
  8
PIN_NUMBERS_TOP
100
AcDbText
 10
6.282068
 20
16.777496
 30
0.0
 40
0.508
  1
2
  7
COURIER_NEW
 72
         1
 11
6.5
 21
17.0
 31
0.0
100
AcDbText
 73
         2
  0
TEXT
  5
254
100
AcDbEntity
  8
PIN_NUMBERS_TOP
100
AcDbText
 10
5.482068
 20
16.777496
 30
0.0
 40
0.508
  1
1
  7
COURIER_NEW
 72
         1
 11
5.7
 21
17.0
 31
0.0
100
AcDbText
 73
         2
  0
TEXT
  5
255
100
AcDbEntity
  8
PIN_NUMBERS_TOP
100
AcDbText
 10
7.082068
 20
17.577496
 30
0.0
 40
0.508
  1
2
  7
COURIER_NEW
 72
         1
 11
7.3
 21
17.8
 31
0.0
100
AcDbText
 73
         2
  0
TEXT
  5
256
100
AcDbEntity
  8
PIN_NUMBERS_TOP
100
AcDbText
 10
7.082068
 20
16.777496
 30
0.0
 40
0.508
  1
1
  7
COURIER_NEW
 72
         1
 11
7.3
 21
17.0
 31
0.0
100
AcDbText
 73
         2
  0
TEXT
  5
257
100
AcDbEntity
  8
PIN_NUMBERS_TOP
100
AcDbText
 10
43.182068
 20
16.679066
 30
0.0
 40
0.508
  1
7
  7
COURIER_NEW
 72
         1
 11
43.4
 21
16.90157
 31
0.0
100
AcDbText
 73
         2
  0
TEXT
  5
258
100
AcDbEntity
  8
PIN_NUMBERS_TOP
100
AcDbText
 10
43.182068
 20
15.879066
 30
0.0
 40
0.508
  1
6
  7
COURIER_NEW
 72
         1
 11
43.4
 21
16.10157
 31
0.0
100
AcDbText
 73
         2
  0
TEXT
  5
259
100
AcDbEntity
  8
PIN_NUMBERS_TOP
100
AcDbText
 10
44.782068
 20
15.879066
 30
0.0
 40
0.508
  1
3
  7
COURIER_NEW
 72
         1
 11
45.0
 21
16.10157
 31
0.0
100
AcDbText
 73
         2
  0
TEXT
  5
25A
100
AcDbEntity
  8
PIN_NUMBERS_TOP
100
AcDbText
 10
44.782068
 20
16.679066
 30
0.0
 40
0.508
  1
2
  7
COURIER_NEW
 72
         1
 11
45.0
 21
16.90157
 31
0.0
100
AcDbText
 73
         2
  0
TEXT
  5
25B
100
AcDbEntity
  8
PIN_NUMBERS_TOP
100
AcDbText
 10
43.182068
 20
17.529066
 30
0.0
 40
0.508
  1
8
  7
COURIER_NEW
 72
         1
 11
43.4
 21
17.75157
 31
0.0
100
AcDbText
 73
         2
  0
TEXT
  5
25C
100
AcDbEntity
  8
PIN_NUMBERS_TOP
100
AcDbText
 10
43.182068
 20
15.029066
 30
0.0
 40
0.508
  1
5
  7
COURIER_NEW
 72
         1
 11
43.4
 21
15.25157
 31
0.0
100
AcDbText
 73
         2
  0
TEXT
  5
25D
100
AcDbEntity
  8
PIN_NUMBERS_TOP
100
AcDbText
 10
44.782068
 20
15.029066
 30
0.0
 40
0.508
  1
4
  7
COURIER_NEW
 72
         1
 11
45.0
 21
15.25157
 31
0.0
100
AcDbText
 73
         2
  0
TEXT
  5
25E
100
AcDbEntity
  8
PIN_NUMBERS_TOP
100
AcDbText
 10
44.782068
 20
17.529066
 30
0.0
 40
0.508
  1
1
  7
COURIER_NEW
 72
         1
 11
45.0
 21
17.75157
 31
0.0
100
AcDbText
 73
         2
  0
TEXT
  5
25F
100
AcDbEntity
  8
PIN_NUMBERS_TOP
100
AcDbText
 10
44.282068
 20
13.979066
 30
0.0
 40
0.508
  1
2
  7
COURIER_NEW
 72
         1
 11
44.5
 21
14.20157
 31
0.0
100
AcDbText
 73
         2
  0
TEXT
  5
260
100
AcDbEntity
  8
PIN_NUMBERS_TOP
100
AcDbText
 10
43.482068
 20
13.979066
 30
0.0
 40
0.508
  1
1
  7
COURIER_NEW
 72
         1
 11
43.7
 21
14.20157
 31
0.0
100
AcDbText
 73
         2
  0
TEXT
  5
261
100
AcDbEntity
  8
PIN_NUMBERS_TOP
100
AcDbText
 10
10.182068
 20
25.179066
 30
0.0
 40
0.508
  1
2
  7
COURIER_NEW
 72
         1
 11
10.4
 21
25.40157
 31
0.0
100
AcDbText
 73
         2
  0
TEXT
  5
262
100
AcDbEntity
  8
PIN_NUMBERS_TOP
100
AcDbText
 10
9.382068
 20
25.179066
 30
0.0
 40
0.508
  1
1
  7
COURIER_NEW
 72
         1
 11
9.6
 21
25.40157
 31
0.0
100
AcDbText
 73
         2
  0
TEXT
  5
263
100
AcDbEntity
  8
PIN_NUMBERS_TOP
100
AcDbText
 10
12.782068
 20
8.277496
 30
0.0
 40
0.508
  1
1
  7
COURIER_NEW
 72
         1
 11
13.0
 21
8.5
 31
0.0
100
AcDbText
 73
         2
  0
TEXT
  5
264
100
AcDbEntity
  8
PIN_NUMBERS_TOP
100
AcDbText
 10
13.982068
 20
7.477496
 30
0.0
 40
0.508
  1
1
  7
COURIER_NEW
 72
         1
 11
14.2
 21
7.7
 31
0.0
100
AcDbText
 73
         2
  0
TEXT
  5
265
100
AcDbEntity
  8
PIN_NUMBERS_TOP
100
AcDbText
 10
17.682068
 20
8.377496
 30
0.0
 40
0.508
  1
1
  7
COURIER_NEW
 72
         1
 11
17.9
 21
8.6
 31
0.0
100
AcDbText
 73
         2
  0
TEXT
  5
266
100
AcDbEntity
  8
PIN_NUMBERS_TOP
100
AcDbText
 10
18.882068
 20
7.477496
 30
0.0
 40
0.508
  1
1
  7
COURIER_NEW
 72
         1
 11
19.1
 21
7.7
 31
0.0
100
AcDbText
 73
         2
  0
TEXT
  5
267
100
AcDbEntity
  8
PIN_NUMBERS_TOP
100
AcDbText
 10
12.882068
 20
25.277496
 30
0.0
 40
0.508
  1
1
  7
COURIER_NEW
 72
         1
 11
13.1
 21
25.5
 31
0.0
100
AcDbText
 73
         2
  0
TEXT
  5
268
100
AcDbEntity
  8
PIN_NUMBERS_TOP
100
AcDbText
 10
28.044136
 20
11.807496
 30
0.0
 40
0.508
  1
17
  7
COURIER_NEW
 72
         1
 11
28.48
 21
12.03
 31
0.0
100
AcDbText
 73
         2
  0
TEXT
  5
269
100
AcDbEntity
  8
PIN_NUMBERS_TOP
100
AcDbText
 10
28.044136
 20
12.807496
 30
0.0
 40
0.508
  1
18
  7
COURIER_NEW
 72
         1
 11
28.48
 21
13.03
 31
0.0
100
AcDbText
 73
         2
  0
TEXT
  5
26A
100
AcDbEntity
  8
PIN_NUMBERS_TOP
100
AcDbText
 10
28.044136
 20
13.807496
 30
0.0
 40
0.508
  1
19
  7
COURIER_NEW
 72
         1
 11
28.48
 21
14.03
 31
0.0
100
AcDbText
 73
         2
  0
TEXT
  5
26B
100
AcDbEntity
  8
PIN_NUMBERS_TOP
100
AcDbText
 10
28.044136
 20
14.807496
 30
0.0
 40
0.508
  1
20
  7
COURIER_NEW
 72
         1
 11
28.48
 21
15.03
 31
0.0
100
AcDbText
 73
         2
  0
TEXT
  5
26C
100
AcDbEntity
  8
PIN_NUMBERS_TOP
100
AcDbText
 10
28.044136
 20
15.807496
 30
0.0
 40
0.508
  1
21
  7
COURIER_NEW
 72
         1
 11
28.48
 21
16.03
 31
0.0
100
AcDbText
 73
         2
  0
TEXT
  5
26D
100
AcDbEntity
  8
PIN_NUMBERS_TOP
100
AcDbText
 10
28.044136
 20
16.807496
 30
0.0
 40
0.508
  1
22
  7
COURIER_NEW
 72
         1
 11
28.48
 21
17.03
 31
0.0
100
AcDbText
 73
         2
  0
TEXT
  5
26E
100
AcDbEntity
  8
PIN_NUMBERS_TOP
100
AcDbText
 10
28.044136
 20
17.807496
 30
0.0
 40
0.508
  1
23
  7
COURIER_NEW
 72
         1
 11
28.48
 21
18.03
 31
0.0
100
AcDbText
 73
         2
  0
TEXT
  5
26F
100
AcDbEntity
  8
PIN_NUMBERS_TOP
100
AcDbText
 10
28.044136
 20
18.807496
 30
0.0
 40
0.508
  1
24
  7
COURIER_NEW
 72
         1
 11
28.48
 21
19.03
 31
0.0
100
AcDbText
 73
         2
  0
TEXT
  5
270
100
AcDbEntity
  8
PIN_NUMBERS_TOP
100
AcDbText
 10
28.044136
 20
19.807496
 30
0.0
 40
0.508
  1
25
  7
COURIER_NEW
 72
         1
 11
28.48
 21
20.03
 31
0.0
100
AcDbText
 73
         2
  0
TEXT
  5
271
100
AcDbEntity
  8
PIN_NUMBERS_TOP
100
AcDbText
 10
28.044136
 20
20.807496
 30
0.0
 40
0.508
  1
26
  7
COURIER_NEW
 72
         1
 11
28.48
 21
21.03
 31
0.0
100
AcDbText
 73
         2
  0
TEXT
  5
272
100
AcDbEntity
  8
PIN_NUMBERS_TOP
100
AcDbText
 10
28.044136
 20
21.807496
 30
0.0
 40
0.508
  1
27
  7
COURIER_NEW
 72
         1
 11
28.48
 21
22.03
 31
0.0
100
AcDbText
 73
         2
  0
TEXT
  5
273
100
AcDbEntity
  8
PIN_NUMBERS_TOP
100
AcDbText
 10
26.544136
 20
23.307496
 30
0.0
 40
0.508
  1
28
  7
COURIER_NEW
 72
         1
 11
26.98
 21
23.53
 31
0.0
100
AcDbText
 73
         2
  0
TEXT
  5
274
100
AcDbEntity
  8
PIN_NUMBERS_TOP
100
AcDbText
 10
25.544136
 20
23.307496
 30
0.0
 40
0.508
  1
29
  7
COURIER_NEW
 72
         1
 11
25.98
 21
23.53
 31
0.0
100
AcDbText
 73
         2
  0
TEXT
  5
275
100
AcDbEntity
  8
PIN_NUMBERS_TOP
100
AcDbText
 10
24.544136
 20
23.307496
 30
0.0
 40
0.508
  1
30
  7
COURIER_NEW
 72
         1
 11
24.98
 21
23.53
 31
0.0
100
AcDbText
 73
         2
  0
TEXT
  5
276
100
AcDbEntity
  8
PIN_NUMBERS_TOP
100
AcDbText
 10
23.544136
 20
23.307496
 30
0.0
 40
0.508
  1
31
  7
COURIER_NEW
 72
         1
 11
23.98
 21
23.53
 31
0.0
100
AcDbText
 73
         2
  0
TEXT
  5
277
100
AcDbEntity
  8
PIN_NUMBERS_TOP
100
AcDbText
 10
22.544136
 20
23.307496
 30
0.0
 40
0.508
  1
32
  7
COURIER_NEW
 72
         1
 11
22.98
 21
23.53
 31
0.0
100
AcDbText
 73
         2
  0
TEXT
  5
278
100
AcDbEntity
  8
PIN_NUMBERS_TOP
100
AcDbText
 10
21.544136
 20
23.307496
 30
0.0
 40
0.508
  1
33
  7
COURIER_NEW
 72
         1
 11
21.98
 21
23.53
 31
0.0
100
AcDbText
 73
         2
  0
TEXT
  5
279
100
AcDbEntity
  8
PIN_NUMBERS_TOP
100
AcDbText
 10
20.544136
 20
23.307496
 30
0.0
 40
0.508
  1
34
  7
COURIER_NEW
 72
         1
 11
20.98
 21
23.53
 31
0.0
100
AcDbText
 73
         2
  0
TEXT
  5
27A
100
AcDbEntity
  8
PIN_NUMBERS_TOP
100
AcDbText
 10
19.544136
 20
23.307496
 30
0.0
 40
0.508
  1
35
  7
COURIER_NEW
 72
         1
 11
19.98
 21
23.53
 31
0.0
100
AcDbText
 73
         2
  0
TEXT
  5
27B
100
AcDbEntity
  8
PIN_NUMBERS_TOP
100
AcDbText
 10
18.544136
 20
23.307496
 30
0.0
 40
0.508
  1
36
  7
COURIER_NEW
 72
         1
 11
18.98
 21
23.53
 31
0.0
100
AcDbText
 73
         2
  0
TEXT
  5
27C
100
AcDbEntity
  8
PIN_NUMBERS_TOP
100
AcDbText
 10
17.544136
 20
23.307496
 30
0.0
 40
0.508
  1
37
  7
COURIER_NEW
 72
         1
 11
17.98
 21
23.53
 31
0.0
100
AcDbText
 73
         2
  0
TEXT
  5
27D
100
AcDbEntity
  8
PIN_NUMBERS_TOP
100
AcDbText
 10
16.544136
 20
23.307496
 30
0.0
 40
0.508
  1
38
  7
COURIER_NEW
 72
         1
 11
16.98
 21
23.53
 31
0.0
100
AcDbText
 73
         2
  0
TEXT
  5
27E
100
AcDbEntity
  8
PIN_NUMBERS_TOP
100
AcDbText
 10
15.544136
 20
23.307496
 30
0.0
 40
0.508
  1
39
  7
COURIER_NEW
 72
         1
 11
15.98
 21
23.53
 31
0.0
100
AcDbText
 73
         2
  0
TEXT
  5
27F
100
AcDbEntity
  8
PIN_NUMBERS_TOP
100
AcDbText
 10
14.544136
 20
23.307496
 30
0.0
 40
0.508
  1
40
  7
COURIER_NEW
 72
         1
 11
14.98
 21
23.53
 31
0.0
100
AcDbText
 73
         2
  0
TEXT
  5
280
100
AcDbEntity
  8
PIN_NUMBERS_TOP
100
AcDbText
 10
13.544136
 20
23.307496
 30
0.0
 40
0.508
  1
41
  7
COURIER_NEW
 72
         1
 11
13.98
 21
23.53
 31
0.0
100
AcDbText
 73
         2
  0
TEXT
  5
281
100
AcDbEntity
  8
PIN_NUMBERS_TOP
100
AcDbText
 10
12.544136
 20
23.307496
 30
0.0
 40
0.508
  1
42
  7
COURIER_NEW
 72
         1
 11
12.98
 21
23.53
 31
0.0
100
AcDbText
 73
         2
  0
TEXT
  5
282
100
AcDbEntity
  8
PIN_NUMBERS_TOP
100
AcDbText
 10
11.544136
 20
23.307496
 30
0.0
 40
0.508
  1
43
  7
COURIER_NEW
 72
         1
 11
11.98
 21
23.53
 31
0.0
100
AcDbText
 73
         2
  0
TEXT
  5
283
100
AcDbEntity
  8
PIN_NUMBERS_TOP
100
AcDbText
 10
11.762068
 20
10.307496
 30
0.0
 40
0.508
  1
1
  7
COURIER_NEW
 72
         1
 11
11.98
 21
10.53
 31
0.0
100
AcDbText
 73
         2
  0
TEXT
  5
284
100
AcDbEntity
  8
PIN_NUMBERS_TOP
100
AcDbText
 10
12.762068
 20
10.307496
 30
0.0
 40
0.508
  1
2
  7
COURIER_NEW
 72
         1
 11
12.98
 21
10.53
 31
0.0
100
AcDbText
 73
         2
  0
TEXT
  5
285
100
AcDbEntity
  8
PIN_NUMBERS_TOP
100
AcDbText
 10
13.762068
 20
10.307496
 30
0.0
 40
0.508
  1
3
  7
COURIER_NEW
 72
         1
 11
13.98
 21
10.53
 31
0.0
100
AcDbText
 73
         2
  0
TEXT
  5
286
100
AcDbEntity
  8
PIN_NUMBERS_TOP
100
AcDbText
 10
14.762068
 20
10.307496
 30
0.0
 40
0.508
  1
4
  7
COURIER_NEW
 72
         1
 11
14.98
 21
10.53
 31
0.0
100
AcDbText
 73
         2
  0
TEXT
  5
287
100
AcDbEntity
  8
PIN_NUMBERS_TOP
100
AcDbText
 10
15.762068
 20
10.307496
 30
0.0
 40
0.508
  1
5
  7
COURIER_NEW
 72
         1
 11
15.98
 21
10.53
 31
0.0
100
AcDbText
 73
         2
  0
TEXT
  5
288
100
AcDbEntity
  8
PIN_NUMBERS_TOP
100
AcDbText
 10
16.762068
 20
10.307496
 30
0.0
 40
0.508
  1
6
  7
COURIER_NEW
 72
         1
 11
16.98
 21
10.53
 31
0.0
100
AcDbText
 73
         2
  0
TEXT
  5
289
100
AcDbEntity
  8
PIN_NUMBERS_TOP
100
AcDbText
 10
17.762068
 20
10.307496
 30
0.0
 40
0.508
  1
7
  7
COURIER_NEW
 72
         1
 11
17.98
 21
10.53
 31
0.0
100
AcDbText
 73
         2
  0
TEXT
  5
28A
100
AcDbEntity
  8
PIN_NUMBERS_TOP
100
AcDbText
 10
18.762068
 20
10.307496
 30
0.0
 40
0.508
  1
8
  7
COURIER_NEW
 72
         1
 11
18.98
 21
10.53
 31
0.0
100
AcDbText
 73
         2
  0
TEXT
  5
28B
100
AcDbEntity
  8
PIN_NUMBERS_TOP
100
AcDbText
 10
19.762068
 20
10.307496
 30
0.0
 40
0.508
  1
9
  7
COURIER_NEW
 72
         1
 11
19.98
 21
10.53
 31
0.0
100
AcDbText
 73
         2
  0
TEXT
  5
28C
100
AcDbEntity
  8
PIN_NUMBERS_TOP
100
AcDbText
 10
20.544136
 20
10.307496
 30
0.0
 40
0.508
  1
10
  7
COURIER_NEW
 72
         1
 11
20.98
 21
10.53
 31
0.0
100
AcDbText
 73
         2
  0
TEXT
  5
28D
100
AcDbEntity
  8
PIN_NUMBERS_TOP
100
AcDbText
 10
21.544136
 20
10.307496
 30
0.0
 40
0.508
  1
11
  7
COURIER_NEW
 72
         1
 11
21.98
 21
10.53
 31
0.0
100
AcDbText
 73
         2
  0
TEXT
  5
28E
100
AcDbEntity
  8
PIN_NUMBERS_TOP
100
AcDbText
 10
22.544136
 20
10.307496
 30
0.0
 40
0.508
  1
12
  7
COURIER_NEW
 72
         1
 11
22.98
 21
10.53
 31
0.0
100
AcDbText
 73
         2
  0
TEXT
  5
28F
100
AcDbEntity
  8
PIN_NUMBERS_TOP
100
AcDbText
 10
23.544136
 20
10.307496
 30
0.0
 40
0.508
  1
13
  7
COURIER_NEW
 72
         1
 11
23.98
 21
10.53
 31
0.0
100
AcDbText
 73
         2
  0
TEXT
  5
290
100
AcDbEntity
  8
PIN_NUMBERS_TOP
100
AcDbText
 10
24.544136
 20
10.307496
 30
0.0
 40
0.508
  1
14
  7
COURIER_NEW
 72
         1
 11
24.98
 21
10.53
 31
0.0
100
AcDbText
 73
         2
  0
TEXT
  5
291
100
AcDbEntity
  8
PIN_NUMBERS_TOP
100
AcDbText
 10
25.544136
 20
10.307496
 30
0.0
 40
0.508
  1
15
  7
COURIER_NEW
 72
         1
 11
25.98
 21
10.53
 31
0.0
100
AcDbText
 73
         2
  0
TEXT
  5
292
100
AcDbEntity
  8
PIN_NUMBERS_TOP
100
AcDbText
 10
26.544136
 20
10.307496
 30
0.0
 40
0.508
  1
16
  7
COURIER_NEW
 72
         1
 11
26.98
 21
10.53
 31
0.0
100
AcDbText
 73
         2
  0
TEXT
  5
293
100
AcDbEntity
  8
PIN_NUMBERS_TOP
100
AcDbText
 10
10.044136
 20
21.807496
 30
0.0
 40
0.508
  1
44
  7
COURIER_NEW
 72
         1
 11
10.48
 21
22.03
 31
0.0
100
AcDbText
 73
         2
  0
TEXT
  5
294
100
AcDbEntity
  8
PIN_NUMBERS_TOP
100
AcDbText
 10
10.044136
 20
20.807496
 30
0.0
 40
0.508
  1
45
  7
COURIER_NEW
 72
         1
 11
10.48
 21
21.03
 31
0.0
100
AcDbText
 73
         2
  0
TEXT
  5
295
100
AcDbEntity
  8
PIN_NUMBERS_TOP
100
AcDbText
 10
10.044136
 20
19.807496
 30
0.0
 40
0.508
  1
46
  7
COURIER_NEW
 72
         1
 11
10.48
 21
20.03
 31
0.0
100
AcDbText
 73
         2
  0
TEXT
  5
296
100
AcDbEntity
  8
PIN_NUMBERS_TOP
100
AcDbText
 10
10.044136
 20
18.807496
 30
0.0
 40
0.508
  1
47
  7
COURIER_NEW
 72
         1
 11
10.48
 21
19.03
 31
0.0
100
AcDbText
 73
         2
  0
TEXT
  5
297
100
AcDbEntity
  8
PIN_NUMBERS_TOP
100
AcDbText
 10
10.044136
 20
16.807496
 30
0.0
 40
0.508
  1
48
  7
COURIER_NEW
 72
         1
 11
10.48
 21
17.03
 31
0.0
100
AcDbText
 73
         2
  0
TEXT
  5
298
100
AcDbEntity
  8
PIN_NUMBERS_TOP
100
AcDbText
 10
10.044136
 20
14.807496
 30
0.0
 40
0.508
  1
49
  7
COURIER_NEW
 72
         1
 11
10.48
 21
15.03
 31
0.0
100
AcDbText
 73
         2
  0
TEXT
  5
299
100
AcDbEntity
  8
PIN_NUMBERS_TOP
100
AcDbText
 10
10.044136
 20
13.807496
 30
0.0
 40
0.508
  1
50
  7
COURIER_NEW
 72
         1
 11
10.48
 21
14.03
 31
0.0
100
AcDbText
 73
         2
  0
TEXT
  5
29A
100
AcDbEntity
  8
PIN_NUMBERS_TOP
100
AcDbText
 10
10.044136
 20
12.807496
 30
0.0
 40
0.508
  1
51
  7
COURIER_NEW
 72
         1
 11
10.48
 21
13.03
 31
0.0
100
AcDbText
 73
         2
  0
TEXT
  5
29B
100
AcDbEntity
  8
PIN_NUMBERS_TOP
100
AcDbText
 10
10.044136
 20
11.807496
 30
0.0
 40
0.508
  1
52
  7
COURIER_NEW
 72
         1
 11
10.48
 21
12.03
 31
0.0
100
AcDbText
 73
         2
  0
TEXT
  5
29C
100
AcDbEntity
  8
PIN_NUMBERS_TOP
100
AcDbText
 10
16.844136
 20
15.157496
 30
0.0
 40
0.508
  1
53
  7
COURIER_NEW
 72
         1
 11
17.28
 21
15.38
 31
0.0
100
AcDbText
 73
         2
  0
TEXT
  5
29D
100
AcDbEntity
  8
PIN_NUMBERS_TOP
100
AcDbText
 10
21.244136
 20
15.157496
 30
0.0
 40
0.508
  1
53
  7
COURIER_NEW
 72
         1
 11
21.68
 21
15.38
 31
0.0
100
AcDbText
 73
         2
  0
TEXT
  5
29E
100
AcDbEntity
  8
PIN_NUMBERS_TOP
100
AcDbText
 10
21.244136
 20
18.457496
 30
0.0
 40
0.508
  1
53
  7
COURIER_NEW
 72
         1
 11
21.68
 21
18.68
 31
0.0
100
AcDbText
 73
         2
  0
TEXT
  5
29F
100
AcDbEntity
  8
PIN_NUMBERS_TOP
100
AcDbText
 10
16.844136
 20
18.457496
 30
0.0
 40
0.508
  1
53
  7
COURIER_NEW
 72
         1
 11
17.28
 21
18.68
 31
0.0
100
AcDbText
 73
         2
  0
TEXT
  5
2A0
100
AcDbEntity
  8
PIN_NUMBERS_TOP
100
AcDbText
 10
15.082068
 20
7.477496
 30
0.0
 40
0.508
  1
2
  7
COURIER_NEW
 72
         1
 11
15.3
 21
7.7
 31
0.0
100
AcDbText
 73
         2
  0
TEXT
  5
2A1
100
AcDbEntity
  8
PIN_NUMBERS_TOP
100
AcDbText
 10
15.082068
 20
8.277496
 30
0.0
 40
0.508
  1
1
  7
COURIER_NEW
 72
         1
 11
15.3
 21
8.5
 31
0.0
100
AcDbText
 73
         2
  0
TEXT
  5
2A2
100
AcDbEntity
  8
PIN_NUMBERS_TOP
100
AcDbText
 10
7.262068
 20
3.937496
 30
0.0
 40
0.508
  1
1
  7
COURIER_NEW
 72
         1
 11
7.48
 21
4.16
 31
0.0
100
AcDbText
 73
         2
  0
TEXT
  5
2A3
100
AcDbEntity
  8
PIN_NUMBERS_TOP
100
AcDbText
 10
7.262068
 20
1.937496
 30
0.0
 40
0.508
  1
2
  7
COURIER_NEW
 72
         1
 11
7.48
 21
2.16
 31
0.0
100
AcDbText
 73
         2
  0
TEXT
  5
2A4
100
AcDbEntity
  8
PIN_NUMBERS_TOP
100
AcDbText
 10
9.262068
 20
3.937496
 30
0.0
 40
0.508
  1
3
  7
COURIER_NEW
 72
         1
 11
9.48
 21
4.16
 31
0.0
100
AcDbText
 73
         2
  0
TEXT
  5
2A5
100
AcDbEntity
  8
PIN_NUMBERS_TOP
100
AcDbText
 10
9.262068
 20
1.937496
 30
0.0
 40
0.508
  1
4
  7
COURIER_NEW
 72
         1
 11
9.48
 21
2.16
 31
0.0
100
AcDbText
 73
         2
  0
TEXT
  5
2A6
100
AcDbEntity
  8
PIN_NUMBERS_TOP
100
AcDbText
 10
11.262068
 20
3.937496
 30
0.0
 40
0.508
  1
5
  7
COURIER_NEW
 72
         1
 11
11.48
 21
4.16
 31
0.0
100
AcDbText
 73
         2
  0
TEXT
  5
2A7
100
AcDbEntity
  8
PIN_NUMBERS_TOP
100
AcDbText
 10
11.262068
 20
1.937496
 30
0.0
 40
0.508
  1
6
  7
COURIER_NEW
 72
         1
 11
11.48
 21
2.16
 31
0.0
100
AcDbText
 73
         2
  0
TEXT
  5
2A8
100
AcDbEntity
  8
PIN_NUMBERS_TOP
100
AcDbText
 10
13.262068
 20
3.937496
 30
0.0
 40
0.508
  1
7
  7
COURIER_NEW
 72
         1
 11
13.48
 21
4.16
 31
0.0
100
AcDbText
 73
         2
  0
TEXT
  5
2A9
100
AcDbEntity
  8
PIN_NUMBERS_TOP
100
AcDbText
 10
13.262068
 20
1.937496
 30
0.0
 40
0.508
  1
8
  7
COURIER_NEW
 72
         1
 11
13.48
 21
2.16
 31
0.0
100
AcDbText
 73
         2
  0
TEXT
  5
2AA
100
AcDbEntity
  8
PIN_NUMBERS_TOP
100
AcDbText
 10
15.262068
 20
3.937496
 30
0.0
 40
0.508
  1
9
  7
COURIER_NEW
 72
         1
 11
15.48
 21
4.16
 31
0.0
100
AcDbText
 73
         2
  0
TEXT
  5
2AB
100
AcDbEntity
  8
PIN_NUMBERS_TOP
100
AcDbText
 10
15.044136
 20
1.937496
 30
0.0
 40
0.508
  1
10
  7
COURIER_NEW
 72
         1
 11
15.48
 21
2.16
 31
0.0
100
AcDbText
 73
         2
  0
TEXT
  5
2AC
100
AcDbEntity
  8
PIN_NUMBERS_TOP
100
AcDbText
 10
17.044136
 20
3.937496
 30
0.0
 40
0.508
  1
11
  7
COURIER_NEW
 72
         1
 11
17.48
 21
4.16
 31
0.0
100
AcDbText
 73
         2
  0
TEXT
  5
2AD
100
AcDbEntity
  8
PIN_NUMBERS_TOP
100
AcDbText
 10
17.044136
 20
1.937496
 30
0.0
 40
0.508
  1
12
  7
COURIER_NEW
 72
         1
 11
17.48
 21
2.16
 31
0.0
100
AcDbText
 73
         2
  0
TEXT
  5
2AE
100
AcDbEntity
  8
PIN_NUMBERS_TOP
100
AcDbText
 10
19.044136
 20
3.937496
 30
0.0
 40
0.508
  1
13
  7
COURIER_NEW
 72
         1
 11
19.48
 21
4.16
 31
0.0
100
AcDbText
 73
         2
  0
TEXT
  5
2AF
100
AcDbEntity
  8
PIN_NUMBERS_TOP
100
AcDbText
 10
19.044136
 20
1.937496
 30
0.0
 40
0.508
  1
14
  7
COURIER_NEW
 72
         1
 11
19.48
 21
2.16
 31
0.0
100
AcDbText
 73
         2
  0
TEXT
  5
2B0
100
AcDbEntity
  8
PIN_NUMBERS_TOP
100
AcDbText
 10
21.044136
 20
3.937496
 30
0.0
 40
0.508
  1
15
  7
COURIER_NEW
 72
         1
 11
21.48
 21
4.16
 31
0.0
100
AcDbText
 73
         2
  0
TEXT
  5
2B1
100
AcDbEntity
  8
PIN_NUMBERS_TOP
100
AcDbText
 10
21.044136
 20
1.937496
 30
0.0
 40
0.508
  1
16
  7
COURIER_NEW
 72
         1
 11
21.48
 21
2.16
 31
0.0
100
AcDbText
 73
         2
  0
TEXT
  5
2B2
100
AcDbEntity
  8
PIN_NUMBERS_TOP
100
AcDbText
 10
23.044136
 20
3.937496
 30
0.0
 40
0.508
  1
17
  7
COURIER_NEW
 72
         1
 11
23.48
 21
4.16
 31
0.0
100
AcDbText
 73
         2
  0
TEXT
  5
2B3
100
AcDbEntity
  8
PIN_NUMBERS_TOP
100
AcDbText
 10
23.044136
 20
1.937496
 30
0.0
 40
0.508
  1
18
  7
COURIER_NEW
 72
         1
 11
23.48
 21
2.16
 31
0.0
100
AcDbText
 73
         2
  0
TEXT
  5
2B4
100
AcDbEntity
  8
PIN_NUMBERS_TOP
100
AcDbText
 10
25.044136
 20
3.937496
 30
0.0
 40
0.508
  1
19
  7
COURIER_NEW
 72
         1
 11
25.48
 21
4.16
 31
0.0
100
AcDbText
 73
         2
  0
TEXT
  5
2B5
100
AcDbEntity
  8
PIN_NUMBERS_TOP
100
AcDbText
 10
25.044136
 20
1.937496
 30
0.0
 40
0.508
  1
20
  7
COURIER_NEW
 72
         1
 11
25.48
 21
2.16
 31
0.0
100
AcDbText
 73
         2
  0
TEXT
  5
2B6
100
AcDbEntity
  8
PIN_NUMBERS_TOP
100
AcDbText
 10
27.044136
 20
3.937496
 30
0.0
 40
0.508
  1
21
  7
COURIER_NEW
 72
         1
 11
27.48
 21
4.16
 31
0.0
100
AcDbText
 73
         2
  0
TEXT
  5
2B7
100
AcDbEntity
  8
PIN_NUMBERS_TOP
100
AcDbText
 10
27.044136
 20
1.937496
 30
0.0
 40
0.508
  1
22
  7
COURIER_NEW
 72
         1
 11
27.48
 21
2.16
 31
0.0
100
AcDbText
 73
         2
  0
TEXT
  5
2B8
100
AcDbEntity
  8
PIN_NUMBERS_TOP
100
AcDbText
 10
29.044136
 20
3.937496
 30
0.0
 40
0.508
  1
23
  7
COURIER_NEW
 72
         1
 11
29.48
 21
4.16
 31
0.0
100
AcDbText
 73
         2
  0
TEXT
  5
2B9
100
AcDbEntity
  8
PIN_NUMBERS_TOP
100
AcDbText
 10
29.044136
 20
1.937496
 30
0.0
 40
0.508
  1
24
  7
COURIER_NEW
 72
         1
 11
29.48
 21
2.16
 31
0.0
100
AcDbText
 73
         2
  0
TEXT
  5
2BA
100
AcDbEntity
  8
PIN_NUMBERS_TOP
100
AcDbText
 10
31.044136
 20
3.937496
 30
0.0
 40
0.508
  1
25
  7
COURIER_NEW
 72
         1
 11
31.48
 21
4.16
 31
0.0
100
AcDbText
 73
         2
  0
TEXT
  5
2BB
100
AcDbEntity
  8
PIN_NUMBERS_TOP
100
AcDbText
 10
31.044136
 20
1.937496
 30
0.0
 40
0.508
  1
26
  7
COURIER_NEW
 72
         1
 11
31.48
 21
2.16
 31
0.0
100
AcDbText
 73
         2
  0
TEXT
  5
2BC
100
AcDbEntity
  8
PIN_NUMBERS_TOP
100
AcDbText
 10
33.044136
 20
3.937496
 30
0.0
 40
0.508
  1
27
  7
COURIER_NEW
 72
         1
 11
33.48
 21
4.16
 31
0.0
100
AcDbText
 73
         2
  0
TEXT
  5
2BD
100
AcDbEntity
  8
PIN_NUMBERS_TOP
100
AcDbText
 10
33.044136
 20
1.937496
 30
0.0
 40
0.508
  1
28
  7
COURIER_NEW
 72
         1
 11
33.48
 21
2.16
 31
0.0
100
AcDbText
 73
         2
  0
TEXT
  5
2BE
100
AcDbEntity
  8
PIN_NUMBERS_TOP
100
AcDbText
 10
35.044136
 20
3.937496
 30
0.0
 40
0.508
  1
29
  7
COURIER_NEW
 72
         1
 11
35.48
 21
4.16
 31
0.0
100
AcDbText
 73
         2
  0
TEXT
  5
2BF
100
AcDbEntity
  8
PIN_NUMBERS_TOP
100
AcDbText
 10
35.044136
 20
1.937496
 30
0.0
 40
0.508
  1
30
  7
COURIER_NEW
 72
         1
 11
35.48
 21
2.16
 31
0.0
100
AcDbText
 73
         2
  0
TEXT
  5
2C0
100
AcDbEntity
  8
PIN_NUMBERS_TOP
100
AcDbText
 10
37.044136
 20
3.937496
 30
0.0
 40
0.508
  1
31
  7
COURIER_NEW
 72
         1
 11
37.48
 21
4.16
 31
0.0
100
AcDbText
 73
         2
  0
TEXT
  5
2C1
100
AcDbEntity
  8
PIN_NUMBERS_TOP
100
AcDbText
 10
37.044136
 20
1.937496
 30
0.0
 40
0.508
  1
32
  7
COURIER_NEW
 72
         1
 11
37.48
 21
2.16
 31
0.0
100
AcDbText
 73
         2
  0
TEXT
  5
2C2
100
AcDbEntity
  8
PIN_NUMBERS_TOP
100
AcDbText
 10
39.044136
 20
3.937496
 30
0.0
 40
0.508
  1
33
  7
COURIER_NEW
 72
         1
 11
39.48
 21
4.16
 31
0.0
100
AcDbText
 73
         2
  0
TEXT
  5
2C3
100
AcDbEntity
  8
PIN_NUMBERS_TOP
100
AcDbText
 10
39.044136
 20
1.937496
 30
0.0
 40
0.508
  1
34
  7
COURIER_NEW
 72
         1
 11
39.48
 21
2.16
 31
0.0
100
AcDbText
 73
         2
  0
TEXT
  5
2C4
100
AcDbEntity
  8
PIN_NUMBERS_TOP
100
AcDbText
 10
41.044136
 20
3.937496
 30
0.0
 40
0.508
  1
35
  7
COURIER_NEW
 72
         1
 11
41.48
 21
4.16
 31
0.0
100
AcDbText
 73
         2
  0
TEXT
  5
2C5
100
AcDbEntity
  8
PIN_NUMBERS_TOP
100
AcDbText
 10
41.044136
 20
1.937496
 30
0.0
 40
0.508
  1
36
  7
COURIER_NEW
 72
         1
 11
41.48
 21
2.16
 31
0.0
100
AcDbText
 73
         2
  0
TEXT
  5
2C6
100
AcDbEntity
  8
PIN_NUMBERS_TOP
100
AcDbText
 10
43.044136
 20
3.937496
 30
0.0
 40
0.508
  1
37
  7
COURIER_NEW
 72
         1
 11
43.48
 21
4.16
 31
0.0
100
AcDbText
 73
         2
  0
TEXT
  5
2C7
100
AcDbEntity
  8
PIN_NUMBERS_TOP
100
AcDbText
 10
43.044136
 20
1.937496
 30
0.0
 40
0.508
  1
38
  7
COURIER_NEW
 72
         1
 11
43.48
 21
2.16
 31
0.0
100
AcDbText
 73
         2
  0
TEXT
  5
2C8
100
AcDbEntity
  8
PIN_NUMBERS_TOP
100
AcDbText
 10
45.044136
 20
3.937496
 30
0.0
 40
0.508
  1
39
  7
COURIER_NEW
 72
         1
 11
45.48
 21
4.16
 31
0.0
100
AcDbText
 73
         2
  0
TEXT
  5
2C9
100
AcDbEntity
  8
PIN_NUMBERS_TOP
100
AcDbText
 10
45.044136
 20
1.937496
 30
0.0
 40
0.508
  1
40
  7
COURIER_NEW
 72
         1
 11
45.48
 21
2.16
 31
0.0
100
AcDbText
 73
         2
  0
TEXT
  5
2CA
100
AcDbEntity
  8
PIN_NUMBERS_TOP
100
AcDbText
 10
47.044136
 20
3.937496
 30
0.0
 40
0.508
  1
41
  7
COURIER_NEW
 72
         1
 11
47.48
 21
4.16
 31
0.0
100
AcDbText
 73
         2
  0
TEXT
  5
2CB
100
AcDbEntity
  8
PIN_NUMBERS_TOP
100
AcDbText
 10
47.044136
 20
1.937496
 30
0.0
 40
0.508
  1
42
  7
COURIER_NEW
 72
         1
 11
47.48
 21
2.16
 31
0.0
100
AcDbText
 73
         2
  0
TEXT
  5
2CC
100
AcDbEntity
  8
PIN_NUMBERS_TOP
100
AcDbText
 10
49.044136
 20
3.937496
 30
0.0
 40
0.508
  1
43
  7
COURIER_NEW
 72
         1
 11
49.48
 21
4.16
 31
0.0
100
AcDbText
 73
         2
  0
TEXT
  5
2CD
100
AcDbEntity
  8
PIN_NUMBERS_TOP
100
AcDbText
 10
49.044136
 20
1.937496
 30
0.0
 40
0.508
  1
44
  7
COURIER_NEW
 72
         1
 11
49.48
 21
2.16
 31
0.0
100
AcDbText
 73
         2
  0
TEXT
  5
2CE
100
AcDbEntity
  8
PIN_NUMBERS_TOP
100
AcDbText
 10
51.044136
 20
3.937496
 30
0.0
 40
0.508
  1
45
  7
COURIER_NEW
 72
         1
 11
51.48
 21
4.16
 31
0.0
100
AcDbText
 73
         2
  0
TEXT
  5
2CF
100
AcDbEntity
  8
PIN_NUMBERS_TOP
100
AcDbText
 10
51.044136
 20
1.937496
 30
0.0
 40
0.508
  1
46
  7
COURIER_NEW
 72
         1
 11
51.48
 21
2.16
 31
0.0
100
AcDbText
 73
         2
  0
TEXT
  5
2D0
100
AcDbEntity
  8
PIN_NUMBERS_TOP
100
AcDbText
 10
53.044136
 20
3.937496
 30
0.0
 40
0.508
  1
47
  7
COURIER_NEW
 72
         1
 11
53.48
 21
4.16
 31
0.0
100
AcDbText
 73
         2
  0
TEXT
  5
2D1
100
AcDbEntity
  8
PIN_NUMBERS_TOP
100
AcDbText
 10
53.044136
 20
1.937496
 30
0.0
 40
0.508
  1
48
  7
COURIER_NEW
 72
         1
 11
53.48
 21
2.16
 31
0.0
100
AcDbText
 73
         2
  0
TEXT
  5
2D2
100
AcDbEntity
  8
PIN_NUMBERS_TOP
100
AcDbText
 10
55.044136
 20
3.937496
 30
0.0
 40
0.508
  1
49
  7
COURIER_NEW
 72
         1
 11
55.48
 21
4.16
 31
0.0
100
AcDbText
 73
         2
  0
TEXT
  5
2D3
100
AcDbEntity
  8
PIN_NUMBERS_TOP
100
AcDbText
 10
55.044136
 20
1.937496
 30
0.0
 40
0.508
  1
50
  7
COURIER_NEW
 72
         1
 11
55.48
 21
2.16
 31
0.0
100
AcDbText
 73
         2
  0
TEXT
  5
2D4
100
AcDbEntity
  8
PIN_NUMBERS_TOP
100
AcDbText
 10
57.044136
 20
3.937496
 30
0.0
 40
0.508
  1
51
  7
COURIER_NEW
 72
         1
 11
57.48
 21
4.16
 31
0.0
100
AcDbText
 73
         2
  0
TEXT
  5
2D5
100
AcDbEntity
  8
PIN_NUMBERS_TOP
100
AcDbText
 10
57.044136
 20
1.937496
 30
0.0
 40
0.508
  1
52
  7
COURIER_NEW
 72
         1
 11
57.48
 21
2.16
 31
0.0
100
AcDbText
 73
         2
  0
TEXT
  5
2D6
100
AcDbEntity
  8
PIN_NUMBERS_TOP
100
AcDbText
 10
59.044136
 20
3.937496
 30
0.0
 40
0.508
  1
53
  7
COURIER_NEW
 72
         1
 11
59.48
 21
4.16
 31
0.0
100
AcDbText
 73
         2
  0
TEXT
  5
2D7
100
AcDbEntity
  8
PIN_NUMBERS_TOP
100
AcDbText
 10
59.044136
 20
1.937496
 30
0.0
 40
0.508
  1
54
  7
COURIER_NEW
 72
         1
 11
59.48
 21
2.16
 31
0.0
100
AcDbText
 73
         2
  0
TEXT
  5
2D8
100
AcDbEntity
  8
PIN_NUMBERS_TOP
100
AcDbText
 10
61.044136
 20
3.937496
 30
0.0
 40
0.508
  1
55
  7
COURIER_NEW
 72
         1
 11
61.48
 21
4.16
 31
0.0
100
AcDbText
 73
         2
  0
TEXT
  5
2D9
100
AcDbEntity
  8
PIN_NUMBERS_TOP
100
AcDbText
 10
61.044136
 20
1.937496
 30
0.0
 40
0.508
  1
56
  7
COURIER_NEW
 72
         1
 11
61.48
 21
2.16
 31
0.0
100
AcDbText
 73
         2
  0
TEXT
  5
2DA
100
AcDbEntity
  8
PIN_NUMBERS_TOP
100
AcDbText
 10
63.044136
 20
3.937496
 30
0.0
 40
0.508
  1
57
  7
COURIER_NEW
 72
         1
 11
63.48
 21
4.16
 31
0.0
100
AcDbText
 73
         2
  0
TEXT
  5
2DB
100
AcDbEntity
  8
PIN_NUMBERS_TOP
100
AcDbText
 10
63.044136
 20
1.937496
 30
0.0
 40
0.508
  1
58
  7
COURIER_NEW
 72
         1
 11
63.48
 21
2.16
 31
0.0
100
AcDbText
 73
         2
  0
TEXT
  5
2DC
100
AcDbEntity
  8
PIN_NUMBERS_TOP
100
AcDbText
 10
65.044136
 20
3.937496
 30
0.0
 40
0.508
  1
59
  7
COURIER_NEW
 72
         1
 11
65.48
 21
4.16
 31
0.0
100
AcDbText
 73
         2
  0
TEXT
  5
2DD
100
AcDbEntity
  8
PIN_NUMBERS_TOP
100
AcDbText
 10
65.044136
 20
1.937496
 30
0.0
 40
0.508
  1
60
  7
COURIER_NEW
 72
         1
 11
65.48
 21
2.16
 31
0.0
100
AcDbText
 73
         2
  0
LWPOLYLINE
  5
2DE
100
AcDbEntity
  8
SILKSCREEN_OUTLINES_BTM
100
AcDbPolyline
 90
        5
 70
         1
 43
0.15
 10
66.416
 20
5.26
 10
66.416
 20
1.06
 10
6.414
 20
1.06
 10
6.414
 20
4.06
 10
7.614
 20
5.26
  0
LWPOLYLINE
  5
2DF
100
AcDbEntity
  8
SILKSCREEN_OUTLINES_TOP
100
AcDbPolyline
 90
        4
 70
         0
 43
0.2
 10
22.9
 20
7.09843
 10
22.5
 20
7.09843
 10
22.5
 20
8.29843
 10
22.9
 20
8.29843
  0
LWPOLYLINE
  5
2E0
100
AcDbEntity
  8
SILKSCREEN_OUTLINES_TOP
100
AcDbPolyline
 90
        4
 70
         0
 43
0.25
 10
22.69843
 20
9.1
 10
22.49843
 20
9.1
 10
22.49843
 20
8.7
 10
22.69843
 20
8.7
  0
LWPOLYLINE
  5
2E1
100
AcDbEntity
  8
SILKSCREEN_OUTLINES_TOP
100
AcDbPolyline
 90
        4
 70
         0
 43
0.2
 10
10.7
 20
8.09843
 10
11.1
 20
8.09843
 10
11.1
 20
6.89843
 10
10.7
 20
6.89843
  0
LWPOLYLINE
  5
2E2
100
AcDbEntity
  8
SILKSCREEN_OUTLINES_TOP
100
AcDbPolyline
 90
        4
 70
         0
 43
0.25
 10
11.30157
 20
8.5
 10
11.50157
 20
8.5
 10
11.50157
 20
8.9
 10
11.30157
 20
8.9
  0
LWPOLYLINE
  5
2E3
100
AcDbEntity
  8
SILKSCREEN_OUTLINES_TOP
100
AcDbPolyline
 90
        4
 70
         0
 43
0.25
 10
34.20157
 20
13.0
 10
34.20157
 20
12.8
 10
34.60157
 20
12.8
 10
34.60157
 20
13.0
  0
LWPOLYLINE
  5
2E4
100
AcDbEntity
  8
SILKSCREEN_OUTLINES_TOP
100
AcDbPolyline
 90
        4
 70
         0
 43
0.25
 10
41.75
 20
18.95157
 10
41.55
 20
18.95157
 10
41.55
 20
18.55157
 10
41.75
 20
18.55157
  0
LWPOLYLINE
  5
2E5
100
AcDbEntity
  8
SILKSCREEN_OUTLINES_TOP
100
AcDbPolyline
 90
        4
 70
         0
 43
0.25
 10
32.99843
 20
23.2
 10
32.99843
 20
23.0
 10
33.39843
 20
23.0
 10
33.39843
 20
23.2
  0
LWPOLYLINE
  5
2E6
100
AcDbEntity
  8
SILKSCREEN_OUTLINES_TOP
100
AcDbPolyline
 90
        4
 70
         0
 43
0.25
 10
32.99843
 20
21.6
 10
32.99843
 20
21.4
 10
33.39843
 20
21.4
 10
33.39843
 20
21.6
  0
LWPOLYLINE
  5
2E7
100
AcDbEntity
  8
SILKSCREEN_OUTLINES_TOP
100
AcDbPolyline
 90
        4
 70
         0
 43
0.25
 10
42.4
 20
7.8
 10
42.6
 20
7.8
 10
42.6
 20
8.2
 10
42.4
 20
8.2
  0
LWPOLYLINE
  5
2E8
100
AcDbEntity
  8
SILKSCREEN_OUTLINES_TOP
100
AcDbPolyline
 90
        4
 70
         0
 43
0.25
 10
3.1
 20
14.2
 10
3.1
 20
14.0
 10
3.5
 20
14.0
 10
3.5
 20
14.2
  0
LWPOLYLINE
  5
2E9
100
AcDbEntity
  8
SILKSCREEN_OUTLINES_TOP
100
AcDbPolyline
 90
        4
 70
         0
 43
0.25
 10
48.552355
 20
23.072645
 10
48.552355
 20
22.872645
 10
48.952355
 20
22.872645
 10
48.952355
 20
23.072645
  0
LWPOLYLINE
  5
2EA
100
AcDbEntity
  8
SILKSCREEN_OUTLINES_TOP
100
AcDbPolyline
 90
        4
 70
         0
 43
0.25
 10
50.372645
 20
15.622645
 10
50.172645
 20
15.622645
 10
50.172645
 20
15.222645
 10
50.372645
 20
15.222645
  0
LWPOLYLINE
  5
2EB
100
AcDbEntity
  8
SILKSCREEN_OUTLINES_TOP
100
AcDbPolyline
 90
        4
 70
         0
 43
0.25
 10
33.54843
 20
16.85
 10
33.54843
 20
17.05
 10
33.14843
 20
17.05
 10
33.14843
 20
16.85
  0
LWPOLYLINE
  5
2EC
100
AcDbEntity
  8
SILKSCREEN_OUTLINES_TOP
100
AcDbPolyline
 90
        2
 70
         1
 43
0.15
 10
43.28
 20
9.76
 42
-1.0
 10
49.28
 20
9.76
 42
-1.0
  0
LWPOLYLINE
  5
2ED
100
AcDbEntity
  8
SILKSCREEN_OUTLINES_TOP
100
AcDbPolyline
 90
        2
 70
         1
 43
0.15
 10
0.28
 20
9.76
 42
-1.0
 10
6.28
 20
9.76
 42
-1.0
  0
LWPOLYLINE
  5
2EE
100
AcDbEntity
  8
SILKSCREEN_OUTLINES_TOP
100
AcDbPolyline
 90
        2
 70
         1
 43
0.2
 10
51.607355
 20
14.075785
 42
-1.0
 10
52.107355
 20
14.075785
 42
-1.0
  0
LWPOLYLINE
  5
2EF
100
AcDbEntity
  8
SILKSCREEN_OUTLINES_TOP
100
AcDbPolyline
 90
        4
 70
         1
 43
0.15
 10
51.539855
 20
13.758285
 10
51.539855
 20
14.393285
 10
54.714855
 20
14.393285
 10
54.714855
 20
13.758285
  0
LWPOLYLINE
  5
2F0
100
AcDbEntity
  8
SILKSCREEN_OUTLINES_TOP
100
AcDbPolyline
 90
        5
 70
         1
 43
0.2
 10
49.368285
 20
21.480785
 10
55.083285
 20
21.480785
 10
55.083285
 20
17.670785
 10
50.003285
 20
17.670785
 10
49.368285
 20
18.305785
  0
LWPOLYLINE
  5
2F1
100
AcDbEntity
  8
SILKSCREEN_OUTLINES_TOP
100
AcDbPolyline
 90
        5
 70
         1
 43
0.2
 10
40.54581
 20
11.20593
 10
40.54581
 20
18.35593
 10
37.29581
 20
18.35593
 10
36.64581
 20
17.70593
 10
36.64581
 20
11.20593
  0
LWPOLYLINE
  5
2F2
100
AcDbEntity
  8
SILKSCREEN_OUTLINES_TOP
100
AcDbPolyline
 90
        4
 70
         1
 43
0.15
 10
30.82343
 20
11.0
 10
30.82343
 20
14.6
 10
33.22343
 20
14.6
 10
33.22343
 20
11.0
  0
LWPOLYLINE
  5
2F3
100
AcDbEntity
  8
SILKSCREEN_OUTLINES_TOP
100
AcDbPolyline
 90
        3
 70
         1
 10
33.22343
 20
11.0
 10
32.598431
 20
11.0
 10
33.22343
 20
11.499999
  0
HATCH
  5
2F4
100
AcDbEntity
  8
SILKSCREEN_OUTLINES_TOP
100
AcDbHatch
 10
0.0
 20
0.0
 30
0.0
210
0.0
220
0.0
230
1.0
  2
SOLID
 70
         1
 71
         1
 91
        1
 92
        2
 72
         0
 73
         1
 93
        3
 10
33.22343
 20
11.0
 10
32.598430999999998
 20
11.0
 10
33.22343
 20
11.499999000000001
 97
        1
330
2F3
 75
         0
 76
         1
 98
        1
 10
0.0
 20
0.0
  0
CIRCLE
  5
2F5
100
AcDbEntity
  8
SILKSCREEN_OUTLINES_TOP
100
AcDbCircle
 10
32.42343
 20
11.4
 30
0.0
 40
0.2
  0
HATCH
  5
2F6
100
AcDbEntity
  8
SILKSCREEN_OUTLINES_TOP
100
AcDbHatch
 10
0.0
 20
0.0
 30
0.0
210
0.0
220
0.0
230
1.0
  2
SOLID
 70
         1
 71
         1
 91
        1
 92
        1
 93
        1
 72
         2
 10
32.423430000000003
 20
11.4
 40
0.2
 50
0.0
 51
360.0
 73
         1
 97
        1
330
2F5
 75
         0
 76
         1
 98
        1
 10
0.0
 20
0.0
  0
LWPOLYLINE
  5
2F7
100
AcDbEntity
  8
SILKSCREEN_OUTLINES_TOP
100
AcDbPolyline
 90
        4
 70
         0
 43
0.25
 10
31.1
 20
18.0
 10
30.9
 20
18.0
 10
30.9
 20
17.6
 10
31.1
 20
17.6
  0
LWPOLYLINE
  5
2F8
100
AcDbEntity
  8
SILKSCREEN_OUTLINES_TOP
100
AcDbPolyline
 90
        4
 70
         0
 43
0.25
 10
31.1
 20
16.4
 10
30.9
 20
16.4
 10
30.9
 20
16.0
 10
31.1
 20
16.0
  0
LWPOLYLINE
  5
2F9
100
AcDbEntity
  8
SILKSCREEN_OUTLINES_TOP
100
AcDbPolyline
 90
        4
 70
         0
 43
0.25
 10
31.1
 20
17.2
 10
30.9
 20
17.2
 10
30.9
 20
16.8
 10
31.1
 20
16.8
  0
LWPOLYLINE
  5
2FA
100
AcDbEntity
  8
SILKSCREEN_OUTLINES_TOP
100
AcDbPolyline
 90
        4
 70
         0
 43
0.25
 10
30.9
 20
15.2
 10
31.1
 20
15.2
 10
31.1
 20
15.6
 10
30.9
 20
15.6
  0
LWPOLYLINE
  5
2FB
100
AcDbEntity
  8
SILKSCREEN_OUTLINES_TOP
100
AcDbPolyline
 90
        4
 70
         1
 43
0.1
 10
1.5
 20
16.87657
 10
1.5
 20
23.87657
 10
3.5
 20
23.87657
 10
3.5
 20
16.87657
  0
LWPOLYLINE
  5
2FC
100
AcDbEntity
  8
SILKSCREEN_OUTLINES_TOP
100
AcDbPolyline
 90
        3
 70
         1
 10
3.516
 20
18.59857
 10
1.484
 20
17.58257
 10
3.516
 20
17.58257
  0
HATCH
  5
2FD
100
AcDbEntity
  8
SILKSCREEN_OUTLINES_TOP
100
AcDbHatch
 10
0.0
 20
0.0
 30
0.0
210
0.0
220
0.0
230
1.0
  2
SOLID
 70
         1
 71
         1
 91
        1
 92
        2
 72
         0
 73
         1
 93
        3
 10
3.516
 20
18.598569999999999
 10
1.484
 20
17.58257
 10
3.516
 20
17.58257
 97
        1
330
2FC
 75
         0
 76
         1
 98
        1
 10
0.0
 20
0.0
  0
LWPOLYLINE
  5
2FE
100
AcDbEntity
  8
SILKSCREEN_OUTLINES_TOP
100
AcDbPolyline
 90
        5
 70
         1
 43
0.1
 10
34.64843
 20
20.15
 10
34.44843
 20
20.35
 10
34.44843
 20
23.75
 10
40.04843
 20
23.75
 10
40.04843
 20
20.15
  0
CIRCLE
  5
2FF
100
AcDbEntity
  8
SILKSCREEN_OUTLINES_TOP
100
AcDbCircle
 10
33.99843
 20
20.55
 30
0.0
 40
0.35
  0
HATCH
  5
300
100
AcDbEntity
  8
SILKSCREEN_OUTLINES_TOP
100
AcDbHatch
 10
0.0
 20
0.0
 30
0.0
210
0.0
220
0.0
230
1.0
  2
SOLID
 70
         1
 71
         1
 91
        1
 92
        1
 93
        1
 72
         2
 10
33.998429999999999
 20
20.550000000000001
 40
0.35
 50
0.0
 51
360.0
 73
         1
 97
        1
330
2FF
 75
         0
 76
         1
 98
        1
 10
0.0
 20
0.0
  0
LWPOLYLINE
  5
301
100
AcDbEntity
  8
SILKSCREEN_OUTLINES_TOP
100
AcDbPolyline
 90
        4
 70
         0
 43
0.25
 10
18.0
 20
25.3
 10
18.2
 20
25.3
 10
18.2
 20
25.7
 10
18.0
 20
25.7
  0
LWPOLYLINE
  5
302
100
AcDbEntity
  8
SILKSCREEN_OUTLINES_TOP
100
AcDbPolyline
 90
        4
 70
         0
 43
0.25
 10
15.1
 20
25.3
 10
15.3
 20
25.3
 10
15.3
 20
25.7
 10
15.1
 20
25.7
  0
LWPOLYLINE
  5
303
100
AcDbEntity
  8
SILKSCREEN_OUTLINES_TOP
100
AcDbPolyline
 90
        4
 70
         0
 43
0.25
 10
23.7
 20
25.3
 10
23.9
 20
25.3
 10
23.9
 20
25.7
 10
23.7
 20
25.7
  0
LWPOLYLINE
  5
304
100
AcDbEntity
  8
SILKSCREEN_OUTLINES_TOP
100
AcDbPolyline
 90
        4
 70
         0
 43
0.25
 10
8.6
 20
17.2
 10
8.4
 20
17.2
 10
8.4
 20
16.8
 10
8.6
 20
16.8
  0
LWPOLYLINE
  5
305
100
AcDbEntity
  8
SILKSCREEN_OUTLINES_TOP
100
AcDbPolyline
 90
        4
 70
         0
 43
0.25
 10
6.2
 20
17.2
 10
6.0
 20
17.2
 10
6.0
 20
16.8
 10
6.2
 20
16.8
  0
LWPOLYLINE
  5
306
100
AcDbEntity
  8
SILKSCREEN_OUTLINES_TOP
100
AcDbPolyline
 90
        4
 70
         0
 43
0.25
 10
7.1
 20
17.5
 10
7.1
 20
17.3
 10
7.5
 20
17.3
 10
7.5
 20
17.5
  0
LWPOLYLINE
  5
307
100
AcDbEntity
  8
SILKSCREEN_OUTLINES_TOP
100
AcDbPolyline
 90
        2
 70
         1
 43
0.2
 10
43.95
 20
17.77157
 42
-1.0
 10
44.45
 20
17.77157
 42
-1.0
  0
LWPOLYLINE
  5
308
100
AcDbEntity
  8
SILKSCREEN_OUTLINES_TOP
100
AcDbPolyline
 90
        4
 70
         1
 43
0.15
 10
43.8825
 20
14.91407
 10
43.8825
 20
18.08907
 10
44.5175
 20
18.08907
 10
44.5175
 20
14.91407
  0
LWPOLYLINE
  5
309
100
AcDbEntity
  8
SILKSCREEN_OUTLINES_TOP
100
AcDbPolyline
 90
        4
 70
         0
 43
0.25
 10
44.2
 20
14.40157
 10
44.0
 20
14.40157
 10
44.0
 20
14.00157
 10
44.2
 20
14.00157
  0
LWPOLYLINE
  5
30A
100
AcDbEntity
  8
SILKSCREEN_OUTLINES_TOP
100
AcDbPolyline
 90
        4
 70
         0
 43
0.25
 10
10.1
 20
25.60157
 10
9.9
 20
25.60157
 10
9.9
 20
25.20157
 10
10.1
 20
25.20157
  0
LWPOLYLINE
  5
30B
100
AcDbEntity
  8
SILKSCREEN_OUTLINES_TOP
100
AcDbPolyline
 90
        2
 70
         1
 43
0.15
 10
12.35
 20
8.5
 42
-1.0
 10
13.65
 20
8.5
 42
-1.0
  0
LWPOLYLINE
  5
30C
100
AcDbEntity
  8
SILKSCREEN_OUTLINES_TOP
100
AcDbPolyline
 90
        2
 70
         1
 43
0.15
 10
13.55
 20
7.7
 42
-1.0
 10
14.85
 20
7.7
 42
-1.0
  0
LWPOLYLINE
  5
30D
100
AcDbEntity
  8
SILKSCREEN_OUTLINES_TOP
100
AcDbPolyline
 90
        2
 70
         1
 43
0.15
 10
17.25
 20
8.6
 42
-1.0
 10
18.55
 20
8.6
 42
-1.0
  0
LWPOLYLINE
  5
30E
100
AcDbEntity
  8
SILKSCREEN_OUTLINES_TOP
100
AcDbPolyline
 90
        2
 70
         1
 43
0.15
 10
18.45
 20
7.7
 42
-1.0
 10
19.75
 20
7.7
 42
-1.0
  0
LWPOLYLINE
  5
30F
100
AcDbEntity
  8
SILKSCREEN_OUTLINES_TOP
100
AcDbPolyline
 90
        2
 70
         1
 43
0.15
 10
12.45
 20
25.5
 42
-1.0
 10
13.75
 20
25.5
 42
-1.0
  0
CIRCLE
  5
310
100
AcDbEntity
  8
SILKSCREEN_OUTLINES_TOP
100
AcDbCircle
 10
10.48
 20
10.03
 30
0.0
 40
0.5
  0
HATCH
  5
311
100
AcDbEntity
  8
SILKSCREEN_OUTLINES_TOP
100
AcDbHatch
 10
0.0
 20
0.0
 30
0.0
210
0.0
220
0.0
230
1.0
  2
SOLID
 70
         1
 71
         1
 91
        1
 92
        1
 93
        1
 72
         2
 10
10.48
 20
10.029999999999999
 40
0.5
 50
0.0
 51
360.0
 73
         1
 97
        1
330
310
 75
         0
 76
         1
 98
        1
 10
0.0
 20
0.0
  0
LWPOLYLINE
  5
312
100
AcDbEntity
  8
SILKSCREEN_OUTLINES_TOP
100
AcDbPolyline
 90
        4
 70
         0
 43
0.25
 10
15.5
 20
8.0
 10
15.5
 20
8.2
 10
15.1
 20
8.2
 10
15.1
 20
8.0
  0
ENDSEC
  0
SECTION
  2
OBJECTS
  0
DICTIONARY
  5
19
100
AcDbDictionary
  3
ACAD_GROUP
350
1A
  3
ACAD_MLINESTYLE
350
1B
  0
DICTIONARY
  5
1A
102
{ACAD_REACTORS
330
19
102
}
100
AcDbDictionary
  0
DICTIONARY
  5
1B
102
{ACAD_REACTORS
330
19
102
}
100
AcDbDictionary
  3
STANDARD
350
1C
  0
MLINESTYLE
  5
1C
102
{ACAD_REACTORS
330
1B
102
}
100
AcDbMlineStyle
  2
STANDARD
 70
         0
  3

 62
         0
 51
90.0
 52
90.0
 71
         2
 49
0.5
 62
       256
  6
BYLAYER
 49
-0.5
 62
       256
  6
BYLAYER
  0
DICTIONARY
  5
22
102
{ACAD_REACTORS
330
19
102
}
100
AcDbDictionary
  0
ENDSEC
  0
EOF
