  0
SECTION
  2
HEADER
  9
$ACADVER
  1
AC1014
  9
$ACADMAINTVER
 70
         0
  9
$DWGCODEPAGE
  3
ANSI_1252
  9
$INSBASE
 10
0.0
 20
0.0
 30
0.0
  9
$EXTMIN
 10
0.0
 20
0.0
 30
0.0
  9
$EXTMAX
 10
51.0
 20
27.0
 30
0.0
  9
$LIMMIN
 10
0.0
 20
0.0
  9
$LIMMAX
 10
0.0
 20
0.0
  9
$ORTHOMODE
 70
         0
  9
$REGENMODE
 70
         1
  9
$FILLMODE
 70
         1
  9
$QTEXTMODE
 70
         0
  9
$MIRRTEXT
 70
         1
  9
$DRAGMODE
 70
         2
  9
$LTSCALE
 40
1.0
  9
$OSMODE
 70
         0
  9
$ATTMODE
 70
         1
  9
$TEXTSIZE
 40
0.2
  9
$TRACEWID
 40
0.05
  9
$TEXTSTYLE
  7
STANDARD
  9
$CLAYER
  8
0
  9
$CELTYPE
  6
CONTINUOUS
  9
$CECOLOR
 62
       256
  9
$CELTSCALE
 40
1.0
  9
$DELOBJ
 70
         1
  9
$DISPSILH
 70
         0
  9
$DIMSCALE
 40
1.0
  9
$DIMASZ
 40
0.18
  9
$DIMEXO
 40
0.0625
  9
$DIMDLI
 40
0.38
  9
$DIMRND
 40
0.0
  9
$DIMDLE
 40
0.0
  9
$DIMEXE
 40
0.18
  9
$DIMTP
 40
0.0
  9
$DIMTM
 40
0.0
  9
$DIMTXT
 40
0.18
  9
$DIMCEN
 40
0.09
  9
$DIMTSZ
 40
0.0
  9
$DIMTOL
 70
         0
  9
$DIMLIM
 70
         0
  9
$DIMTIH
 70
         1
  9
$DIMTOH
 70
         1
  9
$DIMSE1
 70
         0
  9
$DIMSE2
 70
         0
  9
$DIMTAD
 70
         0
  9
$DIMZIN
 70
         0
  9
$DIMBLK
  1

  9
$DIMASO
 70
         1
  9
$DIMSHO
 70
         1
  9
$DIMPOST
  1

  9
$DIMAPOST
  1

  9
$DIMALT
 70
         0
  9
$DIMALTD
 70
         2
  9
$DIMALTF
 40
25.4
  9
$DIMLFAC
 40
1.0
  9
$DIMTOFL
 70
         0
  9
$DIMTVP
 40
0.0
  9
$DIMTIX
 70
         0
  9
$DIMSOXD
 70
         0
  9
$DIMSAH
 70
         0
  9
$DIMBLK1
  1

  9
$DIMBLK2
  1

  9
$DIMSTYLE
  2
STANDARD
  9
$DIMCLRD
 70
         0
  9
$DIMCLRE
 70
         0
  9
$DIMCLRT
 70
         0
  9
$DIMTFAC
 40
1.0
  9
$DIMGAP
 40
0.09
  9
$DIMJUST
 70
         0
  9
$DIMSD1
 70
         0
  9
$DIMSD2
 70
         0
  9
$DIMTOLJ
 70
         1
  9
$DIMTZIN
 70
         0
  9
$DIMALTZ
 70
         0
  9
$DIMALTTZ
 70
         0
  9
$DIMFIT
 70
         3
  9
$DIMUPT
 70
         0
  9
$DIMUNIT
 70
         2
  9
$DIMDEC
 70
         4
  9
$DIMTDEC
 70
         4
  9
$DIMALTU
 70
         2
  9
$DIMALTTD
 70
         2
  9
$DIMTXSTY
  7
STANDARD
  9
$DIMAUNIT
 70
         0
  9
$LUNITS
 70
         2
  9
$LUPREC
 70
         4
  9
$SKETCHINC
 40
0.1
  9
$FILLETRAD
 40
0.0
  9
$AUNITS
 70
         0
  9
$AUPREC
 70
         0
  9
$MENU
  1
acad
  9
$ELEVATION
 40
0.0
  9
$PELEVATION
 40
0.0
  9
$THICKNESS
 40
0.0
  9
$LIMCHECK
 70
         0
  9
$BLIPMODE
 70
         1
  9
$CHAMFERA
 40
0.0
  9
$CHAMFERB
 40
0.0
  9
$CHAMFERC
 40
0.0
  9
$CHAMFERD
 40
0.0
  9
$SKPOLY
 70
         0
  9
$TDCREATE
 40
2456981.364594908
  9
$TDUPDATE
 40
0.000000000
  9
$TDINDWG
 40
0.0000000000
  9
$TDUSRTIMER
 40
0.0000000000
  9
$USRTIMER
 70
         1
  9
$ANGBASE
 50
0.0
  9
$ANGDIR
 70
         0
  9
$PDMODE
 70
         0
  9
$PDSIZE
 40
0.0
  9
$PLINEWID
 40
0.0
  9
$COORDS
 70
         0
  9
$SPLFRAME
 70
         0
  9
$SPLINETYPE
 70
         6
  9
$SPLINESEGS
 70
         8
  9
$ATTDIA
 70
         0
  9
$ATTREQ
 70
         1
  9
$HANDLING
 70
         1
  9
$HANDSEED
  5
2B5
  9
$SURFTAB1
 70
         6
  9
$SURFTAB2
 70
         6
  9
$SURFTYPE
 70
         6
  9
$SURFU
 70
         6
  9
$SURFV
 70
         6
  9
$UCSNAME
  2

  9
$UCSORG
 10
0.0
 20
0.0
 30
0.0
  9
$UCSXDIR
 10
1.0
 20
0.0
 30
0.0
  9
$UCSYDIR
 10
0.0
 20
1.0
 30
0.0
  9
$PUCSNAME
  2

  9
$PUCSORG
 10
0.0
 20
0.0
 30
0.0
  9
$PUCSXDIR
 10
1.0
 20
0.0
 30
0.0
  9
$PUCSYDIR
 10
0.0
 20
1.0
 30
0.0
  9
$USERI1
 70
        -3
  9
$USERI2
 70
         0
  9
$USERI3
 70
         0
  9
$USERI4
 70
         0
  9
$USERI5
 70
         0
  9
$USERR1
 40
0.0
  9
$USERR2
 40
0.0
  9
$USERR3
 40
0.0
  9
$USERR4
 40
0.0
  9
$USERR5
 40
0.0
  9
$WORLDVIEW
 70
         1
  9
$SHADEDGE
 70
         3
  9
$SHADEDIF
 70
        70
  9
$TILEMODE
 70
         1
  9
$MAXACTVP
 70
        16
  9
$PINSBASE
 10
0.0
 20
0.0
 30
0.0
  9
$PLIMCHECK
 70
         0
  9
$PEXTMIN
 10
1.0000000000E+20
 20
1.0000000000E+20
 30
1.0000000000E+20
  9
$PEXTMAX
 10
-1.0000000000E+20
 20
-1.0000000000E+20
 30
-1.0000000000E+20
  9
$PLIMMIN
 10
0.0
 20
0.0
  9
$PLIMMAX
 10
12.0
 20
9.0
  9
$UNITMODE
 70
         0
  9
$VISRETAIN
 70
         0
  9
$PLINEGEN
 70
         1
  9
$PSLTSCALE
 70
         0
  9
$TREEDEPTH
 70
      3020
  9
$PICKSTYLE
 70
         1
  9
$CMLSTYLE
  2
STANDARD
  9
$CMLJUST
 70
         0
  9
$CMLSCALE
 40
1.0
  9
$PROXYGRAPHICS
 70
         0
  9
$MEASUREMENT
 70
         0
  0
ENDSEC
  0
SECTION
  2
CLASSES
  0
CLASS
  1
LWPOLYLINE
  2
AcDbPolyline
  3
"AutoCAD"
 90
        0
280
         0
281
         1
  0
CLASS
  1
IMAGE
  2
AcDbRasterImage
  3
ISM
 90
      127
280
         0
281
         1
  0
CLASS
  1
OLE2FRAME
  2
AcDbOle2Frame
  3
""
 90
        0
280
         0
281
         1
  0
CLASS
  1
HATCH
  2
AcDbHatch
  3
"ACAD_SEDONA"
 90
        0
280
         0
281
         1
  0
CLASS
  1
DICTIONARYVAR
  2
AcDbDictionaryVar
  3
"AutoCAD"
 90
        0
280
         0
281
         0
  0
CLASS
  1
RASTERVARIABLES
  2
AcDbRasterVariables
  3
ISM
 90
        0
280
         0
281
         0
  0
CLASS
  1
IMAGEDEF
  2
AcDbRasterImageDef
  3
ISM
 90
        0
280
         0
281
         0
  0
CLASS
  1
IMAGEDEF_REACTOR
  2
AcDbRasterImageDefReactor
  3
ISM
 90
        1
280
         0
281
         0
  0
CLASS
  1
IDBUFFER
  2
AcDbIdBuffer
  3
"Acad"
 90
        0
280
         0
281
         0
  0
CLASS
  1
SPATIAL_FILTER
  2
AcDbSpatialFilter
  3
"Acad"
 90
        0
280
         0
281
         0
  0
CLASS
  1
XRECORD
  2
AcDbXrecord
  3
"<Built In>"
 90
        0
280
         0
281
         0
  0
CLASS
  1
SORTENTSTABLE
  2
AcDbSortentsTable
  3
"AutoCAD"
 90
        0
280
         0
281
         0
  0
CLASS
  1
LAYER_INDEX
  2
AcDbLayerIndex
  3
"Acad"
 90
        0
280
         0
281
         0
  0
CLASS
  1
SPATIAL_INDEX
  2
AcDbSpatialIndex
  3
"Acad"
 90
        0
280
         0
281
         0
  0
CLASS
  1
OBJECT_PTR
  2
CAseDLPNTableRecord
  3
"ASE-LPNTableRecord"
 90
        1
280
         0
281
         0
  0
CLASS
  1
LAYOUT
  2
AcDbLayout
  3
"AutoCAD 2000"
 90
        0
280
         0
281
         0
  0
CLASS
  1
PLOTSETTINGS
  2
AcDbPlotSettings
  3
"AutoCAD 2000"
 90
        0
280
         0
281
         0
  0
CLASS
  1
ACDBDICTIONARYWDFLT
  2
AcDbDictionaryWithDefault
  3
"AutoCAD 2000"
 90
        0
280
         0
281
         0
  0
CLASS
  1
ACDBPLACEHOLDER
  2
AcDbPlaceHolder
  3
"AutoCAD 2000"
 90
        0
280
         0
281
         0
  0
CLASS
  1
VBA_PROJECT
  2
AcDbVbaProject
  3
"acadvba"
 90
        0
280
         0
281
         0
  0
CLASS
  1
WIPEOUT
  2
AcDbWipeout
  3
WipeOut|AutoCAD Express Tool|expresstools@autodesk.com
 90
      127
280
         0
281
         1
  0
CLASS
  1
WIPEOUTVARIABLES
  2
AcDbWipeoutVariables
  3
WipeOut|AutoCAD Express Tool|expresstools@autodesk.com
 90
        0
280
         0
281
         0
  0
CLASS
  1
RTEXT
  2
RText
  3
RText|AutoCAD Express Tool|expresstools@autodesk.com
 90
        0
280
         0
281
         1
  0
CLASS
  1
ARCALIGNEDTEXT
  2
AcDbArcAlignedText
  3
ATEXT|AutoCAD Express Tool|expresstools@autodesk.com
 90
        0
280
         0
281
         1
  0
ENDSEC
  0
SECTION
  2
TABLES
  0
TABLE
  2
VPORT
  5
7
100
AcDbSymbolTable
 70
         1
  0
VPORT
  5
15
100
AcDbSymbolTableRecord
100
AcDbViewportTableRecord
  2
*ACTIVE
 70
         0
 10
0.0
 20
0.0
 11
1.0
 21
1.0
 12
6.591288
 22
4.579184
 13
0.0
 23
0.0
 14
1.0
 24
1.0
 15
0.0
 25
0.0
 16
0.0
 26
0.0
 36
1.0
 17
0.0
 27
0.0
 37
0.0
 40
9.158369
 41
0.688564
 42
50.0
 43
0.0
 44
0.0
 50
0.0
 51
0.0
 71
         0
 72
       100
 73
         1
 74
         1
 75
         0
 76
         0
 77
         0
 78
         0
  0
ENDTAB
  0
TABLE
  2
LTYPE
  5
4
100
AcDbSymbolTable
 70
         3
  0
LTYPE
  5
11
100
AcDbSymbolTableRecord
100
AcDbLinetypeTableRecord
  2
BYBLOCK
 70
        64
  3

 72
        65
 73
         0
 40
0.0
  0
LTYPE
  5
12
100
AcDbSymbolTableRecord
100
AcDbLinetypeTableRecord
  2
BYLAYER
 70
        64
  3

 72
        65
 73
         0
 40
0.0
  0
LTYPE
  5
13
100
AcDbSymbolTableRecord
100
AcDbLinetypeTableRecord
  2
CONTINUOUS
 70
        64
  3
Solid line
 72
        65
 73
         0
 40
0.0
  0
ENDTAB
  0
TABLE
  2
LAYER
  5
2
100
AcDbSymbolTable
 70
        10
  0
LAYER
  5
14
100
AcDbSymbolTableRecord
100
AcDbLayerTableRecord
  2
0
 70
         0
 62
         7
  6
CONTINUOUS
  0
LAYER
  5
24
100
AcDbSymbolTableRecord
100
AcDbLayerTableRecord
  2
ASSEMBLY_OUTLINES_BTM
 70
         0
 62
       191
  6
CONTINUOUS
  0
LAYER
  5
25
100
AcDbSymbolTableRecord
100
AcDbLayerTableRecord
  2
ASSEMBLY_OUTLINES_TOP
 70
         0
 62
       104
  6
CONTINUOUS
  0
LAYER
  5
26
100
AcDbSymbolTableRecord
100
AcDbLayerTableRecord
  2
ASSEMBLY_REF_DES_BTM
 70
         0
 62
       191
  6
CONTINUOUS
  0
LAYER
  5
27
100
AcDbSymbolTableRecord
100
AcDbLayerTableRecord
  2
ASSEMBLY_REF_DES_TOP
 70
         0
 62
       102
  6
CONTINUOUS
  0
LAYER
  5
28
100
AcDbSymbolTableRecord
100
AcDbLayerTableRecord
  2
BOARD_OUTLINE
 70
         0
 62
        10
  6
CONTINUOUS
  0
LAYER
  5
29
100
AcDbSymbolTableRecord
100
AcDbLayerTableRecord
  2
PART_PADS_LAYER_TOP
 70
         0
 62
       150
  6
CONTINUOUS
  0
LAYER
  5
2A
100
AcDbSymbolTableRecord
100
AcDbLayerTableRecord
  2
PART_PADS_SMD_TOP
 70
         0
 62
       150
  6
CONTINUOUS
  0
LAYER
  5
2B
100
AcDbSymbolTableRecord
100
AcDbLayerTableRecord
  2
PIN_NUMBERS_TOP
 70
         0
 62
         8
  6
CONTINUOUS
  0
LAYER
  5
2C
100
AcDbSymbolTableRecord
100
AcDbLayerTableRecord
  2
SILKSCREEN_OUTLINES_TOP
 70
         0
 62
       241
  6
CONTINUOUS
  0
ENDTAB
  0
TABLE
  2
STYLE
  5
3
100
AcDbSymbolTable
 70
         3
  0
STYLE
  5
17
100
AcDbSymbolTableRecord
100
AcDbTextStyleTableRecord
  2
STANDARD
 70
         0
 40
0.0
 41
1.0
 50
0.0
 71
         0
 42
0.0
  3
txt
  4

  0
STYLE
  5
5F
100
AcDbSymbolTableRecord
100
AcDbTextStyleTableRecord
  2
ARIAL
 70
         0
 40
0.0
 41
1.0
 50
0.0
 71
         0
 42
0.0
  3
ARIAL.TTF
  4

  0
STYLE
  5
187
100
AcDbSymbolTableRecord
100
AcDbTextStyleTableRecord
  2
COURIER_NEW
 70
         0
 40
0.0
 41
1.0
 50
0.0
 71
         0
 42
0.0
  3
COUR.TTF
  4

  0
ENDTAB
  0
TABLE
  2
VIEW
  5
5
100
AcDbSymbolTable
 70
         0
  0
ENDTAB
  0
TABLE
  2
UCS
  5
6
100
AcDbSymbolTable
 70
         0
  0
ENDTAB
  0
TABLE
  2
APPID
  5
8
100
AcDbSymbolTable
 70
         1
  0
APPID
  5
16
100
AcDbSymbolTableRecord
100
AcDbRegAppTableRecord
  2
ACAD
 70
         0
  0
ENDTAB
  0
TABLE
  2
DIMSTYLE
  5
9
100
AcDbSymbolTable
 70
         1
  0
DIMSTYLE
105
18
100
AcDbSymbolTableRecord
100
AcDbDimStyleTableRecord
  2
STANDARD
 70
         0
  3

  4

  5

  6

  7

 40
1.0
 41
0.18
 42
0.0625
 43
0.38
 44
0.18
 45
0.0
 46
0.0
 47
0.0
 48
0.0
 71
         0
 72
         0
 73
         1
 74
         1
 75
         0
 76
         0
 77
         0
 78
         0
140
0.18
141
0.09
142
0.0
143
25.4
144
1.0
145
0.0
146
1.0
147
0.09
170
         0
171
         2
172
         0
173
         0
174
         0
175
         0
176
         0
177
         0
178
         0
270
         2
271
         4
272
         4
273
         2
274
         2
275
         0
280
         0
281
         0
282
         0
283
         1
284
         0
285
         0
286
         0
287
         3
288
         0
340
17
  0
ENDTAB
  0
TABLE
  2
BLOCK_RECORD
  5
1
100
AcDbSymbolTable
 70
         0
  0
BLOCK_RECORD
  5
A
100
AcDbSymbolTableRecord
100
AcDbBlockTableRecord
  2
*MODEL_SPACE
  0
BLOCK_RECORD
  5
B
100
AcDbSymbolTableRecord
100
AcDbBlockTableRecord
  2
*PAPER_SPACE
  0
ENDTAB
  0
ENDSEC
  0
SECTION
  2
BLOCKS
  0
BLOCK
  5
D
100
AcDbEntity
  8
0
100
AcDbBlockBegin
  2
*MODEL_SPACE
 70
         0
 10
0.0
 20
0.0
 30
0.0
  3
*MODEL_SPACE
  1

  0
ENDBLK
  5
E
100
AcDbEntity
  8
0
100
AcDbBlockEnd
  0
BLOCK
  5
F
100
AcDbEntity
 67
         1
  8
0
100
AcDbBlockBegin
  2
*PAPER_SPACE
 70
         0
 10
0.0
 20
0.0
 30
0.0
  3
*PAPER_SPACE
  1

  0
ENDBLK
  5
10
100
AcDbEntity
 67
         1
  8
0
100
AcDbBlockEnd
  0
ENDSEC
  0
SECTION
  2
ENTITIES
  0
LWPOLYLINE
  5
2D
100
AcDbEntity
  8
ASSEMBLY_OUTLINES_BTM
100
AcDbPolyline
 90
        5
 70
         1
 43
0.2
 10
50.73
 20
5.1
 10
50.73
 20
1.1
 10
0.73
 20
1.1
 10
0.73
 20
4.1
 10
1.73
 20
5.1
  0
LWPOLYLINE
  5
2E
100
AcDbEntity
  8
ASSEMBLY_OUTLINES_TOP
100
AcDbPolyline
 90
        4
 70
         1
 43
0.1
 10
5.3
 20
15.45
 10
5.3
 20
17.45
 10
12.3
 20
17.45
 10
12.3
 20
15.45
  0
LWPOLYLINE
  5
2F
100
AcDbEntity
  8
ASSEMBLY_OUTLINES_TOP
100
AcDbPolyline
 90
        3
 70
         1
 10
10.578
 20
17.466
 10
11.594
 20
15.434
 10
11.594
 20
17.466
  0
HATCH
  5
30
100
AcDbEntity
  8
ASSEMBLY_OUTLINES_TOP
100
AcDbHatch
 10
0.0
 20
0.0
 30
0.0
210
0.0
220
0.0
230
1.0
  2
SOLID
 70
         1
 71
         1
 91
        1
 92
        2
 72
         0
 73
         1
 93
        3
 10
10.577999999999999
 20
17.466000000000001
 10
11.593999999999999
 20
15.433999999999999
 10
11.593999999999999
 20
17.466000000000001
 97
        1
330
2F
 75
         0
 76
         1
 98
        1
 10
0.0
 20
0.0
  0
LWPOLYLINE
  5
31
100
AcDbEntity
  8
ASSEMBLY_OUTLINES_TOP
100
AcDbPolyline
 90
        4
 70
         0
 43
0.25
 10
44.002355
 20
12.712645
 10
44.002355
 20
12.912645
 10
43.602355
 20
12.912645
 10
43.602355
 20
12.712645
  0
LWPOLYLINE
  5
32
100
AcDbEntity
  8
ASSEMBLY_OUTLINES_TOP
100
AcDbPolyline
 90
        5
 70
         1
 43
0.2
 10
44.418285
 20
12.420785
 10
50.133285
 20
12.420785
 10
50.133285
 20
8.610785
 10
45.053285
 20
8.610785
 10
44.418285
 20
9.245785
  0
LWPOLYLINE
  5
33
100
AcDbEntity
  8
ASSEMBLY_OUTLINES_TOP
100
AcDbPolyline
 90
        4
 70
         0
 43
0.25
 10
45.422645
 20
6.562645
 10
45.222645
 20
6.562645
 10
45.222645
 20
6.162645
 10
45.422645
 20
6.162645
  0
LWPOLYLINE
  5
34
100
AcDbEntity
  8
ASSEMBLY_OUTLINES_TOP
100
AcDbPolyline
 90
        4
 70
         0
 43
0.25
 10
42.25157
 20
14.44
 10
42.25157
 20
14.24
 10
42.65157
 20
14.24
 10
42.65157
 20
14.44
  0
LWPOLYLINE
  5
35
100
AcDbEntity
  8
ASSEMBLY_OUTLINES_TOP
100
AcDbPolyline
 90
        4
 70
         0
 43
0.25
 10
22.25
 20
26.04
 10
22.05
 20
26.04
 10
22.05
 20
25.64
 10
22.25
 20
25.64
  0
LWPOLYLINE
  5
36
100
AcDbEntity
  8
ASSEMBLY_OUTLINES_TOP
100
AcDbPolyline
 90
        4
 70
         0
 43
0.25
 10
21.45
 20
24.64
 10
21.65
 20
24.64
 10
21.65
 20
25.04
 10
21.45
 20
25.04
  0
LWPOLYLINE
  5
37
100
AcDbEntity
  8
ASSEMBLY_OUTLINES_TOP
100
AcDbPolyline
 90
        4
 70
         0
 43
0.25
 10
17.75
 20
25.04157
 10
17.55
 20
25.04157
 10
17.55
 20
24.64157
 10
17.75
 20
24.64157
  0
LWPOLYLINE
  5
38
100
AcDbEntity
  8
ASSEMBLY_OUTLINES_TOP
100
AcDbPolyline
 90
        4
 70
         0
 43
0.25
 10
18.36
 20
25.55
 10
18.56
 20
25.55
 10
18.56
 20
25.95
 10
18.36
 20
25.95
  0
LWPOLYLINE
  5
39
100
AcDbEntity
  8
ASSEMBLY_OUTLINES_TOP
100
AcDbPolyline
 90
        4
 70
         0
 43
0.25
 10
25.65
 20
25.04
 10
25.45
 20
25.04
 10
25.45
 20
24.64
 10
25.65
 20
24.64
  0
LWPOLYLINE
  5
3A
100
AcDbEntity
  8
ASSEMBLY_OUTLINES_TOP
100
AcDbPolyline
 90
        4
 70
         0
 43
0.25
 10
26.25
 20
25.64
 10
26.45
 20
25.64
 10
26.45
 20
26.04
 10
26.25
 20
26.04
  0
LWPOLYLINE
  5
3B
100
AcDbEntity
  8
ASSEMBLY_OUTLINES_TOP
100
AcDbPolyline
 90
        4
 70
         0
 43
0.25
 10
23.85
 20
7.94
 10
24.05
 20
7.94
 10
24.05
 20
8.34
 10
23.85
 20
8.34
  0
LWPOLYLINE
  5
3C
100
AcDbEntity
  8
ASSEMBLY_OUTLINES_TOP
100
AcDbPolyline
 90
        4
 70
         0
 43
0.25
 10
39.84
 20
23.95
 10
39.84
 20
24.15
 10
39.44
 20
24.15
 10
39.44
 20
23.95
  0
LWPOLYLINE
  5
3D
100
AcDbEntity
  8
ASSEMBLY_OUTLINES_TOP
100
AcDbPolyline
 90
        4
 70
         0
 43
0.25
 10
41.85
 20
18.24
 10
41.65
 20
18.24
 10
41.65
 20
17.84
 10
41.85
 20
17.84
  0
LWPOLYLINE
  5
3E
100
AcDbEntity
  8
ASSEMBLY_OUTLINES_TOP
100
AcDbPolyline
 90
        5
 70
         1
 43
0.1
 10
50.36
 20
23.35
 10
50.36
 20
19.25
 10
48.571
 20
19.25
 10
48.571
 20
23.75
 10
49.968
 20
23.75
  0
LWPOLYLINE
  5
3F
100
AcDbEntity
  8
ASSEMBLY_OUTLINES_TOP
100
AcDbPolyline
 90
        5
 70
         1
 43
0.1
 10
50.34
 20
18.65
 10
50.34
 20
14.55
 10
48.551
 20
14.55
 10
48.551
 20
19.05
 10
49.948
 20
19.05
  0
LWPOLYLINE
  5
40
100
AcDbEntity
  8
ASSEMBLY_OUTLINES_TOP
100
AcDbPolyline
 90
        4
 70
         0
 43
0.25
 10
48.49843
 20
24.69
 10
48.49843
 20
24.89
 10
48.09843
 20
24.89
 10
48.09843
 20
24.69
  0
LWPOLYLINE
  5
41
100
AcDbEntity
  8
ASSEMBLY_OUTLINES_TOP
100
AcDbPolyline
 90
        4
 70
         0
 43
0.25
 10
48.09157
 20
19.1
 10
48.09157
 20
19.3
 10
47.69157
 20
19.3
 10
47.69157
 20
19.1
  0
LWPOLYLINE
  5
42
100
AcDbEntity
  8
ASSEMBLY_OUTLINES_TOP
100
AcDbPolyline
 90
        5
 70
         1
 43
0.2
 10
40.34593
 20
20.30419
 10
47.49593
 20
20.30419
 10
47.49593
 20
23.55419
 10
46.84593
 20
24.20419
 10
40.34593
 20
24.20419
  0
LWPOLYLINE
  5
43
100
AcDbEntity
  8
ASSEMBLY_OUTLINES_TOP
100
AcDbPolyline
 90
        2
 70
         1
 43
0.2
 10
46.66157
 20
16.65
 42
-1.0
 10
47.16157
 20
16.65
 42
-1.0
  0
LWPOLYLINE
  5
44
100
AcDbEntity
  8
ASSEMBLY_OUTLINES_TOP
100
AcDbPolyline
 90
        4
 70
         1
 43
0.15
 10
44.06157
 20
16.33
 10
44.06157
 20
16.97
 10
47.23157
 20
16.97
 10
47.23157
 20
16.33
  0
LWPOLYLINE
  5
45
100
AcDbEntity
  8
ASSEMBLY_OUTLINES_TOP
100
AcDbPolyline
 90
        4
 70
         0
 43
0.25
 10
43.54157
 20
16.65
 10
43.54157
 20
16.85
 10
43.14157
 20
16.85
 10
43.14157
 20
16.65
  0
LWPOLYLINE
  5
46
100
AcDbEntity
  8
ASSEMBLY_OUTLINES_TOP
100
AcDbPolyline
 90
        4
 70
         1
 43
0.15
 10
38.97343
 20
13.24
 10
38.97343
 20
16.84
 10
41.37343
 20
16.84
 10
41.37343
 20
13.24
  0
LWPOLYLINE
  5
47
100
AcDbEntity
  8
ASSEMBLY_OUTLINES_TOP
100
AcDbPolyline
 90
        3
 70
         1
 10
41.37343
 20
13.24
 10
40.748431
 20
13.24
 10
41.37343
 20
13.739999
  0
HATCH
  5
48
100
AcDbEntity
  8
ASSEMBLY_OUTLINES_TOP
100
AcDbHatch
 10
0.0
 20
0.0
 30
0.0
210
0.0
220
0.0
230
1.0
  2
SOLID
 70
         1
 71
         1
 91
        1
 92
        2
 72
         0
 73
         1
 93
        3
 10
41.373429999999999
 20
13.24
 10
40.748430999999997
 20
13.24
 10
41.373429999999999
 20
13.739998999999999
 97
        1
330
47
 75
         0
 76
         1
 98
        1
 10
0.0
 20
0.0
  0
CIRCLE
  5
49
100
AcDbEntity
  8
ASSEMBLY_OUTLINES_TOP
100
AcDbCircle
 10
40.57343
 20
13.64
 30
0.0
 40
0.2
  0
HATCH
  5
4A
100
AcDbEntity
  8
ASSEMBLY_OUTLINES_TOP
100
AcDbHatch
 10
0.0
 20
0.0
 30
0.0
210
0.0
220
0.0
230
1.0
  2
SOLID
 70
         1
 71
         1
 91
        1
 92
        1
 93
        1
 72
         2
 10
40.573430000000002
 20
13.640000000000001
 40
0.2
 50
0.0
 51
360.0
 73
         1
 97
        1
330
49
 75
         0
 76
         1
 98
        1
 10
0.0
 20
0.0
  0
LWPOLYLINE
  5
4B
100
AcDbEntity
  8
ASSEMBLY_OUTLINES_TOP
100
AcDbPolyline
 90
        4
 70
         0
 43
0.25
 10
39.45
 20
20.54
 10
39.25
 20
20.54
 10
39.25
 20
20.14
 10
39.45
 20
20.14
  0
LWPOLYLINE
  5
4C
100
AcDbEntity
  8
ASSEMBLY_OUTLINES_TOP
100
AcDbPolyline
 90
        4
 70
         0
 43
0.25
 10
39.45
 20
18.94
 10
39.25
 20
18.94
 10
39.25
 20
18.54
 10
39.45
 20
18.54
  0
LWPOLYLINE
  5
4D
100
AcDbEntity
  8
ASSEMBLY_OUTLINES_TOP
100
AcDbPolyline
 90
        4
 70
         0
 43
0.25
 10
39.45
 20
19.74
 10
39.25
 20
19.74
 10
39.25
 20
19.34
 10
39.45
 20
19.34
  0
LWPOLYLINE
  5
4E
100
AcDbEntity
  8
ASSEMBLY_OUTLINES_TOP
100
AcDbPolyline
 90
        4
 70
         0
 43
0.25
 10
39.25
 20
17.74
 10
39.45
 20
17.74
 10
39.45
 20
18.14
 10
39.25
 20
18.14
  0
LWPOLYLINE
  5
4F
100
AcDbEntity
  8
ASSEMBLY_OUTLINES_TOP
100
AcDbPolyline
 90
        5
 70
         1
 43
0.1
 10
33.25
 20
7.54
 10
37.35
 20
7.54
 10
37.35
 20
5.751
 10
32.85
 20
5.751
 10
32.85
 20
7.148
  0
LWPOLYLINE
  5
50
100
AcDbEntity
  8
ASSEMBLY_OUTLINES_TOP
100
AcDbPolyline
 90
        4
 70
         0
 43
0.25
 10
36.35
 20
8.04
 10
36.55
 20
8.04
 10
36.55
 20
8.44
 10
36.35
 20
8.44
  0
LWPOLYLINE
  5
51
100
AcDbEntity
  8
ASSEMBLY_OUTLINES_TOP
100
AcDbPolyline
 90
        4
 70
         0
 43
0.25
 10
18.85157
 20
7.94
 10
19.05157
 20
7.94
 10
19.05157
 20
8.34
 10
18.85157
 20
8.34
  0
LWPOLYLINE
  5
52
100
AcDbEntity
  8
ASSEMBLY_OUTLINES_TOP
100
AcDbPolyline
 90
        4
 70
         0
 43
0.2
 10
18.25
 20
7.53843
 10
18.65
 20
7.53843
 10
18.65
 20
6.33843
 10
18.25
 20
6.33843
  0
LWPOLYLINE
  5
53
100
AcDbEntity
  8
ASSEMBLY_OUTLINES_TOP
100
AcDbPolyline
 90
        4
 70
         0
 43
0.25
 10
30.24843
 20
8.54
 10
30.04843
 20
8.54
 10
30.04843
 20
8.14
 10
30.24843
 20
8.14
  0
LWPOLYLINE
  5
54
100
AcDbEntity
  8
ASSEMBLY_OUTLINES_TOP
100
AcDbPolyline
 90
        4
 70
         0
 43
0.2
 10
30.45
 20
6.53843
 10
30.05
 20
6.53843
 10
30.05
 20
7.73843
 10
30.45
 20
7.73843
  0
LWPOLYLINE
  5
55
100
AcDbEntity
  8
ASSEMBLY_OUTLINES_TOP
100
AcDbPolyline
 90
        4
 70
         0
 43
0.25
 10
14.75
 20
16.94
 10
14.75
 20
16.74
 10
15.15
 20
16.74
 10
15.15
 20
16.94
  0
LWPOLYLINE
  5
56
100
AcDbEntity
  8
ASSEMBLY_OUTLINES_TOP
100
AcDbPolyline
 90
        4
 70
         0
 43
0.25
 10
16.25
 20
16.64
 10
16.05
 20
16.64
 10
16.05
 20
16.24
 10
16.25
 20
16.24
  0
LWPOLYLINE
  5
57
100
AcDbEntity
  8
ASSEMBLY_OUTLINES_TOP
100
AcDbPolyline
 90
        4
 70
         0
 43
0.25
 10
13.65
 20
16.24
 10
13.85
 20
16.24
 10
13.85
 20
16.64
 10
13.65
 20
16.64
  0
LWPOLYLINE
  5
58
100
AcDbEntity
  8
ASSEMBLY_OUTLINES_TOP
100
AcDbPolyline
 90
        5
 70
         1
 10
36.03
 20
9.97
 10
19.3
 20
9.97
 10
18.03
 20
11.24
 10
18.03
 20
22.97
 10
36.03
 20
22.97
  0
LWPOLYLINE
  5
59
100
AcDbEntity
  8
ASSEMBLY_OUTLINES_TOP
100
AcDbPolyline
 90
        5
 70
         1
 43
0.15
 10
36.03
 20
9.97
 10
19.3
 20
9.97
 10
18.03
 20
11.24
 10
18.03
 20
22.97
 10
36.03
 20
22.97
  0
CIRCLE
  5
5A
100
AcDbEntity
  8
ASSEMBLY_OUTLINES_TOP
100
AcDbCircle
 10
18.03
 20
9.47
 30
0.0
 40
0.5
  0
HATCH
  5
5B
100
AcDbEntity
  8
ASSEMBLY_OUTLINES_TOP
100
AcDbHatch
 10
0.0
 20
0.0
 30
0.0
210
0.0
220
0.0
230
1.0
  2
SOLID
 70
         1
 71
         1
 91
        1
 92
        1
 93
        1
 72
         2
 10
18.030000000000001
 20
9.4700000000000006
 40
0.5
 50
0.0
 51
360.0
 73
         1
 97
        1
330
5A
 75
         0
 76
         1
 98
        1
 10
0.0
 20
0.0
  0
LWPOLYLINE
  5
5C
100
AcDbEntity
  8
ASSEMBLY_OUTLINES_TOP
100
AcDbPolyline
 90
        4
 70
         0
 43
0.25
 10
31.25
 20
24.64
 10
31.45
 20
24.64
 10
31.45
 20
25.04
 10
31.25
 20
25.04
  0
LWPOLYLINE
  5
5D
100
AcDbEntity
  8
ASSEMBLY_OUTLINES_TOP
100
AcDbPolyline
 90
        4
 70
         0
 43
0.25
 10
31.05
 20
26.04
 10
30.85
 20
26.04
 10
30.85
 20
25.64
 10
31.05
 20
25.64
  0
LWPOLYLINE
  5
5E
100
AcDbEntity
  8
ASSEMBLY_OUTLINES_TOP
100
AcDbPolyline
 90
        2
 70
         1
 43
0.15
 10
37.53
 20
9.7
 42
-1.0
 10
43.53
 20
9.7
 42
-1.0
  0
TEXT
  5
60
100
AcDbEntity
  8
ASSEMBLY_REF_DES_BTM
100
AcDbText
 10
25.314
 20
2.4008
 30
0.0
 40
0.8
  1
X1
 50
270.0
  7
ARIAL
 71
         2
 72
         1
 11
25.73
 21
3.1
 31
0.0
100
AcDbText
 73
         2
  0
TEXT
  5
61
100
AcDbEntity
  8
ASSEMBLY_REF_DES_TOP
100
AcDbText
 10
7.3388
 20
16.034
 30
0.0
 40
0.8
  1
ANT1
  7
ARIAL
 72
         1
 11
8.8
 21
16.45
 31
0.0
100
AcDbText
 73
         2
  0
TEXT
  5
62
100
AcDbEntity
  8
ASSEMBLY_REF_DES_TOP
100
AcDbText
 10
43.386355
 20
13.543445
 30
0.0
 40
0.8
  1
C6
 50
270.0
  7
ARIAL
 72
         1
 11
43.802355
 21
12.812645
 31
0.0
100
AcDbText
 73
         2
  0
TEXT
  5
63
100
AcDbEntity
  8
ASSEMBLY_REF_DES_TOP
100
AcDbText
 10
46.550625
 20
10.120595
 30
0.0
 40
0.8
  1
U1
  7
ARIAL
 72
         1
 11
47.281425
 21
10.536595
 31
0.0
100
AcDbText
 73
         2
  0
TEXT
  5
64
100
AcDbEntity
  8
ASSEMBLY_REF_DES_TOP
100
AcDbText
 10
44.591845
 20
5.946645
 30
0.0
 40
0.8
  1
C7
  7
ARIAL
 72
         1
 11
45.322645
 21
6.362645
 31
0.0
100
AcDbText
 73
         2
  0
TEXT
  5
65
100
AcDbEntity
  8
ASSEMBLY_REF_DES_TOP
100
AcDbText
 10
42.03557
 20
15.0708
 30
0.0
 40
0.8
  1
C3
 50
270.0
  7
ARIAL
 72
         1
 11
42.45157
 21
14.34
 31
0.0
100
AcDbText
 73
         2
  0
TEXT
  5
66
100
AcDbEntity
  8
ASSEMBLY_REF_DES_TOP
100
AcDbText
 10
21.1012
 20
25.424
 30
0.0
 40
0.8
  1
R14
  7
ARIAL
 72
         1
 11
22.15
 21
25.84
 31
0.0
100
AcDbText
 73
         2
  0
TEXT
  5
67
100
AcDbEntity
  8
ASSEMBLY_REF_DES_TOP
100
AcDbText
 10
20.8192
 20
24.424
 30
0.0
 40
0.8
  1
R6
  7
ARIAL
 72
         1
 11
21.55
 21
24.84
 31
0.0
100
AcDbText
 73
         2
  0
TEXT
  5
68
100
AcDbEntity
  8
ASSEMBLY_REF_DES_TOP
100
AcDbText
 10
16.9192
 20
24.42557
 30
0.0
 40
0.8
  1
R3
  7
ARIAL
 72
         1
 11
17.65
 21
24.84157
 31
0.0
100
AcDbText
 73
         2
  0
TEXT
  5
69
100
AcDbEntity
  8
ASSEMBLY_REF_DES_TOP
100
AcDbText
 10
18.2016
 20
24.424
 30
0.0
 40
0.8
  1
TP1
  7
ARIAL
 72
         1
 11
19.25
 21
24.84
 31
0.0
100
AcDbText
 73
         2
  0
TEXT
  5
6A
100
AcDbEntity
  8
ASSEMBLY_REF_DES_TOP
100
AcDbText
 10
18.9836
 20
25.124
 30
0.0
 40
0.8
  1
TP11
  7
ARIAL
 72
         1
 11
20.35
 21
25.54
 31
0.0
100
AcDbText
 73
         2
  0
TEXT
  5
6B
100
AcDbEntity
  8
ASSEMBLY_REF_DES_TOP
100
AcDbText
 10
17.4112
 20
25.334
 30
0.0
 40
0.8
  1
R10
  7
ARIAL
 72
         1
 11
18.46
 21
25.75
 31
0.0
100
AcDbText
 73
         2
  0
TEXT
  5
6C
100
AcDbEntity
  8
ASSEMBLY_REF_DES_TOP
100
AcDbText
 10
24.8192
 20
24.424
 30
0.0
 40
0.8
  1
R5
  7
ARIAL
 72
         1
 11
25.55
 21
24.84
 31
0.0
100
AcDbText
 73
         2
  0
TEXT
  5
6D
100
AcDbEntity
  8
ASSEMBLY_REF_DES_TOP
100
AcDbText
 10
25.8016
 20
24.424
 30
0.0
 40
0.8
  1
TP7
  7
ARIAL
 72
         1
 11
26.85
 21
24.84
 31
0.0
100
AcDbText
 73
         2
  0
TEXT
  5
6E
100
AcDbEntity
  8
ASSEMBLY_REF_DES_TOP
100
AcDbText
 10
25.3012
 20
25.424
 30
0.0
 40
0.8
  1
R15
  7
ARIAL
 72
         1
 11
26.35
 21
25.84
 31
0.0
100
AcDbText
 73
         2
  0
TEXT
  5
6F
100
AcDbEntity
  8
ASSEMBLY_REF_DES_TOP
100
AcDbText
 10
22.5016
 20
24.724
 30
0.0
 40
0.8
  1
TP9
  7
ARIAL
 72
         1
 11
23.55
 21
25.14
 31
0.0
100
AcDbText
 73
         2
  0
TEXT
  5
70
100
AcDbEntity
  8
ASSEMBLY_REF_DES_TOP
100
AcDbText
 10
22.9012
 20
7.724
 30
0.0
 40
0.8
  1
R16
  7
ARIAL
 72
         1
 11
23.95
 21
8.14
 31
0.0
100
AcDbText
 73
         2
  0
TEXT
  5
71
100
AcDbEntity
  8
ASSEMBLY_REF_DES_TOP
100
AcDbText
 10
39.224
 20
25.0988
 30
0.0
 40
0.8
  1
R19
 50
270.0
  7
ARIAL
 72
         1
 11
39.64
 21
24.05
 31
0.0
100
AcDbText
 73
         2
  0
TEXT
  5
72
100
AcDbEntity
  8
ASSEMBLY_REF_DES_TOP
100
AcDbText
 10
40.7012
 20
17.624
 30
0.0
 40
0.8
  1
R18
  7
ARIAL
 72
         1
 11
41.75
 21
18.04
 31
0.0
100
AcDbText
 73
         2
  0
TEXT
  5
73
100
AcDbEntity
  8
ASSEMBLY_REF_DES_TOP
100
AcDbText
 10
49.044
 20
22.054
 30
0.0
 40
0.8
  1
J2
 50
270.0
  7
ARIAL
 72
         1
 11
49.46
 21
21.45
 31
0.0
100
AcDbText
 73
         2
  0
TEXT
  5
74
100
AcDbEntity
  8
ASSEMBLY_REF_DES_TOP
100
AcDbText
 10
49.024
 20
17.354
 30
0.0
 40
0.8
  1
J1
 50
270.0
  7
ARIAL
 72
         1
 11
49.44
 21
16.75
 31
0.0
100
AcDbText
 73
         2
  0
TEXT
  5
75
100
AcDbEntity
  8
ASSEMBLY_REF_DES_TOP
100
AcDbText
 10
47.88243
 20
25.5208
 30
0.0
 40
0.8
  1
C2
 50
270.0
  7
ARIAL
 72
         1
 11
48.29843
 21
24.79
 31
0.0
100
AcDbText
 73
         2
  0
TEXT
  5
76
100
AcDbEntity
  8
ASSEMBLY_REF_DES_TOP
100
AcDbText
 10
47.47557
 20
19.9308
 30
0.0
 40
0.8
  1
C1
 50
270.0
  7
ARIAL
 72
         1
 11
47.89157
 21
19.2
 31
0.0
100
AcDbText
 73
         2
  0
TEXT
  5
77
100
AcDbEntity
  8
ASSEMBLY_REF_DES_TOP
100
AcDbText
 10
43.19013
 20
21.81319
 30
0.0
 40
0.8
  1
U3
  7
ARIAL
 72
         1
 11
43.92093
 21
22.22919
 31
0.0
100
AcDbText
 73
         2
  0
TEXT
  5
78
100
AcDbEntity
  8
ASSEMBLY_REF_DES_TOP
100
AcDbText
 10
44.49797
 20
16.234
 30
0.0
 40
0.8
  1
RN1
  7
ARIAL
 72
         1
 11
45.64157
 21
16.65
 31
0.0
100
AcDbText
 73
         2
  0
TEXT
  5
79
100
AcDbEntity
  8
ASSEMBLY_REF_DES_TOP
100
AcDbText
 10
42.92557
 20
17.7988
 30
0.0
 40
0.8
  1
R11
 50
270.0
  7
ARIAL
 72
         1
 11
43.34157
 21
16.75
 31
0.0
100
AcDbText
 73
         2
  0
TEXT
  5
7A
100
AcDbEntity
  8
ASSEMBLY_REF_DES_TOP
100
AcDbText
 10
39.75743
 20
16.152
 30
0.0
 40
0.8
  1
OZ1
 50
270.0
  7
ARIAL
 72
         1
 11
40.17343
 21
15.04
 31
0.0
100
AcDbText
 73
         2
  0
TEXT
  5
7B
100
AcDbEntity
  8
ASSEMBLY_REF_DES_TOP
100
AcDbText
 10
38.6192
 20
19.924
 30
0.0
 40
0.8
  1
R1
  7
ARIAL
 72
         1
 11
39.35
 21
20.34
 31
0.0
100
AcDbText
 73
         2
  0
TEXT
  5
7C
100
AcDbEntity
  8
ASSEMBLY_REF_DES_TOP
100
AcDbText
 10
38.6192
 20
18.324
 30
0.0
 40
0.8
  1
R8
  7
ARIAL
 72
         1
 11
39.35
 21
18.74
 31
0.0
100
AcDbText
 73
         2
  0
TEXT
  5
7D
100
AcDbEntity
  8
ASSEMBLY_REF_DES_TOP
100
AcDbText
 10
38.6192
 20
19.124
 30
0.0
 40
0.8
  1
R7
  7
ARIAL
 72
         1
 11
39.35
 21
19.54
 31
0.0
100
AcDbText
 73
         2
  0
TEXT
  5
7E
100
AcDbEntity
  8
ASSEMBLY_REF_DES_TOP
100
AcDbText
 10
38.6192
 20
17.524
 30
0.0
 40
0.8
  1
R9
  7
ARIAL
 72
         1
 11
39.35
 21
17.94
 31
0.0
100
AcDbText
 73
         2
  0
TEXT
  5
7F
100
AcDbEntity
  8
ASSEMBLY_REF_DES_TOP
100
AcDbText
 10
34.546
 20
6.224
 30
0.0
 40
0.8
  1
J3
  7
ARIAL
 72
         1
 11
35.15
 21
6.64
 31
0.0
100
AcDbText
 73
         2
  0
TEXT
  5
80
100
AcDbEntity
  8
ASSEMBLY_REF_DES_TOP
100
AcDbText
 10
35.4012
 20
7.824
 30
0.0
 40
0.8
  1
R12
  7
ARIAL
 72
         1
 11
36.45
 21
8.24
 31
0.0
100
AcDbText
 73
         2
  0
TEXT
  5
81
100
AcDbEntity
  8
ASSEMBLY_REF_DES_TOP
100
AcDbText
 10
23.8836
 20
6.424
 30
0.0
 40
0.8
  1
TP10
  7
ARIAL
 72
         1
 11
25.25
 21
6.84
 31
0.0
100
AcDbText
 73
         2
  0
TEXT
  5
82
100
AcDbEntity
  8
ASSEMBLY_REF_DES_TOP
100
AcDbText
 10
25.6016
 20
6.724
 30
0.0
 40
0.8
  1
TP5
  7
ARIAL
 72
         1
 11
26.65
 21
7.14
 31
0.0
100
AcDbText
 73
         2
  0
TEXT
  5
83
100
AcDbEntity
  8
ASSEMBLY_REF_DES_TOP
100
AcDbText
 10
24.4016
 20
7.624
 30
0.0
 40
0.8
  1
TP4
  7
ARIAL
 72
         1
 11
25.45
 21
8.04
 31
0.0
100
AcDbText
 73
         2
  0
TEXT
  5
84
100
AcDbEntity
  8
ASSEMBLY_REF_DES_TOP
100
AcDbText
 10
20.7016
 20
6.724
 30
0.0
 40
0.8
  1
TP3
  7
ARIAL
 72
         1
 11
21.75
 21
7.14
 31
0.0
100
AcDbText
 73
         2
  0
TEXT
  5
85
100
AcDbEntity
  8
ASSEMBLY_REF_DES_TOP
100
AcDbText
 10
19.5016
 20
7.524
 30
0.0
 40
0.8
  1
TP2
  7
ARIAL
 72
         1
 11
20.55
 21
7.94
 31
0.0
100
AcDbText
 73
         2
  0
TEXT
  5
86
100
AcDbEntity
  8
ASSEMBLY_REF_DES_TOP
100
AcDbText
 10
18.22077
 20
7.724
 30
0.0
 40
0.8
  1
C4
  7
ARIAL
 72
         1
 11
18.95157
 21
8.14
 31
0.0
100
AcDbText
 73
         2
  0
TEXT
  5
87
100
AcDbEntity
  8
ASSEMBLY_REF_DES_TOP
100
AcDbText
 10
17.4012
 20
6.52243
 30
0.0
 40
0.8
  1
C10
  7
ARIAL
 72
         1
 11
18.45
 21
6.93843
 31
0.0
100
AcDbText
 73
         2
  0
TEXT
  5
88
100
AcDbEntity
  8
ASSEMBLY_REF_DES_TOP
100
AcDbText
 10
29.41763
 20
7.924
 30
0.0
 40
0.8
  1
C5
  7
ARIAL
 72
         1
 11
30.14843
 21
8.34
 31
0.0
100
AcDbText
 73
         2
  0
TEXT
  5
89
100
AcDbEntity
  8
ASSEMBLY_REF_DES_TOP
100
AcDbText
 10
29.2012
 20
6.72243
 30
0.0
 40
0.8
  1
C11
  7
ARIAL
 72
         1
 11
30.25
 21
7.13843
 31
0.0
100
AcDbText
 73
         2
  0
TEXT
  5
8A
100
AcDbEntity
  8
ASSEMBLY_REF_DES_TOP
100
AcDbText
 10
14.534
 20
17.476
 30
0.0
 40
0.8
  1
L2
 50
270.0
  7
ARIAL
 72
         1
 11
14.95
 21
16.84
 31
0.0
100
AcDbText
 73
         2
  0
TEXT
  5
8B
100
AcDbEntity
  8
ASSEMBLY_REF_DES_TOP
100
AcDbText
 10
15.4192
 20
16.024
 30
0.0
 40
0.8
  1
R2
  7
ARIAL
 72
         1
 11
16.15
 21
16.44
 31
0.0
100
AcDbText
 73
         2
  0
TEXT
  5
8C
100
AcDbEntity
  8
ASSEMBLY_REF_DES_TOP
100
AcDbText
 10
13.114
 20
16.024
 30
0.0
 40
0.8
  1
L1
  7
ARIAL
 72
         1
 11
13.75
 21
16.44
 31
0.0
100
AcDbText
 73
         2
  0
TEXT
  5
8D
100
AcDbEntity
  8
ASSEMBLY_REF_DES_TOP
100
AcDbText
 10
26.614
 20
17.2008
 30
0.0
 40
0.8
  1
U4
 50
270.0
  7
ARIAL
 72
         1
 11
27.03
 21
16.47
 31
0.0
100
AcDbText
 73
         2
  0
TEXT
  5
8E
100
AcDbEntity
  8
ASSEMBLY_REF_DES_TOP
100
AcDbText
 10
30.6192
 20
24.424
 30
0.0
 40
0.8
  1
R4
  7
ARIAL
 72
         1
 11
31.35
 21
24.84
 31
0.0
100
AcDbText
 73
         2
  0
TEXT
  5
8F
100
AcDbEntity
  8
ASSEMBLY_REF_DES_TOP
100
AcDbText
 10
28.6016
 20
24.424
 30
0.0
 40
0.8
  1
TP6
  7
ARIAL
 72
         1
 11
29.65
 21
24.84
 31
0.0
100
AcDbText
 73
         2
  0
TEXT
  5
90
100
AcDbEntity
  8
ASSEMBLY_REF_DES_TOP
100
AcDbText
 10
27.3016
 20
25.024
 30
0.0
 40
0.8
  1
TP8
  7
ARIAL
 72
         1
 11
28.35
 21
25.44
 31
0.0
100
AcDbText
 73
         2
  0
TEXT
  5
91
100
AcDbEntity
  8
ASSEMBLY_REF_DES_TOP
100
AcDbText
 10
29.9012
 20
25.424
 30
0.0
 40
0.8
  1
R17
  7
ARIAL
 72
         1
 11
30.95
 21
25.84
 31
0.0
100
AcDbText
 73
         2
  0
TEXT
  5
92
100
AcDbEntity
  8
ASSEMBLY_REF_DES_TOP
100
AcDbText
 10
39.8308
 20
9.284
 30
0.0
 40
0.8
  1
X2
  7
ARIAL
 72
         1
 11
40.53
 21
9.7
 31
0.0
100
AcDbText
 73
         2
  0
LWPOLYLINE
  5
93
100
AcDbEntity
  8
BOARD_OUTLINE
100
AcDbPolyline
 90
        6
 70
         1
 10
0.0
 20
0.0
 10
0.0
 20
6.0
 10
4.0
 20
6.0
 10
4.0
 20
27.0
 10
51.0
 20
27.0
 10
51.0
 20
0.0
  0
CIRCLE
  5
94
100
AcDbEntity
  8
PART_PADS_LAYER_TOP
100
AcDbCircle
 10
40.53
 20
9.7
 30
0.0
 40
2.5
  0
CIRCLE
  5
95
100
AcDbEntity
  8
PART_PADS_LAYER_TOP
100
AcDbCircle
 10
1.73
 20
4.1
 30
0.0
 40
0.625
  0
CIRCLE
  5
96
100
AcDbEntity
  8
PART_PADS_LAYER_TOP
100
AcDbCircle
 10
1.73
 20
2.1
 30
0.0
 40
0.625
  0
CIRCLE
  5
97
100
AcDbEntity
  8
PART_PADS_LAYER_TOP
100
AcDbCircle
 10
3.73
 20
4.1
 30
0.0
 40
0.625
  0
CIRCLE
  5
98
100
AcDbEntity
  8
PART_PADS_LAYER_TOP
100
AcDbCircle
 10
3.73
 20
2.1
 30
0.0
 40
0.625
  0
CIRCLE
  5
99
100
AcDbEntity
  8
PART_PADS_LAYER_TOP
100
AcDbCircle
 10
5.73
 20
4.1
 30
0.0
 40
0.625
  0
CIRCLE
  5
9A
100
AcDbEntity
  8
PART_PADS_LAYER_TOP
100
AcDbCircle
 10
5.73
 20
2.1
 30
0.0
 40
0.625
  0
CIRCLE
  5
9B
100
AcDbEntity
  8
PART_PADS_LAYER_TOP
100
AcDbCircle
 10
7.73
 20
4.1
 30
0.0
 40
0.625
  0
CIRCLE
  5
9C
100
AcDbEntity
  8
PART_PADS_LAYER_TOP
100
AcDbCircle
 10
7.73
 20
2.1
 30
0.0
 40
0.625
  0
CIRCLE
  5
9D
100
AcDbEntity
  8
PART_PADS_LAYER_TOP
100
AcDbCircle
 10
9.73
 20
4.1
 30
0.0
 40
0.625
  0
CIRCLE
  5
9E
100
AcDbEntity
  8
PART_PADS_LAYER_TOP
100
AcDbCircle
 10
9.73
 20
2.1
 30
0.0
 40
0.625
  0
CIRCLE
  5
9F
100
AcDbEntity
  8
PART_PADS_LAYER_TOP
100
AcDbCircle
 10
11.73
 20
4.1
 30
0.0
 40
0.625
  0
CIRCLE
  5
A0
100
AcDbEntity
  8
PART_PADS_LAYER_TOP
100
AcDbCircle
 10
11.73
 20
2.1
 30
0.0
 40
0.625
  0
CIRCLE
  5
A1
100
AcDbEntity
  8
PART_PADS_LAYER_TOP
100
AcDbCircle
 10
13.73
 20
4.1
 30
0.0
 40
0.625
  0
CIRCLE
  5
A2
100
AcDbEntity
  8
PART_PADS_LAYER_TOP
100
AcDbCircle
 10
13.73
 20
2.1
 30
0.0
 40
0.625
  0
CIRCLE
  5
A3
100
AcDbEntity
  8
PART_PADS_LAYER_TOP
100
AcDbCircle
 10
15.73
 20
4.1
 30
0.0
 40
0.625
  0
CIRCLE
  5
A4
100
AcDbEntity
  8
PART_PADS_LAYER_TOP
100
AcDbCircle
 10
15.73
 20
2.1
 30
0.0
 40
0.625
  0
CIRCLE
  5
A5
100
AcDbEntity
  8
PART_PADS_LAYER_TOP
100
AcDbCircle
 10
17.73
 20
4.1
 30
0.0
 40
0.625
  0
CIRCLE
  5
A6
100
AcDbEntity
  8
PART_PADS_LAYER_TOP
100
AcDbCircle
 10
17.73
 20
2.1
 30
0.0
 40
0.625
  0
CIRCLE
  5
A7
100
AcDbEntity
  8
PART_PADS_LAYER_TOP
100
AcDbCircle
 10
19.73
 20
4.1
 30
0.0
 40
0.625
  0
CIRCLE
  5
A8
100
AcDbEntity
  8
PART_PADS_LAYER_TOP
100
AcDbCircle
 10
19.73
 20
2.1
 30
0.0
 40
0.625
  0
CIRCLE
  5
A9
100
AcDbEntity
  8
PART_PADS_LAYER_TOP
100
AcDbCircle
 10
21.73
 20
4.1
 30
0.0
 40
0.625
  0
CIRCLE
  5
AA
100
AcDbEntity
  8
PART_PADS_LAYER_TOP
100
AcDbCircle
 10
21.73
 20
2.1
 30
0.0
 40
0.625
  0
CIRCLE
  5
AB
100
AcDbEntity
  8
PART_PADS_LAYER_TOP
100
AcDbCircle
 10
23.73
 20
4.1
 30
0.0
 40
0.625
  0
CIRCLE
  5
AC
100
AcDbEntity
  8
PART_PADS_LAYER_TOP
100
AcDbCircle
 10
23.73
 20
2.1
 30
0.0
 40
0.625
  0
CIRCLE
  5
AD
100
AcDbEntity
  8
PART_PADS_LAYER_TOP
100
AcDbCircle
 10
25.73
 20
4.1
 30
0.0
 40
0.625
  0
CIRCLE
  5
AE
100
AcDbEntity
  8
PART_PADS_LAYER_TOP
100
AcDbCircle
 10
25.73
 20
2.1
 30
0.0
 40
0.625
  0
CIRCLE
  5
AF
100
AcDbEntity
  8
PART_PADS_LAYER_TOP
100
AcDbCircle
 10
27.73
 20
4.1
 30
0.0
 40
0.625
  0
CIRCLE
  5
B0
100
AcDbEntity
  8
PART_PADS_LAYER_TOP
100
AcDbCircle
 10
27.73
 20
2.1
 30
0.0
 40
0.625
  0
CIRCLE
  5
B1
100
AcDbEntity
  8
PART_PADS_LAYER_TOP
100
AcDbCircle
 10
29.73
 20
4.1
 30
0.0
 40
0.625
  0
CIRCLE
  5
B2
100
AcDbEntity
  8
PART_PADS_LAYER_TOP
100
AcDbCircle
 10
29.73
 20
2.1
 30
0.0
 40
0.625
  0
CIRCLE
  5
B3
100
AcDbEntity
  8
PART_PADS_LAYER_TOP
100
AcDbCircle
 10
31.73
 20
4.1
 30
0.0
 40
0.625
  0
CIRCLE
  5
B4
100
AcDbEntity
  8
PART_PADS_LAYER_TOP
100
AcDbCircle
 10
31.73
 20
2.1
 30
0.0
 40
0.625
  0
CIRCLE
  5
B5
100
AcDbEntity
  8
PART_PADS_LAYER_TOP
100
AcDbCircle
 10
33.73
 20
4.1
 30
0.0
 40
0.625
  0
CIRCLE
  5
B6
100
AcDbEntity
  8
PART_PADS_LAYER_TOP
100
AcDbCircle
 10
33.73
 20
2.1
 30
0.0
 40
0.625
  0
CIRCLE
  5
B7
100
AcDbEntity
  8
PART_PADS_LAYER_TOP
100
AcDbCircle
 10
35.73
 20
4.1
 30
0.0
 40
0.625
  0
CIRCLE
  5
B8
100
AcDbEntity
  8
PART_PADS_LAYER_TOP
100
AcDbCircle
 10
35.73
 20
2.1
 30
0.0
 40
0.625
  0
CIRCLE
  5
B9
100
AcDbEntity
  8
PART_PADS_LAYER_TOP
100
AcDbCircle
 10
37.73
 20
4.1
 30
0.0
 40
0.625
  0
CIRCLE
  5
BA
100
AcDbEntity
  8
PART_PADS_LAYER_TOP
100
AcDbCircle
 10
37.73
 20
2.1
 30
0.0
 40
0.625
  0
CIRCLE
  5
BB
100
AcDbEntity
  8
PART_PADS_LAYER_TOP
100
AcDbCircle
 10
39.73
 20
4.1
 30
0.0
 40
0.625
  0
CIRCLE
  5
BC
100
AcDbEntity
  8
PART_PADS_LAYER_TOP
100
AcDbCircle
 10
39.73
 20
2.1
 30
0.0
 40
0.625
  0
CIRCLE
  5
BD
100
AcDbEntity
  8
PART_PADS_LAYER_TOP
100
AcDbCircle
 10
41.73
 20
4.1
 30
0.0
 40
0.625
  0
CIRCLE
  5
BE
100
AcDbEntity
  8
PART_PADS_LAYER_TOP
100
AcDbCircle
 10
41.73
 20
2.1
 30
0.0
 40
0.625
  0
CIRCLE
  5
BF
100
AcDbEntity
  8
PART_PADS_LAYER_TOP
100
AcDbCircle
 10
43.73
 20
4.1
 30
0.0
 40
0.625
  0
CIRCLE
  5
C0
100
AcDbEntity
  8
PART_PADS_LAYER_TOP
100
AcDbCircle
 10
43.73
 20
2.1
 30
0.0
 40
0.625
  0
CIRCLE
  5
C1
100
AcDbEntity
  8
PART_PADS_LAYER_TOP
100
AcDbCircle
 10
45.73
 20
4.1
 30
0.0
 40
0.625
  0
CIRCLE
  5
C2
100
AcDbEntity
  8
PART_PADS_LAYER_TOP
100
AcDbCircle
 10
45.73
 20
2.1
 30
0.0
 40
0.625
  0
CIRCLE
  5
C3
100
AcDbEntity
  8
PART_PADS_LAYER_TOP
100
AcDbCircle
 10
47.73
 20
4.1
 30
0.0
 40
0.625
  0
CIRCLE
  5
C4
100
AcDbEntity
  8
PART_PADS_LAYER_TOP
100
AcDbCircle
 10
47.73
 20
2.1
 30
0.0
 40
0.625
  0
CIRCLE
  5
C5
100
AcDbEntity
  8
PART_PADS_LAYER_TOP
100
AcDbCircle
 10
49.73
 20
4.1
 30
0.0
 40
0.625
  0
CIRCLE
  5
C6
100
AcDbEntity
  8
PART_PADS_LAYER_TOP
100
AcDbCircle
 10
49.73
 20
2.1
 30
0.0
 40
0.625
  0
LWPOLYLINE
  5
C7
100
AcDbEntity
  8
PART_PADS_SMD_TOP
100
AcDbPolyline
 90
        4
 70
         1
 10
11.55
 20
15.45
 10
11.55
 20
17.45
 10
12.8
 20
17.45
 10
12.8
 20
15.45
  0
LWPOLYLINE
  5
C8
100
AcDbEntity
  8
PART_PADS_SMD_TOP
100
AcDbPolyline
 90
        4
 70
         1
 10
4.8
 20
15.45
 10
4.8
 20
17.45
 10
6.05
 20
17.45
 10
6.05
 20
15.45
  0
LWPOLYLINE
  5
C9
100
AcDbEntity
  8
PART_PADS_SMD_TOP
100
AcDbPolyline
 90
        4
 70
         1
 10
43.552355
 20
12.212645
 10
43.552355
 20
12.612645
 10
44.052355
 20
12.612645
 10
44.052355
 20
12.212645
  0
LWPOLYLINE
  5
CA
100
AcDbEntity
  8
PART_PADS_SMD_TOP
100
AcDbPolyline
 90
        4
 70
         1
 10
43.552355
 20
13.012645
 10
43.552355
 20
13.412645
 10
44.052355
 20
13.412645
 10
44.052355
 20
13.012645
  0
LWPOLYLINE
  5
CB
100
AcDbEntity
  8
PART_PADS_SMD_TOP
100
AcDbPolyline
 90
        4
 70
         1
 10
44.856425
 20
6.986595
 10
44.856425
 20
8.186595
 10
45.156425
 20
8.186595
 10
45.156425
 20
6.986595
  0
LWPOLYLINE
  5
CC
100
AcDbEntity
  8
PART_PADS_SMD_TOP
100
AcDbPolyline
 90
        4
 70
         1
 10
45.506425
 20
6.986595
 10
45.506425
 20
8.186595
 10
45.806425
 20
8.186595
 10
45.806425
 20
6.986595
  0
LWPOLYLINE
  5
CD
100
AcDbEntity
  8
PART_PADS_SMD_TOP
100
AcDbPolyline
 90
        4
 70
         1
 10
46.156425
 20
6.986595
 10
46.156425
 20
8.186595
 10
46.456425
 20
8.186595
 10
46.456425
 20
6.986595
  0
LWPOLYLINE
  5
CE
100
AcDbEntity
  8
PART_PADS_SMD_TOP
100
AcDbPolyline
 90
        4
 70
         1
 10
46.806425
 20
6.986595
 10
46.806425
 20
8.186595
 10
47.106425
 20
8.186595
 10
47.106425
 20
6.986595
  0
LWPOLYLINE
  5
CF
100
AcDbEntity
  8
PART_PADS_SMD_TOP
100
AcDbPolyline
 90
        4
 70
         1
 10
47.456425
 20
6.986595
 10
47.456425
 20
8.186595
 10
47.756425
 20
8.186595
 10
47.756425
 20
6.986595
  0
LWPOLYLINE
  5
D0
100
AcDbEntity
  8
PART_PADS_SMD_TOP
100
AcDbPolyline
 90
        4
 70
         1
 10
48.106425
 20
6.986595
 10
48.106425
 20
8.186595
 10
48.406425
 20
8.186595
 10
48.406425
 20
6.986595
  0
LWPOLYLINE
  5
D1
100
AcDbEntity
  8
PART_PADS_SMD_TOP
100
AcDbPolyline
 90
        4
 70
         1
 10
48.756425
 20
6.986595
 10
48.756425
 20
8.186595
 10
49.056425
 20
8.186595
 10
49.056425
 20
6.986595
  0
LWPOLYLINE
  5
D2
100
AcDbEntity
  8
PART_PADS_SMD_TOP
100
AcDbPolyline
 90
        4
 70
         1
 10
49.406425
 20
6.986595
 10
49.406425
 20
8.186595
 10
49.706425
 20
8.186595
 10
49.706425
 20
6.986595
  0
LWPOLYLINE
  5
D3
100
AcDbEntity
  8
PART_PADS_SMD_TOP
100
AcDbPolyline
 90
        4
 70
         1
 10
49.406425
 20
12.886595
 10
49.406425
 20
14.086595
 10
49.706425
 20
14.086595
 10
49.706425
 20
12.886595
  0
LWPOLYLINE
  5
D4
100
AcDbEntity
  8
PART_PADS_SMD_TOP
100
AcDbPolyline
 90
        4
 70
         1
 10
48.756425
 20
12.886595
 10
48.756425
 20
14.086595
 10
49.056425
 20
14.086595
 10
49.056425
 20
12.886595
  0
LWPOLYLINE
  5
D5
100
AcDbEntity
  8
PART_PADS_SMD_TOP
100
AcDbPolyline
 90
        4
 70
         1
 10
48.106425
 20
12.886595
 10
48.106425
 20
14.086595
 10
48.406425
 20
14.086595
 10
48.406425
 20
12.886595
  0
LWPOLYLINE
  5
D6
100
AcDbEntity
  8
PART_PADS_SMD_TOP
100
AcDbPolyline
 90
        4
 70
         1
 10
47.456425
 20
12.886595
 10
47.456425
 20
14.086595
 10
47.756425
 20
14.086595
 10
47.756425
 20
12.886595
  0
LWPOLYLINE
  5
D7
100
AcDbEntity
  8
PART_PADS_SMD_TOP
100
AcDbPolyline
 90
        4
 70
         1
 10
46.806425
 20
12.886595
 10
46.806425
 20
14.086595
 10
47.106425
 20
14.086595
 10
47.106425
 20
12.886595
  0
LWPOLYLINE
  5
D8
100
AcDbEntity
  8
PART_PADS_SMD_TOP
100
AcDbPolyline
 90
        4
 70
         1
 10
46.156425
 20
12.886595
 10
46.156425
 20
14.086595
 10
46.456425
 20
14.086595
 10
46.456425
 20
12.886595
  0
LWPOLYLINE
  5
D9
100
AcDbEntity
  8
PART_PADS_SMD_TOP
100
AcDbPolyline
 90
        4
 70
         1
 10
45.506425
 20
12.886595
 10
45.506425
 20
14.086595
 10
45.806425
 20
14.086595
 10
45.806425
 20
12.886595
  0
LWPOLYLINE
  5
DA
100
AcDbEntity
  8
PART_PADS_SMD_TOP
100
AcDbPolyline
 90
        4
 70
         1
 10
44.856425
 20
12.886595
 10
44.856425
 20
14.086595
 10
45.156425
 20
14.086595
 10
45.156425
 20
12.886595
  0
LWPOLYLINE
  5
DB
100
AcDbEntity
  8
PART_PADS_SMD_TOP
100
AcDbPolyline
 90
        4
 70
         1
 10
45.522645
 20
6.112645
 10
45.522645
 20
6.612645
 10
45.922645
 20
6.612645
 10
45.922645
 20
6.112645
  0
LWPOLYLINE
  5
DC
100
AcDbEntity
  8
PART_PADS_SMD_TOP
100
AcDbPolyline
 90
        4
 70
         1
 10
44.722645
 20
6.112645
 10
44.722645
 20
6.612645
 10
45.122645
 20
6.612645
 10
45.122645
 20
6.112645
  0
LWPOLYLINE
  5
DD
100
AcDbEntity
  8
PART_PADS_SMD_TOP
100
AcDbPolyline
 90
        4
 70
         1
 10
42.20157
 20
14.54
 10
42.20157
 20
14.94
 10
42.70157
 20
14.94
 10
42.70157
 20
14.54
  0
LWPOLYLINE
  5
DE
100
AcDbEntity
  8
PART_PADS_SMD_TOP
100
AcDbPolyline
 90
        4
 70
         1
 10
42.20157
 20
13.74
 10
42.20157
 20
14.14
 10
42.70157
 20
14.14
 10
42.70157
 20
13.74
  0
LWPOLYLINE
  5
DF
100
AcDbEntity
  8
PART_PADS_SMD_TOP
100
AcDbPolyline
 90
        4
 70
         1
 10
22.35
 20
25.59
 10
22.35
 20
26.09
 10
22.75
 20
26.09
 10
22.75
 20
25.59
  0
LWPOLYLINE
  5
E0
100
AcDbEntity
  8
PART_PADS_SMD_TOP
100
AcDbPolyline
 90
        4
 70
         1
 10
21.55
 20
25.59
 10
21.55
 20
26.09
 10
21.95
 20
26.09
 10
21.95
 20
25.59
  0
LWPOLYLINE
  5
E1
100
AcDbEntity
  8
PART_PADS_SMD_TOP
100
AcDbPolyline
 90
        4
 70
         1
 10
20.95
 20
24.59
 10
20.95
 20
25.09
 10
21.35
 20
25.09
 10
21.35
 20
24.59
  0
LWPOLYLINE
  5
E2
100
AcDbEntity
  8
PART_PADS_SMD_TOP
100
AcDbPolyline
 90
        4
 70
         1
 10
21.75
 20
24.59
 10
21.75
 20
25.09
 10
22.15
 20
25.09
 10
22.15
 20
24.59
  0
LWPOLYLINE
  5
E3
100
AcDbEntity
  8
PART_PADS_SMD_TOP
100
AcDbPolyline
 90
        4
 70
         1
 10
17.85
 20
24.59157
 10
17.85
 20
25.09157
 10
18.25
 20
25.09157
 10
18.25
 20
24.59157
  0
LWPOLYLINE
  5
E4
100
AcDbEntity
  8
PART_PADS_SMD_TOP
100
AcDbPolyline
 90
        4
 70
         1
 10
17.05
 20
24.59157
 10
17.05
 20
25.09157
 10
17.45
 20
25.09157
 10
17.45
 20
24.59157
  0
CIRCLE
  5
E5
100
AcDbEntity
  8
PART_PADS_SMD_TOP
100
AcDbCircle
 10
19.25
 20
24.84
 30
0.0
 40
0.5
  0
CIRCLE
  5
E6
100
AcDbEntity
  8
PART_PADS_SMD_TOP
100
AcDbCircle
 10
20.35
 20
25.54
 30
0.0
 40
0.5
  0
LWPOLYLINE
  5
E7
100
AcDbEntity
  8
PART_PADS_SMD_TOP
100
AcDbPolyline
 90
        4
 70
         1
 10
17.86
 20
25.5
 10
17.86
 20
26.0
 10
18.26
 20
26.0
 10
18.26
 20
25.5
  0
LWPOLYLINE
  5
E8
100
AcDbEntity
  8
PART_PADS_SMD_TOP
100
AcDbPolyline
 90
        4
 70
         1
 10
18.66
 20
25.5
 10
18.66
 20
26.0
 10
19.06
 20
26.0
 10
19.06
 20
25.5
  0
LWPOLYLINE
  5
E9
100
AcDbEntity
  8
PART_PADS_SMD_TOP
100
AcDbPolyline
 90
        4
 70
         1
 10
25.75
 20
24.59
 10
25.75
 20
25.09
 10
26.15
 20
25.09
 10
26.15
 20
24.59
  0
LWPOLYLINE
  5
EA
100
AcDbEntity
  8
PART_PADS_SMD_TOP
100
AcDbPolyline
 90
        4
 70
         1
 10
24.95
 20
24.59
 10
24.95
 20
25.09
 10
25.35
 20
25.09
 10
25.35
 20
24.59
  0
CIRCLE
  5
EB
100
AcDbEntity
  8
PART_PADS_SMD_TOP
100
AcDbCircle
 10
26.85
 20
24.84
 30
0.0
 40
0.5
  0
LWPOLYLINE
  5
EC
100
AcDbEntity
  8
PART_PADS_SMD_TOP
100
AcDbPolyline
 90
        4
 70
         1
 10
25.75
 20
25.59
 10
25.75
 20
26.09
 10
26.15
 20
26.09
 10
26.15
 20
25.59
  0
LWPOLYLINE
  5
ED
100
AcDbEntity
  8
PART_PADS_SMD_TOP
100
AcDbPolyline
 90
        4
 70
         1
 10
26.55
 20
25.59
 10
26.55
 20
26.09
 10
26.95
 20
26.09
 10
26.95
 20
25.59
  0
CIRCLE
  5
EE
100
AcDbEntity
  8
PART_PADS_SMD_TOP
100
AcDbCircle
 10
23.55
 20
25.14
 30
0.0
 40
0.5
  0
LWPOLYLINE
  5
EF
100
AcDbEntity
  8
PART_PADS_SMD_TOP
100
AcDbPolyline
 90
        4
 70
         1
 10
23.35
 20
7.89
 10
23.35
 20
8.39
 10
23.75
 20
8.39
 10
23.75
 20
7.89
  0
LWPOLYLINE
  5
F0
100
AcDbEntity
  8
PART_PADS_SMD_TOP
100
AcDbPolyline
 90
        4
 70
         1
 10
24.15
 20
7.89
 10
24.15
 20
8.39
 10
24.55
 20
8.39
 10
24.55
 20
7.89
  0
LWPOLYLINE
  5
F1
100
AcDbEntity
  8
PART_PADS_SMD_TOP
100
AcDbPolyline
 90
        4
 70
         1
 10
39.39
 20
23.45
 10
39.39
 20
23.85
 10
39.89
 20
23.85
 10
39.89
 20
23.45
  0
LWPOLYLINE
  5
F2
100
AcDbEntity
  8
PART_PADS_SMD_TOP
100
AcDbPolyline
 90
        4
 70
         1
 10
39.39
 20
24.25
 10
39.39
 20
24.65
 10
39.89
 20
24.65
 10
39.89
 20
24.25
  0
LWPOLYLINE
  5
F3
100
AcDbEntity
  8
PART_PADS_SMD_TOP
100
AcDbPolyline
 90
        4
 70
         1
 10
41.95
 20
17.79
 10
41.95
 20
18.29
 10
42.35
 20
18.29
 10
42.35
 20
17.79
  0
LWPOLYLINE
  5
F4
100
AcDbEntity
  8
PART_PADS_SMD_TOP
100
AcDbPolyline
 90
        4
 70
         1
 10
41.15
 20
17.79
 10
41.15
 20
18.29
 10
41.55
 20
18.29
 10
41.55
 20
17.79
  0
LWPOLYLINE
  5
F5
100
AcDbEntity
  8
PART_PADS_SMD_TOP
100
AcDbPolyline
 90
        4
 70
         1
 10
48.835
 20
22.575
 10
48.835
 20
23.425
 10
50.085
 20
23.425
 10
50.085
 20
22.575
  0
LWPOLYLINE
  5
F6
100
AcDbEntity
  8
PART_PADS_SMD_TOP
100
AcDbPolyline
 90
        4
 70
         1
 10
48.835
 20
21.025
 10
48.835
 20
21.875
 10
50.085
 20
21.875
 10
50.085
 20
21.025
  0
LWPOLYLINE
  5
F7
100
AcDbEntity
  8
PART_PADS_SMD_TOP
100
AcDbPolyline
 90
        4
 70
         1
 10
48.835
 20
19.475
 10
48.835
 20
20.325
 10
50.085
 20
20.325
 10
50.085
 20
19.475
  0
LWPOLYLINE
  5
F8
100
AcDbEntity
  8
PART_PADS_SMD_TOP
100
AcDbPolyline
 90
        4
 70
         1
 10
48.815
 20
17.875
 10
48.815
 20
18.725
 10
50.065
 20
18.725
 10
50.065
 20
17.875
  0
LWPOLYLINE
  5
F9
100
AcDbEntity
  8
PART_PADS_SMD_TOP
100
AcDbPolyline
 90
        4
 70
         1
 10
48.815
 20
16.325
 10
48.815
 20
17.175
 10
50.065
 20
17.175
 10
50.065
 20
16.325
  0
LWPOLYLINE
  5
FA
100
AcDbEntity
  8
PART_PADS_SMD_TOP
100
AcDbPolyline
 90
        4
 70
         1
 10
48.815
 20
14.775
 10
48.815
 20
15.625
 10
50.065
 20
15.625
 10
50.065
 20
14.775
  0
LWPOLYLINE
  5
FB
100
AcDbEntity
  8
PART_PADS_SMD_TOP
100
AcDbPolyline
 90
        4
 70
         1
 10
48.04843
 20
24.19
 10
48.04843
 20
24.59
 10
48.54843
 20
24.59
 10
48.54843
 20
24.19
  0
LWPOLYLINE
  5
FC
100
AcDbEntity
  8
PART_PADS_SMD_TOP
100
AcDbPolyline
 90
        4
 70
         1
 10
48.04843
 20
24.99
 10
48.04843
 20
25.39
 10
48.54843
 20
25.39
 10
48.54843
 20
24.99
  0
LWPOLYLINE
  5
FD
100
AcDbEntity
  8
PART_PADS_SMD_TOP
100
AcDbPolyline
 90
        4
 70
         1
 10
47.64157
 20
18.6
 10
47.64157
 20
19.0
 10
48.14157
 20
19.0
 10
48.14157
 20
18.6
  0
LWPOLYLINE
  5
FE
100
AcDbEntity
  8
PART_PADS_SMD_TOP
100
AcDbPolyline
 90
        4
 70
         1
 10
47.64157
 20
19.4
 10
47.64157
 20
19.8
 10
48.14157
 20
19.8
 10
48.14157
 20
19.4
  0
LWPOLYLINE
  5
FF
100
AcDbEntity
  8
PART_PADS_SMD_TOP
100
AcDbPolyline
 90
        4
 70
         1
 10
46.69593
 20
24.57919
 10
46.69593
 20
25.77919
 10
46.99593
 20
25.77919
 10
46.99593
 20
24.57919
  0
LWPOLYLINE
  5
100
100
AcDbEntity
  8
PART_PADS_SMD_TOP
100
AcDbPolyline
 90
        4
 70
         1
 10
46.04593
 20
24.57919
 10
46.04593
 20
25.77919
 10
46.34593
 20
25.77919
 10
46.34593
 20
24.57919
  0
LWPOLYLINE
  5
101
100
AcDbEntity
  8
PART_PADS_SMD_TOP
100
AcDbPolyline
 90
        4
 70
         1
 10
45.39593
 20
24.57919
 10
45.39593
 20
25.77919
 10
45.69593
 20
25.77919
 10
45.69593
 20
24.57919
  0
LWPOLYLINE
  5
102
100
AcDbEntity
  8
PART_PADS_SMD_TOP
100
AcDbPolyline
 90
        4
 70
         1
 10
44.74593
 20
24.57919
 10
44.74593
 20
25.77919
 10
45.04593
 20
25.77919
 10
45.04593
 20
24.57919
  0
LWPOLYLINE
  5
103
100
AcDbEntity
  8
PART_PADS_SMD_TOP
100
AcDbPolyline
 90
        4
 70
         1
 10
44.09593
 20
24.57919
 10
44.09593
 20
25.77919
 10
44.39593
 20
25.77919
 10
44.39593
 20
24.57919
  0
LWPOLYLINE
  5
104
100
AcDbEntity
  8
PART_PADS_SMD_TOP
100
AcDbPolyline
 90
        4
 70
         1
 10
43.44593
 20
24.57919
 10
43.44593
 20
25.77919
 10
43.74593
 20
25.77919
 10
43.74593
 20
24.57919
  0
LWPOLYLINE
  5
105
100
AcDbEntity
  8
PART_PADS_SMD_TOP
100
AcDbPolyline
 90
        4
 70
         1
 10
42.79593
 20
24.57919
 10
42.79593
 20
25.77919
 10
43.09593
 20
25.77919
 10
43.09593
 20
24.57919
  0
LWPOLYLINE
  5
106
100
AcDbEntity
  8
PART_PADS_SMD_TOP
100
AcDbPolyline
 90
        4
 70
         1
 10
42.14593
 20
24.57919
 10
42.14593
 20
25.77919
 10
42.44593
 20
25.77919
 10
42.44593
 20
24.57919
  0
LWPOLYLINE
  5
107
100
AcDbEntity
  8
PART_PADS_SMD_TOP
100
AcDbPolyline
 90
        4
 70
         1
 10
41.49593
 20
24.57919
 10
41.49593
 20
25.77919
 10
41.79593
 20
25.77919
 10
41.79593
 20
24.57919
  0
LWPOLYLINE
  5
108
100
AcDbEntity
  8
PART_PADS_SMD_TOP
100
AcDbPolyline
 90
        4
 70
         1
 10
40.84593
 20
24.57919
 10
40.84593
 20
25.77919
 10
41.14593
 20
25.77919
 10
41.14593
 20
24.57919
  0
LWPOLYLINE
  5
109
100
AcDbEntity
  8
PART_PADS_SMD_TOP
100
AcDbPolyline
 90
        4
 70
         1
 10
40.84593
 20
18.67919
 10
40.84593
 20
19.87919
 10
41.14593
 20
19.87919
 10
41.14593
 20
18.67919
  0
LWPOLYLINE
  5
10A
100
AcDbEntity
  8
PART_PADS_SMD_TOP
100
AcDbPolyline
 90
        4
 70
         1
 10
41.49593
 20
18.67919
 10
41.49593
 20
19.87919
 10
41.79593
 20
19.87919
 10
41.79593
 20
18.67919
  0
LWPOLYLINE
  5
10B
100
AcDbEntity
  8
PART_PADS_SMD_TOP
100
AcDbPolyline
 90
        4
 70
         1
 10
42.14593
 20
18.67919
 10
42.14593
 20
19.87919
 10
42.44593
 20
19.87919
 10
42.44593
 20
18.67919
  0
LWPOLYLINE
  5
10C
100
AcDbEntity
  8
PART_PADS_SMD_TOP
100
AcDbPolyline
 90
        4
 70
         1
 10
42.79593
 20
18.67919
 10
42.79593
 20
19.87919
 10
43.09593
 20
19.87919
 10
43.09593
 20
18.67919
  0
LWPOLYLINE
  5
10D
100
AcDbEntity
  8
PART_PADS_SMD_TOP
100
AcDbPolyline
 90
        4
 70
         1
 10
43.44593
 20
18.67919
 10
43.44593
 20
19.87919
 10
43.74593
 20
19.87919
 10
43.74593
 20
18.67919
  0
LWPOLYLINE
  5
10E
100
AcDbEntity
  8
PART_PADS_SMD_TOP
100
AcDbPolyline
 90
        4
 70
         1
 10
44.09593
 20
18.67919
 10
44.09593
 20
19.87919
 10
44.39593
 20
19.87919
 10
44.39593
 20
18.67919
  0
LWPOLYLINE
  5
10F
100
AcDbEntity
  8
PART_PADS_SMD_TOP
100
AcDbPolyline
 90
        4
 70
         1
 10
44.74593
 20
18.67919
 10
44.74593
 20
19.87919
 10
45.04593
 20
19.87919
 10
45.04593
 20
18.67919
  0
LWPOLYLINE
  5
110
100
AcDbEntity
  8
PART_PADS_SMD_TOP
100
AcDbPolyline
 90
        4
 70
         1
 10
45.39593
 20
18.67919
 10
45.39593
 20
19.87919
 10
45.69593
 20
19.87919
 10
45.69593
 20
18.67919
  0
LWPOLYLINE
  5
111
100
AcDbEntity
  8
PART_PADS_SMD_TOP
100
AcDbPolyline
 90
        4
 70
         1
 10
46.04593
 20
18.67919
 10
46.04593
 20
19.87919
 10
46.34593
 20
19.87919
 10
46.34593
 20
18.67919
  0
LWPOLYLINE
  5
112
100
AcDbEntity
  8
PART_PADS_SMD_TOP
100
AcDbPolyline
 90
        4
 70
         1
 10
46.69593
 20
18.67919
 10
46.69593
 20
19.87919
 10
46.99593
 20
19.87919
 10
46.99593
 20
18.67919
  0
LWPOLYLINE
  5
113
100
AcDbEntity
  8
PART_PADS_SMD_TOP
100
AcDbPolyline
 90
        4
 70
         1
 10
45.84157
 20
17.15
 10
45.84157
 20
17.75
 10
46.24157
 20
17.75
 10
46.24157
 20
17.15
  0
LWPOLYLINE
  5
114
100
AcDbEntity
  8
PART_PADS_SMD_TOP
100
AcDbPolyline
 90
        4
 70
         1
 10
45.04157
 20
17.15
 10
45.04157
 20
17.75
 10
45.44157
 20
17.75
 10
45.44157
 20
17.15
  0
LWPOLYLINE
  5
115
100
AcDbEntity
  8
PART_PADS_SMD_TOP
100
AcDbPolyline
 90
        4
 70
         1
 10
45.04157
 20
15.55
 10
45.04157
 20
16.15
 10
45.44157
 20
16.15
 10
45.44157
 20
15.55
  0
LWPOLYLINE
  5
116
100
AcDbEntity
  8
PART_PADS_SMD_TOP
100
AcDbPolyline
 90
        4
 70
         1
 10
45.84157
 20
15.55
 10
45.84157
 20
16.15
 10
46.24157
 20
16.15
 10
46.24157
 20
15.55
  0
LWPOLYLINE
  5
117
100
AcDbEntity
  8
PART_PADS_SMD_TOP
100
AcDbPolyline
 90
        4
 70
         1
 10
46.59157
 20
17.15
 10
46.59157
 20
17.75
 10
47.19157
 20
17.75
 10
47.19157
 20
17.15
  0
LWPOLYLINE
  5
118
100
AcDbEntity
  8
PART_PADS_SMD_TOP
100
AcDbPolyline
 90
        4
 70
         1
 10
44.09157
 20
17.15
 10
44.09157
 20
17.75
 10
44.69157
 20
17.75
 10
44.69157
 20
17.15
  0
LWPOLYLINE
  5
119
100
AcDbEntity
  8
PART_PADS_SMD_TOP
100
AcDbPolyline
 90
        4
 70
         1
 10
44.09157
 20
15.55
 10
44.09157
 20
16.15
 10
44.69157
 20
16.15
 10
44.69157
 20
15.55
  0
LWPOLYLINE
  5
11A
100
AcDbEntity
  8
PART_PADS_SMD_TOP
100
AcDbPolyline
 90
        4
 70
         1
 10
46.59157
 20
15.55
 10
46.59157
 20
16.15
 10
47.19157
 20
16.15
 10
47.19157
 20
15.55
  0
LWPOLYLINE
  5
11B
100
AcDbEntity
  8
PART_PADS_SMD_TOP
100
AcDbPolyline
 90
        4
 70
         1
 10
43.09157
 20
16.15
 10
43.09157
 20
16.55
 10
43.59157
 20
16.55
 10
43.59157
 20
16.15
  0
LWPOLYLINE
  5
11C
100
AcDbEntity
  8
PART_PADS_SMD_TOP
100
AcDbPolyline
 90
        4
 70
         1
 10
43.09157
 20
16.95
 10
43.09157
 20
17.35
 10
43.59157
 20
17.35
 10
43.59157
 20
16.95
  0
LWPOLYLINE
  5
11D
100
AcDbEntity
  8
PART_PADS_SMD_TOP
100
AcDbPolyline
 90
        4
 70
         1
 10
40.97343
 20
13.655
 10
40.97343
 20
13.925
 10
41.77343
 20
13.925
 10
41.77343
 20
13.655
  0
LWPOLYLINE
  5
11E
100
AcDbEntity
  8
PART_PADS_SMD_TOP
100
AcDbPolyline
 90
        4
 70
         1
 10
40.97343
 20
14.155
 10
40.97343
 20
14.425
 10
41.77343
 20
14.425
 10
41.77343
 20
14.155
  0
LWPOLYLINE
  5
11F
100
AcDbEntity
  8
PART_PADS_SMD_TOP
100
AcDbPolyline
 90
        4
 70
         1
 10
40.97343
 20
14.655
 10
40.97343
 20
14.925
 10
41.77343
 20
14.925
 10
41.77343
 20
14.655
  0
LWPOLYLINE
  5
120
100
AcDbEntity
  8
PART_PADS_SMD_TOP
100
AcDbPolyline
 90
        4
 70
         1
 10
40.97343
 20
15.155
 10
40.97343
 20
15.425
 10
41.77343
 20
15.425
 10
41.77343
 20
15.155
  0
LWPOLYLINE
  5
121
100
AcDbEntity
  8
PART_PADS_SMD_TOP
100
AcDbPolyline
 90
        4
 70
         1
 10
40.97343
 20
15.655
 10
40.97343
 20
15.925
 10
41.77343
 20
15.925
 10
41.77343
 20
15.655
  0
LWPOLYLINE
  5
122
100
AcDbEntity
  8
PART_PADS_SMD_TOP
100
AcDbPolyline
 90
        4
 70
         1
 10
40.97343
 20
16.155
 10
40.97343
 20
16.425
 10
41.77343
 20
16.425
 10
41.77343
 20
16.155
  0
LWPOLYLINE
  5
123
100
AcDbEntity
  8
PART_PADS_SMD_TOP
100
AcDbPolyline
 90
        4
 70
         1
 10
38.57343
 20
16.155
 10
38.57343
 20
16.425
 10
39.37343
 20
16.425
 10
39.37343
 20
16.155
  0
LWPOLYLINE
  5
124
100
AcDbEntity
  8
PART_PADS_SMD_TOP
100
AcDbPolyline
 90
        4
 70
         1
 10
38.57343
 20
15.655
 10
38.57343
 20
15.925
 10
39.37343
 20
15.925
 10
39.37343
 20
15.655
  0
LWPOLYLINE
  5
125
100
AcDbEntity
  8
PART_PADS_SMD_TOP
100
AcDbPolyline
 90
        4
 70
         1
 10
38.57343
 20
15.155
 10
38.57343
 20
15.425
 10
39.37343
 20
15.425
 10
39.37343
 20
15.155
  0
LWPOLYLINE
  5
126
100
AcDbEntity
  8
PART_PADS_SMD_TOP
100
AcDbPolyline
 90
        4
 70
         1
 10
38.57343
 20
14.655
 10
38.57343
 20
14.925
 10
39.37343
 20
14.925
 10
39.37343
 20
14.655
  0
LWPOLYLINE
  5
127
100
AcDbEntity
  8
PART_PADS_SMD_TOP
100
AcDbPolyline
 90
        4
 70
         1
 10
38.57343
 20
14.155
 10
38.57343
 20
14.425
 10
39.37343
 20
14.425
 10
39.37343
 20
14.155
  0
LWPOLYLINE
  5
128
100
AcDbEntity
  8
PART_PADS_SMD_TOP
100
AcDbPolyline
 90
        4
 70
         1
 10
38.57343
 20
13.655
 10
38.57343
 20
13.925
 10
39.37343
 20
13.925
 10
39.37343
 20
13.655
  0
LWPOLYLINE
  5
129
100
AcDbEntity
  8
PART_PADS_SMD_TOP
100
AcDbPolyline
 90
        4
 70
         1
 10
39.55
 20
20.09
 10
39.55
 20
20.59
 10
39.95
 20
20.59
 10
39.95
 20
20.09
  0
LWPOLYLINE
  5
12A
100
AcDbEntity
  8
PART_PADS_SMD_TOP
100
AcDbPolyline
 90
        4
 70
         1
 10
38.75
 20
20.09
 10
38.75
 20
20.59
 10
39.15
 20
20.59
 10
39.15
 20
20.09
  0
LWPOLYLINE
  5
12B
100
AcDbEntity
  8
PART_PADS_SMD_TOP
100
AcDbPolyline
 90
        4
 70
         1
 10
39.55
 20
18.49
 10
39.55
 20
18.99
 10
39.95
 20
18.99
 10
39.95
 20
18.49
  0
LWPOLYLINE
  5
12C
100
AcDbEntity
  8
PART_PADS_SMD_TOP
100
AcDbPolyline
 90
        4
 70
         1
 10
38.75
 20
18.49
 10
38.75
 20
18.99
 10
39.15
 20
18.99
 10
39.15
 20
18.49
  0
LWPOLYLINE
  5
12D
100
AcDbEntity
  8
PART_PADS_SMD_TOP
100
AcDbPolyline
 90
        4
 70
         1
 10
39.55
 20
19.29
 10
39.55
 20
19.79
 10
39.95
 20
19.79
 10
39.95
 20
19.29
  0
LWPOLYLINE
  5
12E
100
AcDbEntity
  8
PART_PADS_SMD_TOP
100
AcDbPolyline
 90
        4
 70
         1
 10
38.75
 20
19.29
 10
38.75
 20
19.79
 10
39.15
 20
19.79
 10
39.15
 20
19.29
  0
LWPOLYLINE
  5
12F
100
AcDbEntity
  8
PART_PADS_SMD_TOP
100
AcDbPolyline
 90
        4
 70
         1
 10
38.75
 20
17.69
 10
38.75
 20
18.19
 10
39.15
 20
18.19
 10
39.15
 20
17.69
  0
LWPOLYLINE
  5
130
100
AcDbEntity
  8
PART_PADS_SMD_TOP
100
AcDbPolyline
 90
        4
 70
         1
 10
39.55
 20
17.69
 10
39.55
 20
18.19
 10
39.95
 20
18.19
 10
39.95
 20
17.69
  0
LWPOLYLINE
  5
131
100
AcDbEntity
  8
PART_PADS_SMD_TOP
100
AcDbPolyline
 90
        4
 70
         1
 10
33.175
 20
6.015
 10
33.175
 20
7.265
 10
34.025
 20
7.265
 10
34.025
 20
6.015
  0
LWPOLYLINE
  5
132
100
AcDbEntity
  8
PART_PADS_SMD_TOP
100
AcDbPolyline
 90
        4
 70
         1
 10
34.725
 20
6.015
 10
34.725
 20
7.265
 10
35.575
 20
7.265
 10
35.575
 20
6.015
  0
LWPOLYLINE
  5
133
100
AcDbEntity
  8
PART_PADS_SMD_TOP
100
AcDbPolyline
 90
        4
 70
         1
 10
36.275
 20
6.015
 10
36.275
 20
7.265
 10
37.125
 20
7.265
 10
37.125
 20
6.015
  0
LWPOLYLINE
  5
134
100
AcDbEntity
  8
PART_PADS_SMD_TOP
100
AcDbPolyline
 90
        4
 70
         1
 10
35.85
 20
7.99
 10
35.85
 20
8.49
 10
36.25
 20
8.49
 10
36.25
 20
7.99
  0
LWPOLYLINE
  5
135
100
AcDbEntity
  8
PART_PADS_SMD_TOP
100
AcDbPolyline
 90
        4
 70
         1
 10
36.65
 20
7.99
 10
36.65
 20
8.49
 10
37.05
 20
8.49
 10
37.05
 20
7.99
  0
CIRCLE
  5
136
100
AcDbEntity
  8
PART_PADS_SMD_TOP
100
AcDbCircle
 10
25.25
 20
6.84
 30
0.0
 40
0.5
  0
CIRCLE
  5
137
100
AcDbEntity
  8
PART_PADS_SMD_TOP
100
AcDbCircle
 10
26.65
 20
7.14
 30
0.0
 40
0.5
  0
CIRCLE
  5
138
100
AcDbEntity
  8
PART_PADS_SMD_TOP
100
AcDbCircle
 10
25.45
 20
8.04
 30
0.0
 40
0.5
  0
CIRCLE
  5
139
100
AcDbEntity
  8
PART_PADS_SMD_TOP
100
AcDbCircle
 10
21.75
 20
7.14
 30
0.0
 40
0.5
  0
CIRCLE
  5
13A
100
AcDbEntity
  8
PART_PADS_SMD_TOP
100
AcDbCircle
 10
20.55
 20
7.94
 30
0.0
 40
0.5
  0
LWPOLYLINE
  5
13B
100
AcDbEntity
  8
PART_PADS_SMD_TOP
100
AcDbPolyline
 90
        4
 70
         1
 10
18.35157
 20
7.89
 10
18.35157
 20
8.39
 10
18.75157
 20
8.39
 10
18.75157
 20
7.89
  0
LWPOLYLINE
  5
13C
100
AcDbEntity
  8
PART_PADS_SMD_TOP
100
AcDbPolyline
 90
        4
 70
         1
 10
19.15157
 20
7.89
 10
19.15157
 20
8.39
 10
19.55157
 20
8.39
 10
19.55157
 20
7.89
  0
LWPOLYLINE
  5
13D
100
AcDbEntity
  8
PART_PADS_SMD_TOP
100
AcDbPolyline
 90
        4
 70
         1
 10
18.8
 20
6.31343
 10
18.8
 20
7.56343
 10
19.65
 20
7.56343
 10
19.65
 20
6.31343
  0
LWPOLYLINE
  5
13E
100
AcDbEntity
  8
PART_PADS_SMD_TOP
100
AcDbPolyline
 90
        4
 70
         1
 10
17.25
 20
6.31343
 10
17.25
 20
7.56343
 10
18.1
 20
7.56343
 10
18.1
 20
6.31343
  0
LWPOLYLINE
  5
13F
100
AcDbEntity
  8
PART_PADS_SMD_TOP
100
AcDbPolyline
 90
        4
 70
         1
 10
30.34843
 20
8.09
 10
30.34843
 20
8.59
 10
30.74843
 20
8.59
 10
30.74843
 20
8.09
  0
LWPOLYLINE
  5
140
100
AcDbEntity
  8
PART_PADS_SMD_TOP
100
AcDbPolyline
 90
        4
 70
         1
 10
29.54843
 20
8.09
 10
29.54843
 20
8.59
 10
29.94843
 20
8.59
 10
29.94843
 20
8.09
  0
LWPOLYLINE
  5
141
100
AcDbEntity
  8
PART_PADS_SMD_TOP
100
AcDbPolyline
 90
        4
 70
         1
 10
29.05
 20
6.51343
 10
29.05
 20
7.76343
 10
29.9
 20
7.76343
 10
29.9
 20
6.51343
  0
LWPOLYLINE
  5
142
100
AcDbEntity
  8
PART_PADS_SMD_TOP
100
AcDbPolyline
 90
        4
 70
         1
 10
30.6
 20
6.51343
 10
30.6
 20
7.76343
 10
31.45
 20
7.76343
 10
31.45
 20
6.51343
  0
LWPOLYLINE
  5
143
100
AcDbEntity
  8
PART_PADS_SMD_TOP
100
AcDbPolyline
 90
        4
 70
         1
 10
14.7
 20
17.04
 10
14.7
 20
17.44
 10
15.2
 20
17.44
 10
15.2
 20
17.04
  0
LWPOLYLINE
  5
144
100
AcDbEntity
  8
PART_PADS_SMD_TOP
100
AcDbPolyline
 90
        4
 70
         1
 10
14.7
 20
16.24
 10
14.7
 20
16.64
 10
15.2
 20
16.64
 10
15.2
 20
16.24
  0
LWPOLYLINE
  5
145
100
AcDbEntity
  8
PART_PADS_SMD_TOP
100
AcDbPolyline
 90
        4
 70
         1
 10
16.35
 20
16.19
 10
16.35
 20
16.69
 10
16.75
 20
16.69
 10
16.75
 20
16.19
  0
LWPOLYLINE
  5
146
100
AcDbEntity
  8
PART_PADS_SMD_TOP
100
AcDbPolyline
 90
        4
 70
         1
 10
15.55
 20
16.19
 10
15.55
 20
16.69
 10
15.95
 20
16.69
 10
15.95
 20
16.19
  0
LWPOLYLINE
  5
147
100
AcDbEntity
  8
PART_PADS_SMD_TOP
100
AcDbPolyline
 90
        4
 70
         1
 10
13.15
 20
16.19
 10
13.15
 20
16.69
 10
13.55
 20
16.69
 10
13.55
 20
16.19
  0
LWPOLYLINE
  5
148
100
AcDbEntity
  8
PART_PADS_SMD_TOP
100
AcDbPolyline
 90
        4
 70
         1
 10
13.95
 20
16.19
 10
13.95
 20
16.69
 10
14.35
 20
16.69
 10
14.35
 20
16.19
  0
LWPOLYLINE
  5
149
100
AcDbEntity
  8
PART_PADS_SMD_TOP
100
AcDbPolyline
 90
        4
 70
         1
 10
35.43
 20
11.07
 42
-1.0
 10
35.43
 20
11.87
 10
36.63
 20
11.87
 42
-1.0
 10
36.63
 20
11.07
  0
LWPOLYLINE
  5
14A
100
AcDbEntity
  8
PART_PADS_SMD_TOP
100
AcDbPolyline
 90
        4
 70
         1
 10
35.43
 20
12.07
 42
-1.0
 10
35.43
 20
12.87
 10
36.63
 20
12.87
 42
-1.0
 10
36.63
 20
12.07
  0
LWPOLYLINE
  5
14B
100
AcDbEntity
  8
PART_PADS_SMD_TOP
100
AcDbPolyline
 90
        4
 70
         1
 10
35.43
 20
13.07
 42
-1.0
 10
35.43
 20
13.87
 10
36.63
 20
13.87
 42
-1.0
 10
36.63
 20
13.07
  0
LWPOLYLINE
  5
14C
100
AcDbEntity
  8
PART_PADS_SMD_TOP
100
AcDbPolyline
 90
        4
 70
         1
 10
35.43
 20
14.07
 42
-1.0
 10
35.43
 20
14.87
 10
36.63
 20
14.87
 42
-1.0
 10
36.63
 20
14.07
  0
LWPOLYLINE
  5
14D
100
AcDbEntity
  8
PART_PADS_SMD_TOP
100
AcDbPolyline
 90
        4
 70
         1
 10
35.43
 20
15.07
 42
-1.0
 10
35.43
 20
15.87
 10
36.63
 20
15.87
 42
-1.0
 10
36.63
 20
15.07
  0
LWPOLYLINE
  5
14E
100
AcDbEntity
  8
PART_PADS_SMD_TOP
100
AcDbPolyline
 90
        4
 70
         1
 10
35.43
 20
16.07
 42
-1.0
 10
35.43
 20
16.87
 10
36.63
 20
16.87
 42
-1.0
 10
36.63
 20
16.07
  0
LWPOLYLINE
  5
14F
100
AcDbEntity
  8
PART_PADS_SMD_TOP
100
AcDbPolyline
 90
        4
 70
         1
 10
35.43
 20
17.07
 42
-1.0
 10
35.43
 20
17.87
 10
36.63
 20
17.87
 42
-1.0
 10
36.63
 20
17.07
  0
LWPOLYLINE
  5
150
100
AcDbEntity
  8
PART_PADS_SMD_TOP
100
AcDbPolyline
 90
        4
 70
         1
 10
35.43
 20
18.07
 42
-1.0
 10
35.43
 20
18.87
 10
36.63
 20
18.87
 42
-1.0
 10
36.63
 20
18.07
  0
LWPOLYLINE
  5
151
100
AcDbEntity
  8
PART_PADS_SMD_TOP
100
AcDbPolyline
 90
        4
 70
         1
 10
35.43
 20
19.07
 42
-1.0
 10
35.43
 20
19.87
 10
36.63
 20
19.87
 42
-1.0
 10
36.63
 20
19.07
  0
LWPOLYLINE
  5
152
100
AcDbEntity
  8
PART_PADS_SMD_TOP
100
AcDbPolyline
 90
        4
 70
         1
 10
35.43
 20
20.07
 42
-1.0
 10
35.43
 20
20.87
 10
36.63
 20
20.87
 42
-1.0
 10
36.63
 20
20.07
  0
LWPOLYLINE
  5
153
100
AcDbEntity
  8
PART_PADS_SMD_TOP
100
AcDbPolyline
 90
        4
 70
         1
 10
35.43
 20
21.07
 42
-1.0
 10
35.43
 20
21.87
 10
36.63
 20
21.87
 42
-1.0
 10
36.63
 20
21.07
  0
LWPOLYLINE
  5
154
100
AcDbEntity
  8
PART_PADS_SMD_TOP
100
AcDbPolyline
 90
        4
 70
         1
 10
34.93
 20
22.37
 42
-1.0
 10
34.13
 20
22.37
 10
34.13
 20
23.57
 42
-1.0
 10
34.93
 20
23.57
  0
LWPOLYLINE
  5
155
100
AcDbEntity
  8
PART_PADS_SMD_TOP
100
AcDbPolyline
 90
        4
 70
         1
 10
33.93
 20
22.37
 42
-1.0
 10
33.13
 20
22.37
 10
33.13
 20
23.57
 42
-1.0
 10
33.93
 20
23.57
  0
LWPOLYLINE
  5
156
100
AcDbEntity
  8
PART_PADS_SMD_TOP
100
AcDbPolyline
 90
        4
 70
         1
 10
32.93
 20
22.37
 42
-1.0
 10
32.13
 20
22.37
 10
32.13
 20
23.57
 42
-1.0
 10
32.93
 20
23.57
  0
LWPOLYLINE
  5
157
100
AcDbEntity
  8
PART_PADS_SMD_TOP
100
AcDbPolyline
 90
        4
 70
         1
 10
31.93
 20
22.37
 42
-1.0
 10
31.13
 20
22.37
 10
31.13
 20
23.57
 42
-1.0
 10
31.93
 20
23.57
  0
LWPOLYLINE
  5
158
100
AcDbEntity
  8
PART_PADS_SMD_TOP
100
AcDbPolyline
 90
        4
 70
         1
 10
30.93
 20
22.37
 42
-1.0
 10
30.13
 20
22.37
 10
30.13
 20
23.57
 42
-1.0
 10
30.93
 20
23.57
  0
LWPOLYLINE
  5
159
100
AcDbEntity
  8
PART_PADS_SMD_TOP
100
AcDbPolyline
 90
        4
 70
         1
 10
29.93
 20
22.37
 42
-1.0
 10
29.13
 20
22.37
 10
29.13
 20
23.57
 42
-1.0
 10
29.93
 20
23.57
  0
LWPOLYLINE
  5
15A
100
AcDbEntity
  8
PART_PADS_SMD_TOP
100
AcDbPolyline
 90
        4
 70
         1
 10
28.93
 20
22.37
 42
-1.0
 10
28.13
 20
22.37
 10
28.13
 20
23.57
 42
-1.0
 10
28.93
 20
23.57
  0
LWPOLYLINE
  5
15B
100
AcDbEntity
  8
PART_PADS_SMD_TOP
100
AcDbPolyline
 90
        4
 70
         1
 10
27.93
 20
22.37
 42
-1.0
 10
27.13
 20
22.37
 10
27.13
 20
23.57
 42
-1.0
 10
27.93
 20
23.57
  0
LWPOLYLINE
  5
15C
100
AcDbEntity
  8
PART_PADS_SMD_TOP
100
AcDbPolyline
 90
        4
 70
         1
 10
26.93
 20
22.37
 42
-1.0
 10
26.13
 20
22.37
 10
26.13
 20
23.57
 42
-1.0
 10
26.93
 20
23.57
  0
LWPOLYLINE
  5
15D
100
AcDbEntity
  8
PART_PADS_SMD_TOP
100
AcDbPolyline
 90
        4
 70
         1
 10
25.93
 20
22.37
 42
-1.0
 10
25.13
 20
22.37
 10
25.13
 20
23.57
 42
-1.0
 10
25.93
 20
23.57
  0
LWPOLYLINE
  5
15E
100
AcDbEntity
  8
PART_PADS_SMD_TOP
100
AcDbPolyline
 90
        4
 70
         1
 10
24.93
 20
22.37
 42
-1.0
 10
24.13
 20
22.37
 10
24.13
 20
23.57
 42
-1.0
 10
24.93
 20
23.57
  0
LWPOLYLINE
  5
15F
100
AcDbEntity
  8
PART_PADS_SMD_TOP
100
AcDbPolyline
 90
        4
 70
         1
 10
23.93
 20
22.37
 42
-1.0
 10
23.13
 20
22.37
 10
23.13
 20
23.57
 42
-1.0
 10
23.93
 20
23.57
  0
LWPOLYLINE
  5
160
100
AcDbEntity
  8
PART_PADS_SMD_TOP
100
AcDbPolyline
 90
        4
 70
         1
 10
22.93
 20
22.37
 42
-1.0
 10
22.13
 20
22.37
 10
22.13
 20
23.57
 42
-1.0
 10
22.93
 20
23.57
  0
LWPOLYLINE
  5
161
100
AcDbEntity
  8
PART_PADS_SMD_TOP
100
AcDbPolyline
 90
        4
 70
         1
 10
21.93
 20
22.37
 42
-1.0
 10
21.13
 20
22.37
 10
21.13
 20
23.57
 42
-1.0
 10
21.93
 20
23.57
  0
LWPOLYLINE
  5
162
100
AcDbEntity
  8
PART_PADS_SMD_TOP
100
AcDbPolyline
 90
        4
 70
         1
 10
20.93
 20
22.37
 42
-1.0
 10
20.13
 20
22.37
 10
20.13
 20
23.57
 42
-1.0
 10
20.93
 20
23.57
  0
LWPOLYLINE
  5
163
100
AcDbEntity
  8
PART_PADS_SMD_TOP
100
AcDbPolyline
 90
        4
 70
         1
 10
19.93
 20
22.37
 42
-1.0
 10
19.13
 20
22.37
 10
19.13
 20
23.57
 42
-1.0
 10
19.93
 20
23.57
  0
LWPOLYLINE
  5
164
100
AcDbEntity
  8
PART_PADS_SMD_TOP
100
AcDbPolyline
 90
        4
 70
         1
 10
19.13
 20
10.57
 42
-1.0
 10
19.93
 20
10.57
 10
19.93
 20
9.37
 42
-1.0
 10
19.13
 20
9.37
  0
LWPOLYLINE
  5
165
100
AcDbEntity
  8
PART_PADS_SMD_TOP
100
AcDbPolyline
 90
        4
 70
         1
 10
20.13
 20
10.57
 42
-1.0
 10
20.93
 20
10.57
 10
20.93
 20
9.37
 42
-1.0
 10
20.13
 20
9.37
  0
LWPOLYLINE
  5
166
100
AcDbEntity
  8
PART_PADS_SMD_TOP
100
AcDbPolyline
 90
        4
 70
         1
 10
21.13
 20
10.57
 42
-1.0
 10
21.93
 20
10.57
 10
21.93
 20
9.37
 42
-1.0
 10
21.13
 20
9.37
  0
LWPOLYLINE
  5
167
100
AcDbEntity
  8
PART_PADS_SMD_TOP
100
AcDbPolyline
 90
        4
 70
         1
 10
22.13
 20
10.57
 42
-1.0
 10
22.93
 20
10.57
 10
22.93
 20
9.37
 42
-1.0
 10
22.13
 20
9.37
  0
LWPOLYLINE
  5
168
100
AcDbEntity
  8
PART_PADS_SMD_TOP
100
AcDbPolyline
 90
        4
 70
         1
 10
23.13
 20
10.57
 42
-1.0
 10
23.93
 20
10.57
 10
23.93
 20
9.37
 42
-1.0
 10
23.13
 20
9.37
  0
LWPOLYLINE
  5
169
100
AcDbEntity
  8
PART_PADS_SMD_TOP
100
AcDbPolyline
 90
        4
 70
         1
 10
24.13
 20
10.57
 42
-1.0
 10
24.93
 20
10.57
 10
24.93
 20
9.37
 42
-1.0
 10
24.13
 20
9.37
  0
LWPOLYLINE
  5
16A
100
AcDbEntity
  8
PART_PADS_SMD_TOP
100
AcDbPolyline
 90
        4
 70
         1
 10
25.13
 20
10.57
 42
-1.0
 10
25.93
 20
10.57
 10
25.93
 20
9.37
 42
-1.0
 10
25.13
 20
9.37
  0
LWPOLYLINE
  5
16B
100
AcDbEntity
  8
PART_PADS_SMD_TOP
100
AcDbPolyline
 90
        4
 70
         1
 10
26.13
 20
10.57
 42
-1.0
 10
26.93
 20
10.57
 10
26.93
 20
9.37
 42
-1.0
 10
26.13
 20
9.37
  0
LWPOLYLINE
  5
16C
100
AcDbEntity
  8
PART_PADS_SMD_TOP
100
AcDbPolyline
 90
        4
 70
         1
 10
27.13
 20
10.57
 42
-1.0
 10
27.93
 20
10.57
 10
27.93
 20
9.37
 42
-1.0
 10
27.13
 20
9.37
  0
LWPOLYLINE
  5
16D
100
AcDbEntity
  8
PART_PADS_SMD_TOP
100
AcDbPolyline
 90
        4
 70
         1
 10
28.13
 20
10.57
 42
-1.0
 10
28.93
 20
10.57
 10
28.93
 20
9.37
 42
-1.0
 10
28.13
 20
9.37
  0
LWPOLYLINE
  5
16E
100
AcDbEntity
  8
PART_PADS_SMD_TOP
100
AcDbPolyline
 90
        4
 70
         1
 10
29.13
 20
10.57
 42
-1.0
 10
29.93
 20
10.57
 10
29.93
 20
9.37
 42
-1.0
 10
29.13
 20
9.37
  0
LWPOLYLINE
  5
16F
100
AcDbEntity
  8
PART_PADS_SMD_TOP
100
AcDbPolyline
 90
        4
 70
         1
 10
30.13
 20
10.57
 42
-1.0
 10
30.93
 20
10.57
 10
30.93
 20
9.37
 42
-1.0
 10
30.13
 20
9.37
  0
LWPOLYLINE
  5
170
100
AcDbEntity
  8
PART_PADS_SMD_TOP
100
AcDbPolyline
 90
        4
 70
         1
 10
31.13
 20
10.57
 42
-1.0
 10
31.93
 20
10.57
 10
31.93
 20
9.37
 42
-1.0
 10
31.13
 20
9.37
  0
LWPOLYLINE
  5
171
100
AcDbEntity
  8
PART_PADS_SMD_TOP
100
AcDbPolyline
 90
        4
 70
         1
 10
32.13
 20
10.57
 42
-1.0
 10
32.93
 20
10.57
 10
32.93
 20
9.37
 42
-1.0
 10
32.13
 20
9.37
  0
LWPOLYLINE
  5
172
100
AcDbEntity
  8
PART_PADS_SMD_TOP
100
AcDbPolyline
 90
        4
 70
         1
 10
33.13
 20
10.57
 42
-1.0
 10
33.93
 20
10.57
 10
33.93
 20
9.37
 42
-1.0
 10
33.13
 20
9.37
  0
LWPOLYLINE
  5
173
100
AcDbEntity
  8
PART_PADS_SMD_TOP
100
AcDbPolyline
 90
        4
 70
         1
 10
34.13
 20
10.57
 42
-1.0
 10
34.93
 20
10.57
 10
34.93
 20
9.37
 42
-1.0
 10
34.13
 20
9.37
  0
LWPOLYLINE
  5
174
100
AcDbEntity
  8
PART_PADS_SMD_TOP
100
AcDbPolyline
 90
        4
 70
         1
 10
18.63
 20
21.87
 42
-1.0
 10
18.63
 20
21.07
 10
17.43
 20
21.07
 42
-1.0
 10
17.43
 20
21.87
  0
LWPOLYLINE
  5
175
100
AcDbEntity
  8
PART_PADS_SMD_TOP
100
AcDbPolyline
 90
        4
 70
         1
 10
18.63
 20
20.87
 42
-1.0
 10
18.63
 20
20.07
 10
17.43
 20
20.07
 42
-1.0
 10
17.43
 20
20.87
  0
LWPOLYLINE
  5
176
100
AcDbEntity
  8
PART_PADS_SMD_TOP
100
AcDbPolyline
 90
        4
 70
         1
 10
18.63
 20
19.87
 42
-1.0
 10
18.63
 20
19.07
 10
17.43
 20
19.07
 42
-1.0
 10
17.43
 20
19.87
  0
LWPOLYLINE
  5
177
100
AcDbEntity
  8
PART_PADS_SMD_TOP
100
AcDbPolyline
 90
        4
 70
         1
 10
18.63
 20
18.87
 42
-1.0
 10
18.63
 20
18.07
 10
17.43
 20
18.07
 42
-1.0
 10
17.43
 20
18.87
  0
LWPOLYLINE
  5
178
100
AcDbEntity
  8
PART_PADS_SMD_TOP
100
AcDbPolyline
 90
        4
 70
         1
 10
18.63
 20
16.87
 42
-1.0
 10
18.63
 20
16.07
 10
17.43
 20
16.07
 42
-1.0
 10
17.43
 20
16.87
  0
LWPOLYLINE
  5
179
100
AcDbEntity
  8
PART_PADS_SMD_TOP
100
AcDbPolyline
 90
        4
 70
         1
 10
18.63
 20
14.87
 42
-1.0
 10
18.63
 20
14.07
 10
17.43
 20
14.07
 42
-1.0
 10
17.43
 20
14.87
  0
LWPOLYLINE
  5
17A
100
AcDbEntity
  8
PART_PADS_SMD_TOP
100
AcDbPolyline
 90
        4
 70
         1
 10
18.63
 20
13.87
 42
-1.0
 10
18.63
 20
13.07
 10
17.43
 20
13.07
 42
-1.0
 10
17.43
 20
13.87
  0
LWPOLYLINE
  5
17B
100
AcDbEntity
  8
PART_PADS_SMD_TOP
100
AcDbPolyline
 90
        4
 70
         1
 10
18.63
 20
12.87
 42
-1.0
 10
18.63
 20
12.07
 10
17.43
 20
12.07
 42
-1.0
 10
17.43
 20
12.87
  0
LWPOLYLINE
  5
17C
100
AcDbEntity
  8
PART_PADS_SMD_TOP
100
AcDbPolyline
 90
        4
 70
         1
 10
18.63
 20
11.87
 42
-1.0
 10
18.63
 20
11.07
 10
17.43
 20
11.07
 42
-1.0
 10
17.43
 20
11.87
  0
LWPOLYLINE
  5
17D
100
AcDbEntity
  8
PART_PADS_SMD_TOP
100
AcDbPolyline
 90
        4
 70
         1
 10
24.23
 20
14.47
 10
24.23
 20
15.17
 10
25.43
 20
15.17
 10
25.43
 20
14.47
  0
LWPOLYLINE
  5
17E
100
AcDbEntity
  8
PART_PADS_SMD_TOP
100
AcDbPolyline
 90
        4
 70
         1
 10
28.63
 20
14.47
 10
28.63
 20
15.17
 10
29.83
 20
15.17
 10
29.83
 20
14.47
  0
LWPOLYLINE
  5
17F
100
AcDbEntity
  8
PART_PADS_SMD_TOP
100
AcDbPolyline
 90
        4
 70
         1
 10
28.63
 20
17.77
 10
28.63
 20
18.47
 10
29.83
 20
18.47
 10
29.83
 20
17.77
  0
LWPOLYLINE
  5
180
100
AcDbEntity
  8
PART_PADS_SMD_TOP
100
AcDbPolyline
 90
        4
 70
         1
 10
24.23
 20
17.77
 10
24.23
 20
18.47
 10
25.43
 20
18.47
 10
25.43
 20
17.77
  0
LWPOLYLINE
  5
181
100
AcDbEntity
  8
PART_PADS_SMD_TOP
100
AcDbPolyline
 90
        4
 70
         1
 10
30.75
 20
24.59
 10
30.75
 20
25.09
 10
31.15
 20
25.09
 10
31.15
 20
24.59
  0
LWPOLYLINE
  5
182
100
AcDbEntity
  8
PART_PADS_SMD_TOP
100
AcDbPolyline
 90
        4
 70
         1
 10
31.55
 20
24.59
 10
31.55
 20
25.09
 10
31.95
 20
25.09
 10
31.95
 20
24.59
  0
CIRCLE
  5
183
100
AcDbEntity
  8
PART_PADS_SMD_TOP
100
AcDbCircle
 10
29.65
 20
24.84
 30
0.0
 40
0.5
  0
CIRCLE
  5
184
100
AcDbEntity
  8
PART_PADS_SMD_TOP
100
AcDbCircle
 10
28.35
 20
25.44
 30
0.0
 40
0.5
  0
LWPOLYLINE
  5
185
100
AcDbEntity
  8
PART_PADS_SMD_TOP
100
AcDbPolyline
 90
        4
 70
         1
 10
31.15
 20
25.59
 10
31.15
 20
26.09
 10
31.55
 20
26.09
 10
31.55
 20
25.59
  0
LWPOLYLINE
  5
186
100
AcDbEntity
  8
PART_PADS_SMD_TOP
100
AcDbPolyline
 90
        4
 70
         1
 10
30.35
 20
25.59
 10
30.35
 20
26.09
 10
30.75
 20
26.09
 10
30.75
 20
25.59
  0
TEXT
  5
188
100
AcDbEntity
  8
PIN_NUMBERS_TOP
100
AcDbText
 10
11.957068
 20
16.227496
 30
0.0
 40
0.508
  1
1
  7
COURIER_NEW
 72
         1
 11
12.175
 21
16.45
 31
0.0
100
AcDbText
 73
         2
  0
TEXT
  5
189
100
AcDbEntity
  8
PIN_NUMBERS_TOP
100
AcDbText
 10
5.207068
 20
16.227496
 30
0.0
 40
0.508
  1
2
  7
COURIER_NEW
 72
         1
 11
5.425
 21
16.45
 31
0.0
100
AcDbText
 73
         2
  0
TEXT
  5
18A
100
AcDbEntity
  8
PIN_NUMBERS_TOP
100
AcDbText
 10
43.584423
 20
12.190141
 30
0.0
 40
0.508
  1
2
  7
COURIER_NEW
 72
         1
 11
43.802355
 21
12.412645
 31
0.0
100
AcDbText
 73
         2
  0
TEXT
  5
18B
100
AcDbEntity
  8
PIN_NUMBERS_TOP
100
AcDbText
 10
43.584423
 20
12.990141
 30
0.0
 40
0.508
  1
1
  7
COURIER_NEW
 72
         1
 11
43.802355
 21
13.212645
 31
0.0
100
AcDbText
 73
         2
  0
TEXT
  5
18C
100
AcDbEntity
  8
PIN_NUMBERS_TOP
100
AcDbText
 10
44.788493
 20
7.364091
 30
0.0
 40
0.508
  1
1
  7
COURIER_NEW
 72
         1
 11
45.006425
 21
7.586595
 31
0.0
100
AcDbText
 73
         2
  0
TEXT
  5
18D
100
AcDbEntity
  8
PIN_NUMBERS_TOP
100
AcDbText
 10
45.438493
 20
7.364091
 30
0.0
 40
0.508
  1
2
  7
COURIER_NEW
 72
         1
 11
45.656425
 21
7.586595
 31
0.0
100
AcDbText
 73
         2
  0
TEXT
  5
18E
100
AcDbEntity
  8
PIN_NUMBERS_TOP
100
AcDbText
 10
46.088493
 20
7.364091
 30
0.0
 40
0.508
  1
3
  7
COURIER_NEW
 72
         1
 11
46.306425
 21
7.586595
 31
0.0
100
AcDbText
 73
         2
  0
TEXT
  5
18F
100
AcDbEntity
  8
PIN_NUMBERS_TOP
100
AcDbText
 10
46.738493
 20
7.364091
 30
0.0
 40
0.508
  1
4
  7
COURIER_NEW
 72
         1
 11
46.956425
 21
7.586595
 31
0.0
100
AcDbText
 73
         2
  0
TEXT
  5
190
100
AcDbEntity
  8
PIN_NUMBERS_TOP
100
AcDbText
 10
47.388493
 20
7.364091
 30
0.0
 40
0.508
  1
5
  7
COURIER_NEW
 72
         1
 11
47.606425
 21
7.586595
 31
0.0
100
AcDbText
 73
         2
  0
TEXT
  5
191
100
AcDbEntity
  8
PIN_NUMBERS_TOP
100
AcDbText
 10
48.038493
 20
7.364091
 30
0.0
 40
0.508
  1
6
  7
COURIER_NEW
 72
         1
 11
48.256425
 21
7.586595
 31
0.0
100
AcDbText
 73
         2
  0
TEXT
  5
192
100
AcDbEntity
  8
PIN_NUMBERS_TOP
100
AcDbText
 10
48.688493
 20
7.364091
 30
0.0
 40
0.508
  1
7
  7
COURIER_NEW
 72
         1
 11
48.906425
 21
7.586595
 31
0.0
100
AcDbText
 73
         2
  0
TEXT
  5
193
100
AcDbEntity
  8
PIN_NUMBERS_TOP
100
AcDbText
 10
49.338493
 20
7.364091
 30
0.0
 40
0.508
  1
8
  7
COURIER_NEW
 72
         1
 11
49.556425
 21
7.586595
 31
0.0
100
AcDbText
 73
         2
  0
TEXT
  5
194
100
AcDbEntity
  8
PIN_NUMBERS_TOP
100
AcDbText
 10
49.338493
 20
13.264091
 30
0.0
 40
0.508
  1
9
  7
COURIER_NEW
 72
         1
 11
49.556425
 21
13.486595
 31
0.0
100
AcDbText
 73
         2
  0
TEXT
  5
195
100
AcDbEntity
  8
PIN_NUMBERS_TOP
100
AcDbText
 10
48.470561
 20
13.264091
 30
0.0
 40
0.508
  1
10
  7
COURIER_NEW
 72
         1
 11
48.906425
 21
13.486595
 31
0.0
100
AcDbText
 73
         2
  0
TEXT
  5
196
100
AcDbEntity
  8
PIN_NUMBERS_TOP
100
AcDbText
 10
47.820561
 20
13.264091
 30
0.0
 40
0.508
  1
11
  7
COURIER_NEW
 72
         1
 11
48.256425
 21
13.486595
 31
0.0
100
AcDbText
 73
         2
  0
TEXT
  5
197
100
AcDbEntity
  8
PIN_NUMBERS_TOP
100
AcDbText
 10
47.170561
 20
13.264091
 30
0.0
 40
0.508
  1
12
  7
COURIER_NEW
 72
         1
 11
47.606425
 21
13.486595
 31
0.0
100
AcDbText
 73
         2
  0
TEXT
  5
198
100
AcDbEntity
  8
PIN_NUMBERS_TOP
100
AcDbText
 10
46.520561
 20
13.264091
 30
0.0
 40
0.508
  1
13
  7
COURIER_NEW
 72
         1
 11
46.956425
 21
13.486595
 31
0.0
100
AcDbText
 73
         2
  0
TEXT
  5
199
100
AcDbEntity
  8
PIN_NUMBERS_TOP
100
AcDbText
 10
45.870561
 20
13.264091
 30
0.0
 40
0.508
  1
14
  7
COURIER_NEW
 72
         1
 11
46.306425
 21
13.486595
 31
0.0
100
AcDbText
 73
         2
  0
TEXT
  5
19A
100
AcDbEntity
  8
PIN_NUMBERS_TOP
100
AcDbText
 10
45.220561
 20
13.264091
 30
0.0
 40
0.508
  1
15
  7
COURIER_NEW
 72
         1
 11
45.656425
 21
13.486595
 31
0.0
100
AcDbText
 73
         2
  0
TEXT
  5
19B
100
AcDbEntity
  8
PIN_NUMBERS_TOP
100
AcDbText
 10
44.570561
 20
13.264091
 30
0.0
 40
0.508
  1
16
  7
COURIER_NEW
 72
         1
 11
45.006425
 21
13.486595
 31
0.0
100
AcDbText
 73
         2
  0
TEXT
  5
19C
100
AcDbEntity
  8
PIN_NUMBERS_TOP
100
AcDbText
 10
45.504713
 20
6.140141
 30
0.0
 40
0.508
  1
2
  7
COURIER_NEW
 72
         1
 11
45.722645
 21
6.362645
 31
0.0
100
AcDbText
 73
         2
  0
TEXT
  5
19D
100
AcDbEntity
  8
PIN_NUMBERS_TOP
100
AcDbText
 10
44.704713
 20
6.140141
 30
0.0
 40
0.508
  1
1
  7
COURIER_NEW
 72
         1
 11
44.922645
 21
6.362645
 31
0.0
100
AcDbText
 73
         2
  0
TEXT
  5
19E
100
AcDbEntity
  8
PIN_NUMBERS_TOP
100
AcDbText
 10
42.233638
 20
14.517496
 30
0.0
 40
0.508
  1
2
  7
COURIER_NEW
 72
         1
 11
42.45157
 21
14.74
 31
0.0
100
AcDbText
 73
         2
  0
TEXT
  5
19F
100
AcDbEntity
  8
PIN_NUMBERS_TOP
100
AcDbText
 10
42.233638
 20
13.717496
 30
0.0
 40
0.508
  1
1
  7
COURIER_NEW
 72
         1
 11
42.45157
 21
13.94
 31
0.0
100
AcDbText
 73
         2
  0
TEXT
  5
1A0
100
AcDbEntity
  8
PIN_NUMBERS_TOP
100
AcDbText
 10
22.332068
 20
25.617496
 30
0.0
 40
0.508
  1
2
  7
COURIER_NEW
 72
         1
 11
22.55
 21
25.84
 31
0.0
100
AcDbText
 73
         2
  0
TEXT
  5
1A1
100
AcDbEntity
  8
PIN_NUMBERS_TOP
100
AcDbText
 10
21.532068
 20
25.617496
 30
0.0
 40
0.508
  1
1
  7
COURIER_NEW
 72
         1
 11
21.75
 21
25.84
 31
0.0
100
AcDbText
 73
         2
  0
TEXT
  5
1A2
100
AcDbEntity
  8
PIN_NUMBERS_TOP
100
AcDbText
 10
20.932068
 20
24.617496
 30
0.0
 40
0.508
  1
2
  7
COURIER_NEW
 72
         1
 11
21.15
 21
24.84
 31
0.0
100
AcDbText
 73
         2
  0
TEXT
  5
1A3
100
AcDbEntity
  8
PIN_NUMBERS_TOP
100
AcDbText
 10
21.732068
 20
24.617496
 30
0.0
 40
0.508
  1
1
  7
COURIER_NEW
 72
         1
 11
21.95
 21
24.84
 31
0.0
100
AcDbText
 73
         2
  0
TEXT
  5
1A4
100
AcDbEntity
  8
PIN_NUMBERS_TOP
100
AcDbText
 10
17.832068
 20
24.619066
 30
0.0
 40
0.508
  1
2
  7
COURIER_NEW
 72
         1
 11
18.05
 21
24.84157
 31
0.0
100
AcDbText
 73
         2
  0
TEXT
  5
1A5
100
AcDbEntity
  8
PIN_NUMBERS_TOP
100
AcDbText
 10
17.032068
 20
24.619066
 30
0.0
 40
0.508
  1
1
  7
COURIER_NEW
 72
         1
 11
17.25
 21
24.84157
 31
0.0
100
AcDbText
 73
         2
  0
TEXT
  5
1A6
100
AcDbEntity
  8
PIN_NUMBERS_TOP
100
AcDbText
 10
19.032068
 20
24.617496
 30
0.0
 40
0.508
  1
1
  7
COURIER_NEW
 72
         1
 11
19.25
 21
24.84
 31
0.0
100
AcDbText
 73
         2
  0
TEXT
  5
1A7
100
AcDbEntity
  8
PIN_NUMBERS_TOP
100
AcDbText
 10
20.132068
 20
25.317496
 30
0.0
 40
0.508
  1
1
  7
COURIER_NEW
 72
         1
 11
20.35
 21
25.54
 31
0.0
100
AcDbText
 73
         2
  0
TEXT
  5
1A8
100
AcDbEntity
  8
PIN_NUMBERS_TOP
100
AcDbText
 10
17.842068
 20
25.527496
 30
0.0
 40
0.508
  1
2
  7
COURIER_NEW
 72
         1
 11
18.06
 21
25.75
 31
0.0
100
AcDbText
 73
         2
  0
TEXT
  5
1A9
100
AcDbEntity
  8
PIN_NUMBERS_TOP
100
AcDbText
 10
18.642068
 20
25.527496
 30
0.0
 40
0.508
  1
1
  7
COURIER_NEW
 72
         1
 11
18.86
 21
25.75
 31
0.0
100
AcDbText
 73
         2
  0
TEXT
  5
1AA
100
AcDbEntity
  8
PIN_NUMBERS_TOP
100
AcDbText
 10
25.732068
 20
24.617496
 30
0.0
 40
0.508
  1
2
  7
COURIER_NEW
 72
         1
 11
25.95
 21
24.84
 31
0.0
100
AcDbText
 73
         2
  0
TEXT
  5
1AB
100
AcDbEntity
  8
PIN_NUMBERS_TOP
100
AcDbText
 10
24.932068
 20
24.617496
 30
0.0
 40
0.508
  1
1
  7
COURIER_NEW
 72
         1
 11
25.15
 21
24.84
 31
0.0
100
AcDbText
 73
         2
  0
TEXT
  5
1AC
100
AcDbEntity
  8
PIN_NUMBERS_TOP
100
AcDbText
 10
26.632068
 20
24.617496
 30
0.0
 40
0.508
  1
1
  7
COURIER_NEW
 72
         1
 11
26.85
 21
24.84
 31
0.0
100
AcDbText
 73
         2
  0
TEXT
  5
1AD
100
AcDbEntity
  8
PIN_NUMBERS_TOP
100
AcDbText
 10
25.732068
 20
25.617496
 30
0.0
 40
0.508
  1
2
  7
COURIER_NEW
 72
         1
 11
25.95
 21
25.84
 31
0.0
100
AcDbText
 73
         2
  0
TEXT
  5
1AE
100
AcDbEntity
  8
PIN_NUMBERS_TOP
100
AcDbText
 10
26.532068
 20
25.617496
 30
0.0
 40
0.508
  1
1
  7
COURIER_NEW
 72
         1
 11
26.75
 21
25.84
 31
0.0
100
AcDbText
 73
         2
  0
TEXT
  5
1AF
100
AcDbEntity
  8
PIN_NUMBERS_TOP
100
AcDbText
 10
23.332068
 20
24.917496
 30
0.0
 40
0.508
  1
1
  7
COURIER_NEW
 72
         1
 11
23.55
 21
25.14
 31
0.0
100
AcDbText
 73
         2
  0
TEXT
  5
1B0
100
AcDbEntity
  8
PIN_NUMBERS_TOP
100
AcDbText
 10
23.332068
 20
7.917496
 30
0.0
 40
0.508
  1
2
  7
COURIER_NEW
 72
         1
 11
23.55
 21
8.14
 31
0.0
100
AcDbText
 73
         2
  0
TEXT
  5
1B1
100
AcDbEntity
  8
PIN_NUMBERS_TOP
100
AcDbText
 10
24.132068
 20
7.917496
 30
0.0
 40
0.508
  1
1
  7
COURIER_NEW
 72
         1
 11
24.35
 21
8.14
 31
0.0
100
AcDbText
 73
         2
  0
TEXT
  5
1B2
100
AcDbEntity
  8
PIN_NUMBERS_TOP
100
AcDbText
 10
39.422068
 20
23.427496
 30
0.0
 40
0.508
  1
2
  7
COURIER_NEW
 72
         1
 11
39.64
 21
23.65
 31
0.0
100
AcDbText
 73
         2
  0
TEXT
  5
1B3
100
AcDbEntity
  8
PIN_NUMBERS_TOP
100
AcDbText
 10
39.422068
 20
24.227496
 30
0.0
 40
0.508
  1
1
  7
COURIER_NEW
 72
         1
 11
39.64
 21
24.45
 31
0.0
100
AcDbText
 73
         2
  0
TEXT
  5
1B4
100
AcDbEntity
  8
PIN_NUMBERS_TOP
100
AcDbText
 10
41.932068
 20
17.817496
 30
0.0
 40
0.508
  1
2
  7
COURIER_NEW
 72
         1
 11
42.15
 21
18.04
 31
0.0
100
AcDbText
 73
         2
  0
TEXT
  5
1B5
100
AcDbEntity
  8
PIN_NUMBERS_TOP
100
AcDbText
 10
41.132068
 20
17.817496
 30
0.0
 40
0.508
  1
1
  7
COURIER_NEW
 72
         1
 11
41.35
 21
18.04
 31
0.0
100
AcDbText
 73
         2
  0
TEXT
  5
1B6
100
AcDbEntity
  8
PIN_NUMBERS_TOP
100
AcDbText
 10
49.242068
 20
22.777496
 30
0.0
 40
0.508
  1
1
  7
COURIER_NEW
 72
         1
 11
49.46
 21
23.0
 31
0.0
100
AcDbText
 73
         2
  0
TEXT
  5
1B7
100
AcDbEntity
  8
PIN_NUMBERS_TOP
100
AcDbText
 10
49.242068
 20
21.227496
 30
0.0
 40
0.508
  1
2
  7
COURIER_NEW
 72
         1
 11
49.46
 21
21.45
 31
0.0
100
AcDbText
 73
         2
  0
TEXT
  5
1B8
100
AcDbEntity
  8
PIN_NUMBERS_TOP
100
AcDbText
 10
49.242068
 20
19.677496
 30
0.0
 40
0.508
  1
3
  7
COURIER_NEW
 72
         1
 11
49.46
 21
19.9
 31
0.0
100
AcDbText
 73
         2
  0
TEXT
  5
1B9
100
AcDbEntity
  8
PIN_NUMBERS_TOP
100
AcDbText
 10
49.222068
 20
18.077496
 30
0.0
 40
0.508
  1
1
  7
COURIER_NEW
 72
         1
 11
49.44
 21
18.3
 31
0.0
100
AcDbText
 73
         2
  0
TEXT
  5
1BA
100
AcDbEntity
  8
PIN_NUMBERS_TOP
100
AcDbText
 10
49.222068
 20
16.527496
 30
0.0
 40
0.508
  1
2
  7
COURIER_NEW
 72
         1
 11
49.44
 21
16.75
 31
0.0
100
AcDbText
 73
         2
  0
TEXT
  5
1BB
100
AcDbEntity
  8
PIN_NUMBERS_TOP
100
AcDbText
 10
49.222068
 20
14.977496
 30
0.0
 40
0.508
  1
3
  7
COURIER_NEW
 72
         1
 11
49.44
 21
15.2
 31
0.0
100
AcDbText
 73
         2
  0
TEXT
  5
1BC
100
AcDbEntity
  8
PIN_NUMBERS_TOP
100
AcDbText
 10
48.080498
 20
24.167496
 30
0.0
 40
0.508
  1
2
  7
COURIER_NEW
 72
         1
 11
48.29843
 21
24.39
 31
0.0
100
AcDbText
 73
         2
  0
TEXT
  5
1BD
100
AcDbEntity
  8
PIN_NUMBERS_TOP
100
AcDbText
 10
48.080498
 20
24.967496
 30
0.0
 40
0.508
  1
1
  7
COURIER_NEW
 72
         1
 11
48.29843
 21
25.19
 31
0.0
100
AcDbText
 73
         2
  0
TEXT
  5
1BE
100
AcDbEntity
  8
PIN_NUMBERS_TOP
100
AcDbText
 10
47.673638
 20
18.577496
 30
0.0
 40
0.508
  1
2
  7
COURIER_NEW
 72
         1
 11
47.89157
 21
18.8
 31
0.0
100
AcDbText
 73
         2
  0
TEXT
  5
1BF
100
AcDbEntity
  8
PIN_NUMBERS_TOP
100
AcDbText
 10
47.673638
 20
19.377496
 30
0.0
 40
0.508
  1
1
  7
COURIER_NEW
 72
         1
 11
47.89157
 21
19.6
 31
0.0
100
AcDbText
 73
         2
  0
TEXT
  5
1C0
100
AcDbEntity
  8
PIN_NUMBERS_TOP
100
AcDbText
 10
46.627998
 20
24.956686
 30
0.0
 40
0.508
  1
1
  7
COURIER_NEW
 72
         1
 11
46.84593
 21
25.17919
 31
0.0
100
AcDbText
 73
         2
  0
TEXT
  5
1C1
100
AcDbEntity
  8
PIN_NUMBERS_TOP
100
AcDbText
 10
45.977998
 20
24.956686
 30
0.0
 40
0.508
  1
2
  7
COURIER_NEW
 72
         1
 11
46.19593
 21
25.17919
 31
0.0
100
AcDbText
 73
         2
  0
TEXT
  5
1C2
100
AcDbEntity
  8
PIN_NUMBERS_TOP
100
AcDbText
 10
45.327998
 20
24.956686
 30
0.0
 40
0.508
  1
3
  7
COURIER_NEW
 72
         1
 11
45.54593
 21
25.17919
 31
0.0
100
AcDbText
 73
         2
  0
TEXT
  5
1C3
100
AcDbEntity
  8
PIN_NUMBERS_TOP
100
AcDbText
 10
44.677998
 20
24.956686
 30
0.0
 40
0.508
  1
4
  7
COURIER_NEW
 72
         1
 11
44.89593
 21
25.17919
 31
0.0
100
AcDbText
 73
         2
  0
TEXT
  5
1C4
100
AcDbEntity
  8
PIN_NUMBERS_TOP
100
AcDbText
 10
44.027998
 20
24.956686
 30
0.0
 40
0.508
  1
5
  7
COURIER_NEW
 72
         1
 11
44.24593
 21
25.17919
 31
0.0
100
AcDbText
 73
         2
  0
TEXT
  5
1C5
100
AcDbEntity
  8
PIN_NUMBERS_TOP
100
AcDbText
 10
43.377998
 20
24.956686
 30
0.0
 40
0.508
  1
6
  7
COURIER_NEW
 72
         1
 11
43.59593
 21
25.17919
 31
0.0
100
AcDbText
 73
         2
  0
TEXT
  5
1C6
100
AcDbEntity
  8
PIN_NUMBERS_TOP
100
AcDbText
 10
42.727998
 20
24.956686
 30
0.0
 40
0.508
  1
7
  7
COURIER_NEW
 72
         1
 11
42.94593
 21
25.17919
 31
0.0
100
AcDbText
 73
         2
  0
TEXT
  5
1C7
100
AcDbEntity
  8
PIN_NUMBERS_TOP
100
AcDbText
 10
42.077998
 20
24.956686
 30
0.0
 40
0.508
  1
8
  7
COURIER_NEW
 72
         1
 11
42.29593
 21
25.17919
 31
0.0
100
AcDbText
 73
         2
  0
TEXT
  5
1C8
100
AcDbEntity
  8
PIN_NUMBERS_TOP
100
AcDbText
 10
41.427998
 20
24.956686
 30
0.0
 40
0.508
  1
9
  7
COURIER_NEW
 72
         1
 11
41.64593
 21
25.17919
 31
0.0
100
AcDbText
 73
         2
  0
TEXT
  5
1C9
100
AcDbEntity
  8
PIN_NUMBERS_TOP
100
AcDbText
 10
40.560066
 20
24.956686
 30
0.0
 40
0.508
  1
10
  7
COURIER_NEW
 72
         1
 11
40.99593
 21
25.17919
 31
0.0
100
AcDbText
 73
         2
  0
TEXT
  5
1CA
100
AcDbEntity
  8
PIN_NUMBERS_TOP
100
AcDbText
 10
40.560066
 20
19.056686
 30
0.0
 40
0.508
  1
11
  7
COURIER_NEW
 72
         1
 11
40.99593
 21
19.27919
 31
0.0
100
AcDbText
 73
         2
  0
TEXT
  5
1CB
100
AcDbEntity
  8
PIN_NUMBERS_TOP
100
AcDbText
 10
41.210066
 20
19.056686
 30
0.0
 40
0.508
  1
12
  7
COURIER_NEW
 72
         1
 11
41.64593
 21
19.27919
 31
0.0
100
AcDbText
 73
         2
  0
TEXT
  5
1CC
100
AcDbEntity
  8
PIN_NUMBERS_TOP
100
AcDbText
 10
41.860066
 20
19.056686
 30
0.0
 40
0.508
  1
13
  7
COURIER_NEW
 72
         1
 11
42.29593
 21
19.27919
 31
0.0
100
AcDbText
 73
         2
  0
TEXT
  5
1CD
100
AcDbEntity
  8
PIN_NUMBERS_TOP
100
AcDbText
 10
42.510066
 20
19.056686
 30
0.0
 40
0.508
  1
14
  7
COURIER_NEW
 72
         1
 11
42.94593
 21
19.27919
 31
0.0
100
AcDbText
 73
         2
  0
TEXT
  5
1CE
100
AcDbEntity
  8
PIN_NUMBERS_TOP
100
AcDbText
 10
43.160066
 20
19.056686
 30
0.0
 40
0.508
  1
15
  7
COURIER_NEW
 72
         1
 11
43.59593
 21
19.27919
 31
0.0
100
AcDbText
 73
         2
  0
TEXT
  5
1CF
100
AcDbEntity
  8
PIN_NUMBERS_TOP
100
AcDbText
 10
43.810066
 20
19.056686
 30
0.0
 40
0.508
  1
16
  7
COURIER_NEW
 72
         1
 11
44.24593
 21
19.27919
 31
0.0
100
AcDbText
 73
         2
  0
TEXT
  5
1D0
100
AcDbEntity
  8
PIN_NUMBERS_TOP
100
AcDbText
 10
44.460066
 20
19.056686
 30
0.0
 40
0.508
  1
17
  7
COURIER_NEW
 72
         1
 11
44.89593
 21
19.27919
 31
0.0
100
AcDbText
 73
         2
  0
TEXT
  5
1D1
100
AcDbEntity
  8
PIN_NUMBERS_TOP
100
AcDbText
 10
45.110066
 20
19.056686
 30
0.0
 40
0.508
  1
18
  7
COURIER_NEW
 72
         1
 11
45.54593
 21
19.27919
 31
0.0
100
AcDbText
 73
         2
  0
TEXT
  5
1D2
100
AcDbEntity
  8
PIN_NUMBERS_TOP
100
AcDbText
 10
45.760066
 20
19.056686
 30
0.0
 40
0.508
  1
19
  7
COURIER_NEW
 72
         1
 11
46.19593
 21
19.27919
 31
0.0
100
AcDbText
 73
         2
  0
TEXT
  5
1D3
100
AcDbEntity
  8
PIN_NUMBERS_TOP
100
AcDbText
 10
46.410066
 20
19.056686
 30
0.0
 40
0.508
  1
20
  7
COURIER_NEW
 72
         1
 11
46.84593
 21
19.27919
 31
0.0
100
AcDbText
 73
         2
  0
TEXT
  5
1D4
100
AcDbEntity
  8
PIN_NUMBERS_TOP
100
AcDbText
 10
45.823638
 20
17.227496
 30
0.0
 40
0.508
  1
7
  7
COURIER_NEW
 72
         1
 11
46.04157
 21
17.45
 31
0.0
100
AcDbText
 73
         2
  0
TEXT
  5
1D5
100
AcDbEntity
  8
PIN_NUMBERS_TOP
100
AcDbText
 10
45.023638
 20
17.227496
 30
0.0
 40
0.508
  1
6
  7
COURIER_NEW
 72
         1
 11
45.24157
 21
17.45
 31
0.0
100
AcDbText
 73
         2
  0
TEXT
  5
1D6
100
AcDbEntity
  8
PIN_NUMBERS_TOP
100
AcDbText
 10
45.023638
 20
15.627496
 30
0.0
 40
0.508
  1
3
  7
COURIER_NEW
 72
         1
 11
45.24157
 21
15.85
 31
0.0
100
AcDbText
 73
         2
  0
TEXT
  5
1D7
100
AcDbEntity
  8
PIN_NUMBERS_TOP
100
AcDbText
 10
45.823638
 20
15.627496
 30
0.0
 40
0.508
  1
2
  7
COURIER_NEW
 72
         1
 11
46.04157
 21
15.85
 31
0.0
100
AcDbText
 73
         2
  0
TEXT
  5
1D8
100
AcDbEntity
  8
PIN_NUMBERS_TOP
100
AcDbText
 10
46.673638
 20
17.227496
 30
0.0
 40
0.508
  1
8
  7
COURIER_NEW
 72
         1
 11
46.89157
 21
17.45
 31
0.0
100
AcDbText
 73
         2
  0
TEXT
  5
1D9
100
AcDbEntity
  8
PIN_NUMBERS_TOP
100
AcDbText
 10
44.173638
 20
17.227496
 30
0.0
 40
0.508
  1
5
  7
COURIER_NEW
 72
         1
 11
44.39157
 21
17.45
 31
0.0
100
AcDbText
 73
         2
  0
TEXT
  5
1DA
100
AcDbEntity
  8
PIN_NUMBERS_TOP
100
AcDbText
 10
44.173638
 20
15.627496
 30
0.0
 40
0.508
  1
4
  7
COURIER_NEW
 72
         1
 11
44.39157
 21
15.85
 31
0.0
100
AcDbText
 73
         2
  0
TEXT
  5
1DB
100
AcDbEntity
  8
PIN_NUMBERS_TOP
100
AcDbText
 10
46.673638
 20
15.627496
 30
0.0
 40
0.508
  1
1
  7
COURIER_NEW
 72
         1
 11
46.89157
 21
15.85
 31
0.0
100
AcDbText
 73
         2
  0
TEXT
  5
1DC
100
AcDbEntity
  8
PIN_NUMBERS_TOP
100
AcDbText
 10
43.123638
 20
16.127496
 30
0.0
 40
0.508
  1
2
  7
COURIER_NEW
 72
         1
 11
43.34157
 21
16.35
 31
0.0
100
AcDbText
 73
         2
  0
TEXT
  5
1DD
100
AcDbEntity
  8
PIN_NUMBERS_TOP
100
AcDbText
 10
43.123638
 20
16.927496
 30
0.0
 40
0.508
  1
1
  7
COURIER_NEW
 72
         1
 11
43.34157
 21
17.15
 31
0.0
100
AcDbText
 73
         2
  0
TEXT
  5
1DE
100
AcDbEntity
  8
PIN_NUMBERS_TOP
100
AcDbText
 10
41.155498
 20
13.567496
 30
0.0
 40
0.508
  1
1
  7
COURIER_NEW
 72
         1
 11
41.37343
 21
13.79
 31
0.0
100
AcDbText
 73
         2
  0
TEXT
  5
1DF
100
AcDbEntity
  8
PIN_NUMBERS_TOP
100
AcDbText
 10
41.155498
 20
14.067496
 30
0.0
 40
0.508
  1
2
  7
COURIER_NEW
 72
         1
 11
41.37343
 21
14.29
 31
0.0
100
AcDbText
 73
         2
  0
TEXT
  5
1E0
100
AcDbEntity
  8
PIN_NUMBERS_TOP
100
AcDbText
 10
41.155498
 20
14.567496
 30
0.0
 40
0.508
  1
3
  7
COURIER_NEW
 72
         1
 11
41.37343
 21
14.79
 31
0.0
100
AcDbText
 73
         2
  0
TEXT
  5
1E1
100
AcDbEntity
  8
PIN_NUMBERS_TOP
100
AcDbText
 10
41.155498
 20
15.067496
 30
0.0
 40
0.508
  1
4
  7
COURIER_NEW
 72
         1
 11
41.37343
 21
15.29
 31
0.0
100
AcDbText
 73
         2
  0
TEXT
  5
1E2
100
AcDbEntity
  8
PIN_NUMBERS_TOP
100
AcDbText
 10
41.155498
 20
15.567496
 30
0.0
 40
0.508
  1
5
  7
COURIER_NEW
 72
         1
 11
41.37343
 21
15.79
 31
0.0
100
AcDbText
 73
         2
  0
TEXT
  5
1E3
100
AcDbEntity
  8
PIN_NUMBERS_TOP
100
AcDbText
 10
41.155498
 20
16.067496
 30
0.0
 40
0.508
  1
6
  7
COURIER_NEW
 72
         1
 11
41.37343
 21
16.29
 31
0.0
100
AcDbText
 73
         2
  0
TEXT
  5
1E4
100
AcDbEntity
  8
PIN_NUMBERS_TOP
100
AcDbText
 10
38.755498
 20
16.067496
 30
0.0
 40
0.508
  1
7
  7
COURIER_NEW
 72
         1
 11
38.97343
 21
16.29
 31
0.0
100
AcDbText
 73
         2
  0
TEXT
  5
1E5
100
AcDbEntity
  8
PIN_NUMBERS_TOP
100
AcDbText
 10
38.755498
 20
15.567496
 30
0.0
 40
0.508
  1
8
  7
COURIER_NEW
 72
         1
 11
38.97343
 21
15.79
 31
0.0
100
AcDbText
 73
         2
  0
TEXT
  5
1E6
100
AcDbEntity
  8
PIN_NUMBERS_TOP
100
AcDbText
 10
38.755498
 20
15.067496
 30
0.0
 40
0.508
  1
9
  7
COURIER_NEW
 72
         1
 11
38.97343
 21
15.29
 31
0.0
100
AcDbText
 73
         2
  0
TEXT
  5
1E7
100
AcDbEntity
  8
PIN_NUMBERS_TOP
100
AcDbText
 10
38.537566
 20
14.567496
 30
0.0
 40
0.508
  1
10
  7
COURIER_NEW
 72
         1
 11
38.97343
 21
14.79
 31
0.0
100
AcDbText
 73
         2
  0
TEXT
  5
1E8
100
AcDbEntity
  8
PIN_NUMBERS_TOP
100
AcDbText
 10
38.537566
 20
14.067496
 30
0.0
 40
0.508
  1
11
  7
COURIER_NEW
 72
         1
 11
38.97343
 21
14.29
 31
0.0
100
AcDbText
 73
         2
  0
TEXT
  5
1E9
100
AcDbEntity
  8
PIN_NUMBERS_TOP
100
AcDbText
 10
38.537566
 20
13.567496
 30
0.0
 40
0.508
  1
12
  7
COURIER_NEW
 72
         1
 11
38.97343
 21
13.79
 31
0.0
100
AcDbText
 73
         2
  0
TEXT
  5
1EA
100
AcDbEntity
  8
PIN_NUMBERS_TOP
100
AcDbText
 10
39.532068
 20
20.117496
 30
0.0
 40
0.508
  1
2
  7
COURIER_NEW
 72
         1
 11
39.75
 21
20.34
 31
0.0
100
AcDbText
 73
         2
  0
TEXT
  5
1EB
100
AcDbEntity
  8
PIN_NUMBERS_TOP
100
AcDbText
 10
38.732068
 20
20.117496
 30
0.0
 40
0.508
  1
1
  7
COURIER_NEW
 72
         1
 11
38.95
 21
20.34
 31
0.0
100
AcDbText
 73
         2
  0
TEXT
  5
1EC
100
AcDbEntity
  8
PIN_NUMBERS_TOP
100
AcDbText
 10
39.532068
 20
18.517496
 30
0.0
 40
0.508
  1
2
  7
COURIER_NEW
 72
         1
 11
39.75
 21
18.74
 31
0.0
100
AcDbText
 73
         2
  0
TEXT
  5
1ED
100
AcDbEntity
  8
PIN_NUMBERS_TOP
100
AcDbText
 10
38.732068
 20
18.517496
 30
0.0
 40
0.508
  1
1
  7
COURIER_NEW
 72
         1
 11
38.95
 21
18.74
 31
0.0
100
AcDbText
 73
         2
  0
TEXT
  5
1EE
100
AcDbEntity
  8
PIN_NUMBERS_TOP
100
AcDbText
 10
39.532068
 20
19.317496
 30
0.0
 40
0.508
  1
2
  7
COURIER_NEW
 72
         1
 11
39.75
 21
19.54
 31
0.0
100
AcDbText
 73
         2
  0
TEXT
  5
1EF
100
AcDbEntity
  8
PIN_NUMBERS_TOP
100
AcDbText
 10
38.732068
 20
19.317496
 30
0.0
 40
0.508
  1
1
  7
COURIER_NEW
 72
         1
 11
38.95
 21
19.54
 31
0.0
100
AcDbText
 73
         2
  0
TEXT
  5
1F0
100
AcDbEntity
  8
PIN_NUMBERS_TOP
100
AcDbText
 10
38.732068
 20
17.717496
 30
0.0
 40
0.508
  1
2
  7
COURIER_NEW
 72
         1
 11
38.95
 21
17.94
 31
0.0
100
AcDbText
 73
         2
  0
TEXT
  5
1F1
100
AcDbEntity
  8
PIN_NUMBERS_TOP
100
AcDbText
 10
39.532068
 20
17.717496
 30
0.0
 40
0.508
  1
1
  7
COURIER_NEW
 72
         1
 11
39.75
 21
17.94
 31
0.0
100
AcDbText
 73
         2
  0
TEXT
  5
1F2
100
AcDbEntity
  8
PIN_NUMBERS_TOP
100
AcDbText
 10
33.382068
 20
6.417496
 30
0.0
 40
0.508
  1
1
  7
COURIER_NEW
 72
         1
 11
33.6
 21
6.64
 31
0.0
100
AcDbText
 73
         2
  0
TEXT
  5
1F3
100
AcDbEntity
  8
PIN_NUMBERS_TOP
100
AcDbText
 10
34.932068
 20
6.417496
 30
0.0
 40
0.508
  1
2
  7
COURIER_NEW
 72
         1
 11
35.15
 21
6.64
 31
0.0
100
AcDbText
 73
         2
  0
TEXT
  5
1F4
100
AcDbEntity
  8
PIN_NUMBERS_TOP
100
AcDbText
 10
36.482068
 20
6.417496
 30
0.0
 40
0.508
  1
3
  7
COURIER_NEW
 72
         1
 11
36.7
 21
6.64
 31
0.0
100
AcDbText
 73
         2
  0
TEXT
  5
1F5
100
AcDbEntity
  8
PIN_NUMBERS_TOP
100
AcDbText
 10
35.832068
 20
8.017496
 30
0.0
 40
0.508
  1
2
  7
COURIER_NEW
 72
         1
 11
36.05
 21
8.24
 31
0.0
100
AcDbText
 73
         2
  0
TEXT
  5
1F6
100
AcDbEntity
  8
PIN_NUMBERS_TOP
100
AcDbText
 10
36.632068
 20
8.017496
 30
0.0
 40
0.508
  1
1
  7
COURIER_NEW
 72
         1
 11
36.85
 21
8.24
 31
0.0
100
AcDbText
 73
         2
  0
TEXT
  5
1F7
100
AcDbEntity
  8
PIN_NUMBERS_TOP
100
AcDbText
 10
25.032068
 20
6.617496
 30
0.0
 40
0.508
  1
1
  7
COURIER_NEW
 72
         1
 11
25.25
 21
6.84
 31
0.0
100
AcDbText
 73
         2
  0
TEXT
  5
1F8
100
AcDbEntity
  8
PIN_NUMBERS_TOP
100
AcDbText
 10
26.432068
 20
6.917496
 30
0.0
 40
0.508
  1
1
  7
COURIER_NEW
 72
         1
 11
26.65
 21
7.14
 31
0.0
100
AcDbText
 73
         2
  0
TEXT
  5
1F9
100
AcDbEntity
  8
PIN_NUMBERS_TOP
100
AcDbText
 10
25.232068
 20
7.817496
 30
0.0
 40
0.508
  1
1
  7
COURIER_NEW
 72
         1
 11
25.45
 21
8.04
 31
0.0
100
AcDbText
 73
         2
  0
TEXT
  5
1FA
100
AcDbEntity
  8
PIN_NUMBERS_TOP
100
AcDbText
 10
21.532068
 20
6.917496
 30
0.0
 40
0.508
  1
1
  7
COURIER_NEW
 72
         1
 11
21.75
 21
7.14
 31
0.0
100
AcDbText
 73
         2
  0
TEXT
  5
1FB
100
AcDbEntity
  8
PIN_NUMBERS_TOP
100
AcDbText
 10
20.332068
 20
7.717496
 30
0.0
 40
0.508
  1
1
  7
COURIER_NEW
 72
         1
 11
20.55
 21
7.94
 31
0.0
100
AcDbText
 73
         2
  0
TEXT
  5
1FC
100
AcDbEntity
  8
PIN_NUMBERS_TOP
100
AcDbText
 10
18.333638
 20
7.917496
 30
0.0
 40
0.508
  1
2
  7
COURIER_NEW
 72
         1
 11
18.55157
 21
8.14
 31
0.0
100
AcDbText
 73
         2
  0
TEXT
  5
1FD
100
AcDbEntity
  8
PIN_NUMBERS_TOP
100
AcDbText
 10
19.133638
 20
7.917496
 30
0.0
 40
0.508
  1
1
  7
COURIER_NEW
 72
         1
 11
19.35157
 21
8.14
 31
0.0
100
AcDbText
 73
         2
  0
TEXT
  5
1FE
100
AcDbEntity
  8
PIN_NUMBERS_TOP
100
AcDbText
 10
19.007068
 20
6.715926
 30
0.0
 40
0.508
  1
1
  7
COURIER_NEW
 72
         1
 11
19.225
 21
6.93843
 31
0.0
100
AcDbText
 73
         2
  0
TEXT
  5
1FF
100
AcDbEntity
  8
PIN_NUMBERS_TOP
100
AcDbText
 10
17.457068
 20
6.715926
 30
0.0
 40
0.508
  1
2
  7
COURIER_NEW
 72
         1
 11
17.675
 21
6.93843
 31
0.0
100
AcDbText
 73
         2
  0
TEXT
  5
200
100
AcDbEntity
  8
PIN_NUMBERS_TOP
100
AcDbText
 10
30.330498
 20
8.117496
 30
0.0
 40
0.508
  1
2
  7
COURIER_NEW
 72
         1
 11
30.54843
 21
8.34
 31
0.0
100
AcDbText
 73
         2
  0
TEXT
  5
201
100
AcDbEntity
  8
PIN_NUMBERS_TOP
100
AcDbText
 10
29.530498
 20
8.117496
 30
0.0
 40
0.508
  1
1
  7
COURIER_NEW
 72
         1
 11
29.74843
 21
8.34
 31
0.0
100
AcDbText
 73
         2
  0
TEXT
  5
202
100
AcDbEntity
  8
PIN_NUMBERS_TOP
100
AcDbText
 10
29.257068
 20
6.915926
 30
0.0
 40
0.508
  1
1
  7
COURIER_NEW
 72
         1
 11
29.475
 21
7.13843
 31
0.0
100
AcDbText
 73
         2
  0
TEXT
  5
203
100
AcDbEntity
  8
PIN_NUMBERS_TOP
100
AcDbText
 10
30.807068
 20
6.915926
 30
0.0
 40
0.508
  1
2
  7
COURIER_NEW
 72
         1
 11
31.025
 21
7.13843
 31
0.0
100
AcDbText
 73
         2
  0
TEXT
  5
204
100
AcDbEntity
  8
PIN_NUMBERS_TOP
100
AcDbText
 10
14.732068
 20
17.017496
 30
0.0
 40
0.508
  1
2
  7
COURIER_NEW
 72
         1
 11
14.95
 21
17.24
 31
0.0
100
AcDbText
 73
         2
  0
TEXT
  5
205
100
AcDbEntity
  8
PIN_NUMBERS_TOP
100
AcDbText
 10
14.732068
 20
16.217496
 30
0.0
 40
0.508
  1
1
  7
COURIER_NEW
 72
         1
 11
14.95
 21
16.44
 31
0.0
100
AcDbText
 73
         2
  0
TEXT
  5
206
100
AcDbEntity
  8
PIN_NUMBERS_TOP
100
AcDbText
 10
16.332068
 20
16.217496
 30
0.0
 40
0.508
  1
2
  7
COURIER_NEW
 72
         1
 11
16.55
 21
16.44
 31
0.0
100
AcDbText
 73
         2
  0
TEXT
  5
207
100
AcDbEntity
  8
PIN_NUMBERS_TOP
100
AcDbText
 10
15.532068
 20
16.217496
 30
0.0
 40
0.508
  1
1
  7
COURIER_NEW
 72
         1
 11
15.75
 21
16.44
 31
0.0
100
AcDbText
 73
         2
  0
TEXT
  5
208
100
AcDbEntity
  8
PIN_NUMBERS_TOP
100
AcDbText
 10
13.132068
 20
16.217496
 30
0.0
 40
0.508
  1
2
  7
COURIER_NEW
 72
         1
 11
13.35
 21
16.44
 31
0.0
100
AcDbText
 73
         2
  0
TEXT
  5
209
100
AcDbEntity
  8
PIN_NUMBERS_TOP
100
AcDbText
 10
13.932068
 20
16.217496
 30
0.0
 40
0.508
  1
1
  7
COURIER_NEW
 72
         1
 11
14.15
 21
16.44
 31
0.0
100
AcDbText
 73
         2
  0
TEXT
  5
20A
100
AcDbEntity
  8
PIN_NUMBERS_TOP
100
AcDbText
 10
35.594136
 20
11.247496
 30
0.0
 40
0.508
  1
17
  7
COURIER_NEW
 72
         1
 11
36.03
 21
11.47
 31
0.0
100
AcDbText
 73
         2
  0
TEXT
  5
20B
100
AcDbEntity
  8
PIN_NUMBERS_TOP
100
AcDbText
 10
35.594136
 20
12.247496
 30
0.0
 40
0.508
  1
18
  7
COURIER_NEW
 72
         1
 11
36.03
 21
12.47
 31
0.0
100
AcDbText
 73
         2
  0
TEXT
  5
20C
100
AcDbEntity
  8
PIN_NUMBERS_TOP
100
AcDbText
 10
35.594136
 20
13.247496
 30
0.0
 40
0.508
  1
19
  7
COURIER_NEW
 72
         1
 11
36.03
 21
13.47
 31
0.0
100
AcDbText
 73
         2
  0
TEXT
  5
20D
100
AcDbEntity
  8
PIN_NUMBERS_TOP
100
AcDbText
 10
35.594136
 20
14.247496
 30
0.0
 40
0.508
  1
20
  7
COURIER_NEW
 72
         1
 11
36.03
 21
14.47
 31
0.0
100
AcDbText
 73
         2
  0
TEXT
  5
20E
100
AcDbEntity
  8
PIN_NUMBERS_TOP
100
AcDbText
 10
35.594136
 20
15.247496
 30
0.0
 40
0.508
  1
21
  7
COURIER_NEW
 72
         1
 11
36.03
 21
15.47
 31
0.0
100
AcDbText
 73
         2
  0
TEXT
  5
20F
100
AcDbEntity
  8
PIN_NUMBERS_TOP
100
AcDbText
 10
35.594136
 20
16.247496
 30
0.0
 40
0.508
  1
22
  7
COURIER_NEW
 72
         1
 11
36.03
 21
16.47
 31
0.0
100
AcDbText
 73
         2
  0
TEXT
  5
210
100
AcDbEntity
  8
PIN_NUMBERS_TOP
100
AcDbText
 10
35.594136
 20
17.247496
 30
0.0
 40
0.508
  1
23
  7
COURIER_NEW
 72
         1
 11
36.03
 21
17.47
 31
0.0
100
AcDbText
 73
         2
  0
TEXT
  5
211
100
AcDbEntity
  8
PIN_NUMBERS_TOP
100
AcDbText
 10
35.594136
 20
18.247496
 30
0.0
 40
0.508
  1
24
  7
COURIER_NEW
 72
         1
 11
36.03
 21
18.47
 31
0.0
100
AcDbText
 73
         2
  0
TEXT
  5
212
100
AcDbEntity
  8
PIN_NUMBERS_TOP
100
AcDbText
 10
35.594136
 20
19.247496
 30
0.0
 40
0.508
  1
25
  7
COURIER_NEW
 72
         1
 11
36.03
 21
19.47
 31
0.0
100
AcDbText
 73
         2
  0
TEXT
  5
213
100
AcDbEntity
  8
PIN_NUMBERS_TOP
100
AcDbText
 10
35.594136
 20
20.247496
 30
0.0
 40
0.508
  1
26
  7
COURIER_NEW
 72
         1
 11
36.03
 21
20.47
 31
0.0
100
AcDbText
 73
         2
  0
TEXT
  5
214
100
AcDbEntity
  8
PIN_NUMBERS_TOP
100
AcDbText
 10
35.594136
 20
21.247496
 30
0.0
 40
0.508
  1
27
  7
COURIER_NEW
 72
         1
 11
36.03
 21
21.47
 31
0.0
100
AcDbText
 73
         2
  0
TEXT
  5
215
100
AcDbEntity
  8
PIN_NUMBERS_TOP
100
AcDbText
 10
34.094136
 20
22.747496
 30
0.0
 40
0.508
  1
28
  7
COURIER_NEW
 72
         1
 11
34.53
 21
22.97
 31
0.0
100
AcDbText
 73
         2
  0
TEXT
  5
216
100
AcDbEntity
  8
PIN_NUMBERS_TOP
100
AcDbText
 10
33.094136
 20
22.747496
 30
0.0
 40
0.508
  1
29
  7
COURIER_NEW
 72
         1
 11
33.53
 21
22.97
 31
0.0
100
AcDbText
 73
         2
  0
TEXT
  5
217
100
AcDbEntity
  8
PIN_NUMBERS_TOP
100
AcDbText
 10
32.094136
 20
22.747496
 30
0.0
 40
0.508
  1
30
  7
COURIER_NEW
 72
         1
 11
32.53
 21
22.97
 31
0.0
100
AcDbText
 73
         2
  0
TEXT
  5
218
100
AcDbEntity
  8
PIN_NUMBERS_TOP
100
AcDbText
 10
31.094136
 20
22.747496
 30
0.0
 40
0.508
  1
31
  7
COURIER_NEW
 72
         1
 11
31.53
 21
22.97
 31
0.0
100
AcDbText
 73
         2
  0
TEXT
  5
219
100
AcDbEntity
  8
PIN_NUMBERS_TOP
100
AcDbText
 10
30.094136
 20
22.747496
 30
0.0
 40
0.508
  1
32
  7
COURIER_NEW
 72
         1
 11
30.53
 21
22.97
 31
0.0
100
AcDbText
 73
         2
  0
TEXT
  5
21A
100
AcDbEntity
  8
PIN_NUMBERS_TOP
100
AcDbText
 10
29.094136
 20
22.747496
 30
0.0
 40
0.508
  1
33
  7
COURIER_NEW
 72
         1
 11
29.53
 21
22.97
 31
0.0
100
AcDbText
 73
         2
  0
TEXT
  5
21B
100
AcDbEntity
  8
PIN_NUMBERS_TOP
100
AcDbText
 10
28.094136
 20
22.747496
 30
0.0
 40
0.508
  1
34
  7
COURIER_NEW
 72
         1
 11
28.53
 21
22.97
 31
0.0
100
AcDbText
 73
         2
  0
TEXT
  5
21C
100
AcDbEntity
  8
PIN_NUMBERS_TOP
100
AcDbText
 10
27.094136
 20
22.747496
 30
0.0
 40
0.508
  1
35
  7
COURIER_NEW
 72
         1
 11
27.53
 21
22.97
 31
0.0
100
AcDbText
 73
         2
  0
TEXT
  5
21D
100
AcDbEntity
  8
PIN_NUMBERS_TOP
100
AcDbText
 10
26.094136
 20
22.747496
 30
0.0
 40
0.508
  1
36
  7
COURIER_NEW
 72
         1
 11
26.53
 21
22.97
 31
0.0
100
AcDbText
 73
         2
  0
TEXT
  5
21E
100
AcDbEntity
  8
PIN_NUMBERS_TOP
100
AcDbText
 10
25.094136
 20
22.747496
 30
0.0
 40
0.508
  1
37
  7
COURIER_NEW
 72
         1
 11
25.53
 21
22.97
 31
0.0
100
AcDbText
 73
         2
  0
TEXT
  5
21F
100
AcDbEntity
  8
PIN_NUMBERS_TOP
100
AcDbText
 10
24.094136
 20
22.747496
 30
0.0
 40
0.508
  1
38
  7
COURIER_NEW
 72
         1
 11
24.53
 21
22.97
 31
0.0
100
AcDbText
 73
         2
  0
TEXT
  5
220
100
AcDbEntity
  8
PIN_NUMBERS_TOP
100
AcDbText
 10
23.094136
 20
22.747496
 30
0.0
 40
0.508
  1
39
  7
COURIER_NEW
 72
         1
 11
23.53
 21
22.97
 31
0.0
100
AcDbText
 73
         2
  0
TEXT
  5
221
100
AcDbEntity
  8
PIN_NUMBERS_TOP
100
AcDbText
 10
22.094136
 20
22.747496
 30
0.0
 40
0.508
  1
40
  7
COURIER_NEW
 72
         1
 11
22.53
 21
22.97
 31
0.0
100
AcDbText
 73
         2
  0
TEXT
  5
222
100
AcDbEntity
  8
PIN_NUMBERS_TOP
100
AcDbText
 10
21.094136
 20
22.747496
 30
0.0
 40
0.508
  1
41
  7
COURIER_NEW
 72
         1
 11
21.53
 21
22.97
 31
0.0
100
AcDbText
 73
         2
  0
TEXT
  5
223
100
AcDbEntity
  8
PIN_NUMBERS_TOP
100
AcDbText
 10
20.094136
 20
22.747496
 30
0.0
 40
0.508
  1
42
  7
COURIER_NEW
 72
         1
 11
20.53
 21
22.97
 31
0.0
100
AcDbText
 73
         2
  0
TEXT
  5
224
100
AcDbEntity
  8
PIN_NUMBERS_TOP
100
AcDbText
 10
19.094136
 20
22.747496
 30
0.0
 40
0.508
  1
43
  7
COURIER_NEW
 72
         1
 11
19.53
 21
22.97
 31
0.0
100
AcDbText
 73
         2
  0
TEXT
  5
225
100
AcDbEntity
  8
PIN_NUMBERS_TOP
100
AcDbText
 10
19.312068
 20
9.747496
 30
0.0
 40
0.508
  1
1
  7
COURIER_NEW
 72
         1
 11
19.53
 21
9.97
 31
0.0
100
AcDbText
 73
         2
  0
TEXT
  5
226
100
AcDbEntity
  8
PIN_NUMBERS_TOP
100
AcDbText
 10
20.312068
 20
9.747496
 30
0.0
 40
0.508
  1
2
  7
COURIER_NEW
 72
         1
 11
20.53
 21
9.97
 31
0.0
100
AcDbText
 73
         2
  0
TEXT
  5
227
100
AcDbEntity
  8
PIN_NUMBERS_TOP
100
AcDbText
 10
21.312068
 20
9.747496
 30
0.0
 40
0.508
  1
3
  7
COURIER_NEW
 72
         1
 11
21.53
 21
9.97
 31
0.0
100
AcDbText
 73
         2
  0
TEXT
  5
228
100
AcDbEntity
  8
PIN_NUMBERS_TOP
100
AcDbText
 10
22.312068
 20
9.747496
 30
0.0
 40
0.508
  1
4
  7
COURIER_NEW
 72
         1
 11
22.53
 21
9.97
 31
0.0
100
AcDbText
 73
         2
  0
TEXT
  5
229
100
AcDbEntity
  8
PIN_NUMBERS_TOP
100
AcDbText
 10
23.312068
 20
9.747496
 30
0.0
 40
0.508
  1
5
  7
COURIER_NEW
 72
         1
 11
23.53
 21
9.97
 31
0.0
100
AcDbText
 73
         2
  0
TEXT
  5
22A
100
AcDbEntity
  8
PIN_NUMBERS_TOP
100
AcDbText
 10
24.312068
 20
9.747496
 30
0.0
 40
0.508
  1
6
  7
COURIER_NEW
 72
         1
 11
24.53
 21
9.97
 31
0.0
100
AcDbText
 73
         2
  0
TEXT
  5
22B
100
AcDbEntity
  8
PIN_NUMBERS_TOP
100
AcDbText
 10
25.312068
 20
9.747496
 30
0.0
 40
0.508
  1
7
  7
COURIER_NEW
 72
         1
 11
25.53
 21
9.97
 31
0.0
100
AcDbText
 73
         2
  0
TEXT
  5
22C
100
AcDbEntity
  8
PIN_NUMBERS_TOP
100
AcDbText
 10
26.312068
 20
9.747496
 30
0.0
 40
0.508
  1
8
  7
COURIER_NEW
 72
         1
 11
26.53
 21
9.97
 31
0.0
100
AcDbText
 73
         2
  0
TEXT
  5
22D
100
AcDbEntity
  8
PIN_NUMBERS_TOP
100
AcDbText
 10
27.312068
 20
9.747496
 30
0.0
 40
0.508
  1
9
  7
COURIER_NEW
 72
         1
 11
27.53
 21
9.97
 31
0.0
100
AcDbText
 73
         2
  0
TEXT
  5
22E
100
AcDbEntity
  8
PIN_NUMBERS_TOP
100
AcDbText
 10
28.094136
 20
9.747496
 30
0.0
 40
0.508
  1
10
  7
COURIER_NEW
 72
         1
 11
28.53
 21
9.97
 31
0.0
100
AcDbText
 73
         2
  0
TEXT
  5
22F
100
AcDbEntity
  8
PIN_NUMBERS_TOP
100
AcDbText
 10
29.094136
 20
9.747496
 30
0.0
 40
0.508
  1
11
  7
COURIER_NEW
 72
         1
 11
29.53
 21
9.97
 31
0.0
100
AcDbText
 73
         2
  0
TEXT
  5
230
100
AcDbEntity
  8
PIN_NUMBERS_TOP
100
AcDbText
 10
30.094136
 20
9.747496
 30
0.0
 40
0.508
  1
12
  7
COURIER_NEW
 72
         1
 11
30.53
 21
9.97
 31
0.0
100
AcDbText
 73
         2
  0
TEXT
  5
231
100
AcDbEntity
  8
PIN_NUMBERS_TOP
100
AcDbText
 10
31.094136
 20
9.747496
 30
0.0
 40
0.508
  1
13
  7
COURIER_NEW
 72
         1
 11
31.53
 21
9.97
 31
0.0
100
AcDbText
 73
         2
  0
TEXT
  5
232
100
AcDbEntity
  8
PIN_NUMBERS_TOP
100
AcDbText
 10
32.094136
 20
9.747496
 30
0.0
 40
0.508
  1
14
  7
COURIER_NEW
 72
         1
 11
32.53
 21
9.97
 31
0.0
100
AcDbText
 73
         2
  0
TEXT
  5
233
100
AcDbEntity
  8
PIN_NUMBERS_TOP
100
AcDbText
 10
33.094136
 20
9.747496
 30
0.0
 40
0.508
  1
15
  7
COURIER_NEW
 72
         1
 11
33.53
 21
9.97
 31
0.0
100
AcDbText
 73
         2
  0
TEXT
  5
234
100
AcDbEntity
  8
PIN_NUMBERS_TOP
100
AcDbText
 10
34.094136
 20
9.747496
 30
0.0
 40
0.508
  1
16
  7
COURIER_NEW
 72
         1
 11
34.53
 21
9.97
 31
0.0
100
AcDbText
 73
         2
  0
TEXT
  5
235
100
AcDbEntity
  8
PIN_NUMBERS_TOP
100
AcDbText
 10
17.594136
 20
21.247496
 30
0.0
 40
0.508
  1
44
  7
COURIER_NEW
 72
         1
 11
18.03
 21
21.47
 31
0.0
100
AcDbText
 73
         2
  0
TEXT
  5
236
100
AcDbEntity
  8
PIN_NUMBERS_TOP
100
AcDbText
 10
17.594136
 20
20.247496
 30
0.0
 40
0.508
  1
45
  7
COURIER_NEW
 72
         1
 11
18.03
 21
20.47
 31
0.0
100
AcDbText
 73
         2
  0
TEXT
  5
237
100
AcDbEntity
  8
PIN_NUMBERS_TOP
100
AcDbText
 10
17.594136
 20
19.247496
 30
0.0
 40
0.508
  1
46
  7
COURIER_NEW
 72
         1
 11
18.03
 21
19.47
 31
0.0
100
AcDbText
 73
         2
  0
TEXT
  5
238
100
AcDbEntity
  8
PIN_NUMBERS_TOP
100
AcDbText
 10
17.594136
 20
18.247496
 30
0.0
 40
0.508
  1
47
  7
COURIER_NEW
 72
         1
 11
18.03
 21
18.47
 31
0.0
100
AcDbText
 73
         2
  0
TEXT
  5
239
100
AcDbEntity
  8
PIN_NUMBERS_TOP
100
AcDbText
 10
17.594136
 20
16.247496
 30
0.0
 40
0.508
  1
48
  7
COURIER_NEW
 72
         1
 11
18.03
 21
16.47
 31
0.0
100
AcDbText
 73
         2
  0
TEXT
  5
23A
100
AcDbEntity
  8
PIN_NUMBERS_TOP
100
AcDbText
 10
17.594136
 20
14.247496
 30
0.0
 40
0.508
  1
49
  7
COURIER_NEW
 72
         1
 11
18.03
 21
14.47
 31
0.0
100
AcDbText
 73
         2
  0
TEXT
  5
23B
100
AcDbEntity
  8
PIN_NUMBERS_TOP
100
AcDbText
 10
17.594136
 20
13.247496
 30
0.0
 40
0.508
  1
50
  7
COURIER_NEW
 72
         1
 11
18.03
 21
13.47
 31
0.0
100
AcDbText
 73
         2
  0
TEXT
  5
23C
100
AcDbEntity
  8
PIN_NUMBERS_TOP
100
AcDbText
 10
17.594136
 20
12.247496
 30
0.0
 40
0.508
  1
51
  7
COURIER_NEW
 72
         1
 11
18.03
 21
12.47
 31
0.0
100
AcDbText
 73
         2
  0
TEXT
  5
23D
100
AcDbEntity
  8
PIN_NUMBERS_TOP
100
AcDbText
 10
17.594136
 20
11.247496
 30
0.0
 40
0.508
  1
52
  7
COURIER_NEW
 72
         1
 11
18.03
 21
11.47
 31
0.0
100
AcDbText
 73
         2
  0
TEXT
  5
23E
100
AcDbEntity
  8
PIN_NUMBERS_TOP
100
AcDbText
 10
24.394136
 20
14.597496
 30
0.0
 40
0.508
  1
53
  7
COURIER_NEW
 72
         1
 11
24.83
 21
14.82
 31
0.0
100
AcDbText
 73
         2
  0
TEXT
  5
23F
100
AcDbEntity
  8
PIN_NUMBERS_TOP
100
AcDbText
 10
28.794136
 20
14.597496
 30
0.0
 40
0.508
  1
53
  7
COURIER_NEW
 72
         1
 11
29.23
 21
14.82
 31
0.0
100
AcDbText
 73
         2
  0
TEXT
  5
240
100
AcDbEntity
  8
PIN_NUMBERS_TOP
100
AcDbText
 10
28.794136
 20
17.897496
 30
0.0
 40
0.508
  1
53
  7
COURIER_NEW
 72
         1
 11
29.23
 21
18.12
 31
0.0
100
AcDbText
 73
         2
  0
TEXT
  5
241
100
AcDbEntity
  8
PIN_NUMBERS_TOP
100
AcDbText
 10
24.394136
 20
17.897496
 30
0.0
 40
0.508
  1
53
  7
COURIER_NEW
 72
         1
 11
24.83
 21
18.12
 31
0.0
100
AcDbText
 73
         2
  0
TEXT
  5
242
100
AcDbEntity
  8
PIN_NUMBERS_TOP
100
AcDbText
 10
30.732068
 20
24.617496
 30
0.0
 40
0.508
  1
2
  7
COURIER_NEW
 72
         1
 11
30.95
 21
24.84
 31
0.0
100
AcDbText
 73
         2
  0
TEXT
  5
243
100
AcDbEntity
  8
PIN_NUMBERS_TOP
100
AcDbText
 10
31.532068
 20
24.617496
 30
0.0
 40
0.508
  1
1
  7
COURIER_NEW
 72
         1
 11
31.75
 21
24.84
 31
0.0
100
AcDbText
 73
         2
  0
TEXT
  5
244
100
AcDbEntity
  8
PIN_NUMBERS_TOP
100
AcDbText
 10
29.432068
 20
24.617496
 30
0.0
 40
0.508
  1
1
  7
COURIER_NEW
 72
         1
 11
29.65
 21
24.84
 31
0.0
100
AcDbText
 73
         2
  0
TEXT
  5
245
100
AcDbEntity
  8
PIN_NUMBERS_TOP
100
AcDbText
 10
28.132068
 20
25.217496
 30
0.0
 40
0.508
  1
1
  7
COURIER_NEW
 72
         1
 11
28.35
 21
25.44
 31
0.0
100
AcDbText
 73
         2
  0
TEXT
  5
246
100
AcDbEntity
  8
PIN_NUMBERS_TOP
100
AcDbText
 10
31.132068
 20
25.617496
 30
0.0
 40
0.508
  1
2
  7
COURIER_NEW
 72
         1
 11
31.35
 21
25.84
 31
0.0
100
AcDbText
 73
         2
  0
TEXT
  5
247
100
AcDbEntity
  8
PIN_NUMBERS_TOP
100
AcDbText
 10
30.332068
 20
25.617496
 30
0.0
 40
0.508
  1
1
  7
COURIER_NEW
 72
         1
 11
30.55
 21
25.84
 31
0.0
100
AcDbText
 73
         2
  0
TEXT
  5
248
100
AcDbEntity
  8
PIN_NUMBERS_TOP
100
AcDbText
 10
40.312068
 20
9.477496
 30
0.0
 40
0.508
  1
1
  7
COURIER_NEW
 72
         1
 11
40.53
 21
9.7
 31
0.0
100
AcDbText
 73
         2
  0
TEXT
  5
249
100
AcDbEntity
  8
PIN_NUMBERS_TOP
100
AcDbText
 10
1.512068
 20
3.877496
 30
0.0
 40
0.508
  1
1
  7
COURIER_NEW
 72
         1
 11
1.73
 21
4.1
 31
0.0
100
AcDbText
 73
         2
  0
TEXT
  5
24A
100
AcDbEntity
  8
PIN_NUMBERS_TOP
100
AcDbText
 10
1.512068
 20
1.877496
 30
0.0
 40
0.508
  1
2
  7
COURIER_NEW
 72
         1
 11
1.73
 21
2.1
 31
0.0
100
AcDbText
 73
         2
  0
TEXT
  5
24B
100
AcDbEntity
  8
PIN_NUMBERS_TOP
100
AcDbText
 10
3.512068
 20
3.877496
 30
0.0
 40
0.508
  1
3
  7
COURIER_NEW
 72
         1
 11
3.73
 21
4.1
 31
0.0
100
AcDbText
 73
         2
  0
TEXT
  5
24C
100
AcDbEntity
  8
PIN_NUMBERS_TOP
100
AcDbText
 10
3.512068
 20
1.877496
 30
0.0
 40
0.508
  1
4
  7
COURIER_NEW
 72
         1
 11
3.73
 21
2.1
 31
0.0
100
AcDbText
 73
         2
  0
TEXT
  5
24D
100
AcDbEntity
  8
PIN_NUMBERS_TOP
100
AcDbText
 10
5.512068
 20
3.877496
 30
0.0
 40
0.508
  1
5
  7
COURIER_NEW
 72
         1
 11
5.73
 21
4.1
 31
0.0
100
AcDbText
 73
         2
  0
TEXT
  5
24E
100
AcDbEntity
  8
PIN_NUMBERS_TOP
100
AcDbText
 10
5.512068
 20
1.877496
 30
0.0
 40
0.508
  1
6
  7
COURIER_NEW
 72
         1
 11
5.73
 21
2.1
 31
0.0
100
AcDbText
 73
         2
  0
TEXT
  5
24F
100
AcDbEntity
  8
PIN_NUMBERS_TOP
100
AcDbText
 10
7.512068
 20
3.877496
 30
0.0
 40
0.508
  1
7
  7
COURIER_NEW
 72
         1
 11
7.73
 21
4.1
 31
0.0
100
AcDbText
 73
         2
  0
TEXT
  5
250
100
AcDbEntity
  8
PIN_NUMBERS_TOP
100
AcDbText
 10
7.512068
 20
1.877496
 30
0.0
 40
0.508
  1
8
  7
COURIER_NEW
 72
         1
 11
7.73
 21
2.1
 31
0.0
100
AcDbText
 73
         2
  0
TEXT
  5
251
100
AcDbEntity
  8
PIN_NUMBERS_TOP
100
AcDbText
 10
9.512068
 20
3.877496
 30
0.0
 40
0.508
  1
9
  7
COURIER_NEW
 72
         1
 11
9.73
 21
4.1
 31
0.0
100
AcDbText
 73
         2
  0
TEXT
  5
252
100
AcDbEntity
  8
PIN_NUMBERS_TOP
100
AcDbText
 10
9.294136
 20
1.877496
 30
0.0
 40
0.508
  1
10
  7
COURIER_NEW
 72
         1
 11
9.73
 21
2.1
 31
0.0
100
AcDbText
 73
         2
  0
TEXT
  5
253
100
AcDbEntity
  8
PIN_NUMBERS_TOP
100
AcDbText
 10
11.294136
 20
3.877496
 30
0.0
 40
0.508
  1
11
  7
COURIER_NEW
 72
         1
 11
11.73
 21
4.1
 31
0.0
100
AcDbText
 73
         2
  0
TEXT
  5
254
100
AcDbEntity
  8
PIN_NUMBERS_TOP
100
AcDbText
 10
11.294136
 20
1.877496
 30
0.0
 40
0.508
  1
12
  7
COURIER_NEW
 72
         1
 11
11.73
 21
2.1
 31
0.0
100
AcDbText
 73
         2
  0
TEXT
  5
255
100
AcDbEntity
  8
PIN_NUMBERS_TOP
100
AcDbText
 10
13.294136
 20
3.877496
 30
0.0
 40
0.508
  1
13
  7
COURIER_NEW
 72
         1
 11
13.73
 21
4.1
 31
0.0
100
AcDbText
 73
         2
  0
TEXT
  5
256
100
AcDbEntity
  8
PIN_NUMBERS_TOP
100
AcDbText
 10
13.294136
 20
1.877496
 30
0.0
 40
0.508
  1
14
  7
COURIER_NEW
 72
         1
 11
13.73
 21
2.1
 31
0.0
100
AcDbText
 73
         2
  0
TEXT
  5
257
100
AcDbEntity
  8
PIN_NUMBERS_TOP
100
AcDbText
 10
15.294136
 20
3.877496
 30
0.0
 40
0.508
  1
15
  7
COURIER_NEW
 72
         1
 11
15.73
 21
4.1
 31
0.0
100
AcDbText
 73
         2
  0
TEXT
  5
258
100
AcDbEntity
  8
PIN_NUMBERS_TOP
100
AcDbText
 10
15.294136
 20
1.877496
 30
0.0
 40
0.508
  1
16
  7
COURIER_NEW
 72
         1
 11
15.73
 21
2.1
 31
0.0
100
AcDbText
 73
         2
  0
TEXT
  5
259
100
AcDbEntity
  8
PIN_NUMBERS_TOP
100
AcDbText
 10
17.294136
 20
3.877496
 30
0.0
 40
0.508
  1
17
  7
COURIER_NEW
 72
         1
 11
17.73
 21
4.1
 31
0.0
100
AcDbText
 73
         2
  0
TEXT
  5
25A
100
AcDbEntity
  8
PIN_NUMBERS_TOP
100
AcDbText
 10
17.294136
 20
1.877496
 30
0.0
 40
0.508
  1
18
  7
COURIER_NEW
 72
         1
 11
17.73
 21
2.1
 31
0.0
100
AcDbText
 73
         2
  0
TEXT
  5
25B
100
AcDbEntity
  8
PIN_NUMBERS_TOP
100
AcDbText
 10
19.294136
 20
3.877496
 30
0.0
 40
0.508
  1
19
  7
COURIER_NEW
 72
         1
 11
19.73
 21
4.1
 31
0.0
100
AcDbText
 73
         2
  0
TEXT
  5
25C
100
AcDbEntity
  8
PIN_NUMBERS_TOP
100
AcDbText
 10
19.294136
 20
1.877496
 30
0.0
 40
0.508
  1
20
  7
COURIER_NEW
 72
         1
 11
19.73
 21
2.1
 31
0.0
100
AcDbText
 73
         2
  0
TEXT
  5
25D
100
AcDbEntity
  8
PIN_NUMBERS_TOP
100
AcDbText
 10
21.294136
 20
3.877496
 30
0.0
 40
0.508
  1
21
  7
COURIER_NEW
 72
         1
 11
21.73
 21
4.1
 31
0.0
100
AcDbText
 73
         2
  0
TEXT
  5
25E
100
AcDbEntity
  8
PIN_NUMBERS_TOP
100
AcDbText
 10
21.294136
 20
1.877496
 30
0.0
 40
0.508
  1
22
  7
COURIER_NEW
 72
         1
 11
21.73
 21
2.1
 31
0.0
100
AcDbText
 73
         2
  0
TEXT
  5
25F
100
AcDbEntity
  8
PIN_NUMBERS_TOP
100
AcDbText
 10
23.294136
 20
3.877496
 30
0.0
 40
0.508
  1
23
  7
COURIER_NEW
 72
         1
 11
23.73
 21
4.1
 31
0.0
100
AcDbText
 73
         2
  0
TEXT
  5
260
100
AcDbEntity
  8
PIN_NUMBERS_TOP
100
AcDbText
 10
23.294136
 20
1.877496
 30
0.0
 40
0.508
  1
24
  7
COURIER_NEW
 72
         1
 11
23.73
 21
2.1
 31
0.0
100
AcDbText
 73
         2
  0
TEXT
  5
261
100
AcDbEntity
  8
PIN_NUMBERS_TOP
100
AcDbText
 10
25.294136
 20
3.877496
 30
0.0
 40
0.508
  1
25
  7
COURIER_NEW
 72
         1
 11
25.73
 21
4.1
 31
0.0
100
AcDbText
 73
         2
  0
TEXT
  5
262
100
AcDbEntity
  8
PIN_NUMBERS_TOP
100
AcDbText
 10
25.294136
 20
1.877496
 30
0.0
 40
0.508
  1
26
  7
COURIER_NEW
 72
         1
 11
25.73
 21
2.1
 31
0.0
100
AcDbText
 73
         2
  0
TEXT
  5
263
100
AcDbEntity
  8
PIN_NUMBERS_TOP
100
AcDbText
 10
27.294136
 20
3.877496
 30
0.0
 40
0.508
  1
27
  7
COURIER_NEW
 72
         1
 11
27.73
 21
4.1
 31
0.0
100
AcDbText
 73
         2
  0
TEXT
  5
264
100
AcDbEntity
  8
PIN_NUMBERS_TOP
100
AcDbText
 10
27.294136
 20
1.877496
 30
0.0
 40
0.508
  1
28
  7
COURIER_NEW
 72
         1
 11
27.73
 21
2.1
 31
0.0
100
AcDbText
 73
         2
  0
TEXT
  5
265
100
AcDbEntity
  8
PIN_NUMBERS_TOP
100
AcDbText
 10
29.294136
 20
3.877496
 30
0.0
 40
0.508
  1
29
  7
COURIER_NEW
 72
         1
 11
29.73
 21
4.1
 31
0.0
100
AcDbText
 73
         2
  0
TEXT
  5
266
100
AcDbEntity
  8
PIN_NUMBERS_TOP
100
AcDbText
 10
29.294136
 20
1.877496
 30
0.0
 40
0.508
  1
30
  7
COURIER_NEW
 72
         1
 11
29.73
 21
2.1
 31
0.0
100
AcDbText
 73
         2
  0
TEXT
  5
267
100
AcDbEntity
  8
PIN_NUMBERS_TOP
100
AcDbText
 10
31.294136
 20
3.877496
 30
0.0
 40
0.508
  1
31
  7
COURIER_NEW
 72
         1
 11
31.73
 21
4.1
 31
0.0
100
AcDbText
 73
         2
  0
TEXT
  5
268
100
AcDbEntity
  8
PIN_NUMBERS_TOP
100
AcDbText
 10
31.294136
 20
1.877496
 30
0.0
 40
0.508
  1
32
  7
COURIER_NEW
 72
         1
 11
31.73
 21
2.1
 31
0.0
100
AcDbText
 73
         2
  0
TEXT
  5
269
100
AcDbEntity
  8
PIN_NUMBERS_TOP
100
AcDbText
 10
33.294136
 20
3.877496
 30
0.0
 40
0.508
  1
33
  7
COURIER_NEW
 72
         1
 11
33.73
 21
4.1
 31
0.0
100
AcDbText
 73
         2
  0
TEXT
  5
26A
100
AcDbEntity
  8
PIN_NUMBERS_TOP
100
AcDbText
 10
33.294136
 20
1.877496
 30
0.0
 40
0.508
  1
34
  7
COURIER_NEW
 72
         1
 11
33.73
 21
2.1
 31
0.0
100
AcDbText
 73
         2
  0
TEXT
  5
26B
100
AcDbEntity
  8
PIN_NUMBERS_TOP
100
AcDbText
 10
35.294136
 20
3.877496
 30
0.0
 40
0.508
  1
35
  7
COURIER_NEW
 72
         1
 11
35.73
 21
4.1
 31
0.0
100
AcDbText
 73
         2
  0
TEXT
  5
26C
100
AcDbEntity
  8
PIN_NUMBERS_TOP
100
AcDbText
 10
35.294136
 20
1.877496
 30
0.0
 40
0.508
  1
36
  7
COURIER_NEW
 72
         1
 11
35.73
 21
2.1
 31
0.0
100
AcDbText
 73
         2
  0
TEXT
  5
26D
100
AcDbEntity
  8
PIN_NUMBERS_TOP
100
AcDbText
 10
37.294136
 20
3.877496
 30
0.0
 40
0.508
  1
37
  7
COURIER_NEW
 72
         1
 11
37.73
 21
4.1
 31
0.0
100
AcDbText
 73
         2
  0
TEXT
  5
26E
100
AcDbEntity
  8
PIN_NUMBERS_TOP
100
AcDbText
 10
37.294136
 20
1.877496
 30
0.0
 40
0.508
  1
38
  7
COURIER_NEW
 72
         1
 11
37.73
 21
2.1
 31
0.0
100
AcDbText
 73
         2
  0
TEXT
  5
26F
100
AcDbEntity
  8
PIN_NUMBERS_TOP
100
AcDbText
 10
39.294136
 20
3.877496
 30
0.0
 40
0.508
  1
39
  7
COURIER_NEW
 72
         1
 11
39.73
 21
4.1
 31
0.0
100
AcDbText
 73
         2
  0
TEXT
  5
270
100
AcDbEntity
  8
PIN_NUMBERS_TOP
100
AcDbText
 10
39.294136
 20
1.877496
 30
0.0
 40
0.508
  1
40
  7
COURIER_NEW
 72
         1
 11
39.73
 21
2.1
 31
0.0
100
AcDbText
 73
         2
  0
TEXT
  5
271
100
AcDbEntity
  8
PIN_NUMBERS_TOP
100
AcDbText
 10
41.294136
 20
3.877496
 30
0.0
 40
0.508
  1
41
  7
COURIER_NEW
 72
         1
 11
41.73
 21
4.1
 31
0.0
100
AcDbText
 73
         2
  0
TEXT
  5
272
100
AcDbEntity
  8
PIN_NUMBERS_TOP
100
AcDbText
 10
41.294136
 20
1.877496
 30
0.0
 40
0.508
  1
42
  7
COURIER_NEW
 72
         1
 11
41.73
 21
2.1
 31
0.0
100
AcDbText
 73
         2
  0
TEXT
  5
273
100
AcDbEntity
  8
PIN_NUMBERS_TOP
100
AcDbText
 10
43.294136
 20
3.877496
 30
0.0
 40
0.508
  1
43
  7
COURIER_NEW
 72
         1
 11
43.73
 21
4.1
 31
0.0
100
AcDbText
 73
         2
  0
TEXT
  5
274
100
AcDbEntity
  8
PIN_NUMBERS_TOP
100
AcDbText
 10
43.294136
 20
1.877496
 30
0.0
 40
0.508
  1
44
  7
COURIER_NEW
 72
         1
 11
43.73
 21
2.1
 31
0.0
100
AcDbText
 73
         2
  0
TEXT
  5
275
100
AcDbEntity
  8
PIN_NUMBERS_TOP
100
AcDbText
 10
45.294136
 20
3.877496
 30
0.0
 40
0.508
  1
45
  7
COURIER_NEW
 72
         1
 11
45.73
 21
4.1
 31
0.0
100
AcDbText
 73
         2
  0
TEXT
  5
276
100
AcDbEntity
  8
PIN_NUMBERS_TOP
100
AcDbText
 10
45.294136
 20
1.877496
 30
0.0
 40
0.508
  1
46
  7
COURIER_NEW
 72
         1
 11
45.73
 21
2.1
 31
0.0
100
AcDbText
 73
         2
  0
TEXT
  5
277
100
AcDbEntity
  8
PIN_NUMBERS_TOP
100
AcDbText
 10
47.294136
 20
3.877496
 30
0.0
 40
0.508
  1
47
  7
COURIER_NEW
 72
         1
 11
47.73
 21
4.1
 31
0.0
100
AcDbText
 73
         2
  0
TEXT
  5
278
100
AcDbEntity
  8
PIN_NUMBERS_TOP
100
AcDbText
 10
47.294136
 20
1.877496
 30
0.0
 40
0.508
  1
48
  7
COURIER_NEW
 72
         1
 11
47.73
 21
2.1
 31
0.0
100
AcDbText
 73
         2
  0
TEXT
  5
279
100
AcDbEntity
  8
PIN_NUMBERS_TOP
100
AcDbText
 10
49.294136
 20
3.877496
 30
0.0
 40
0.508
  1
49
  7
COURIER_NEW
 72
         1
 11
49.73
 21
4.1
 31
0.0
100
AcDbText
 73
         2
  0
TEXT
  5
27A
100
AcDbEntity
  8
PIN_NUMBERS_TOP
100
AcDbText
 10
49.294136
 20
1.877496
 30
0.0
 40
0.508
  1
50
  7
COURIER_NEW
 72
         1
 11
49.73
 21
2.1
 31
0.0
100
AcDbText
 73
         2
  0
LWPOLYLINE
  5
27B
100
AcDbEntity
  8
SILKSCREEN_OUTLINES_TOP
100
AcDbPolyline
 90
        4
 70
         1
 43
0.1
 10
5.3
 20
15.45
 10
5.3
 20
17.45
 10
12.3
 20
17.45
 10
12.3
 20
15.45
  0
LWPOLYLINE
  5
27C
100
AcDbEntity
  8
SILKSCREEN_OUTLINES_TOP
100
AcDbPolyline
 90
        3
 70
         1
 10
10.578
 20
17.466
 10
11.594
 20
15.434
 10
11.594
 20
17.466
  0
HATCH
  5
27D
100
AcDbEntity
  8
SILKSCREEN_OUTLINES_TOP
100
AcDbHatch
 10
0.0
 20
0.0
 30
0.0
210
0.0
220
0.0
230
1.0
  2
SOLID
 70
         1
 71
         1
 91
        1
 92
        2
 72
         0
 73
         1
 93
        3
 10
10.577999999999999
 20
17.466000000000001
 10
11.593999999999999
 20
15.433999999999999
 10
11.593999999999999
 20
17.466000000000001
 97
        1
330
27C
 75
         0
 76
         1
 98
        1
 10
0.0
 20
0.0
  0
LWPOLYLINE
  5
27E
100
AcDbEntity
  8
SILKSCREEN_OUTLINES_TOP
100
AcDbPolyline
 90
        4
 70
         0
 43
0.25
 10
44.002355
 20
12.712645
 10
44.002355
 20
12.912645
 10
43.602355
 20
12.912645
 10
43.602355
 20
12.712645
  0
LWPOLYLINE
  5
27F
100
AcDbEntity
  8
SILKSCREEN_OUTLINES_TOP
100
AcDbPolyline
 90
        5
 70
         1
 43
0.2
 10
44.418285
 20
12.420785
 10
50.133285
 20
12.420785
 10
50.133285
 20
8.610785
 10
45.053285
 20
8.610785
 10
44.418285
 20
9.245785
  0
LWPOLYLINE
  5
280
100
AcDbEntity
  8
SILKSCREEN_OUTLINES_TOP
100
AcDbPolyline
 90
        4
 70
         0
 43
0.25
 10
45.422645
 20
6.562645
 10
45.222645
 20
6.562645
 10
45.222645
 20
6.162645
 10
45.422645
 20
6.162645
  0
LWPOLYLINE
  5
281
100
AcDbEntity
  8
SILKSCREEN_OUTLINES_TOP
100
AcDbPolyline
 90
        4
 70
         0
 43
0.25
 10
42.25157
 20
14.44
 10
42.25157
 20
14.24
 10
42.65157
 20
14.24
 10
42.65157
 20
14.44
  0
LWPOLYLINE
  5
282
100
AcDbEntity
  8
SILKSCREEN_OUTLINES_TOP
100
AcDbPolyline
 90
        4
 70
         0
 43
0.25
 10
22.25
 20
26.04
 10
22.05
 20
26.04
 10
22.05
 20
25.64
 10
22.25
 20
25.64
  0
LWPOLYLINE
  5
283
100
AcDbEntity
  8
SILKSCREEN_OUTLINES_TOP
100
AcDbPolyline
 90
        4
 70
         0
 43
0.25
 10
21.45
 20
24.64
 10
21.65
 20
24.64
 10
21.65
 20
25.04
 10
21.45
 20
25.04
  0
LWPOLYLINE
  5
284
100
AcDbEntity
  8
SILKSCREEN_OUTLINES_TOP
100
AcDbPolyline
 90
        4
 70
         0
 43
0.25
 10
17.75
 20
25.04157
 10
17.55
 20
25.04157
 10
17.55
 20
24.64157
 10
17.75
 20
24.64157
  0
LWPOLYLINE
  5
285
100
AcDbEntity
  8
SILKSCREEN_OUTLINES_TOP
100
AcDbPolyline
 90
        2
 70
         1
 43
0.15
 10
18.6
 20
24.84
 42
-1.0
 10
19.9
 20
24.84
 42
-1.0
  0
LWPOLYLINE
  5
286
100
AcDbEntity
  8
SILKSCREEN_OUTLINES_TOP
100
AcDbPolyline
 90
        2
 70
         1
 43
0.15
 10
19.7
 20
25.54
 42
-1.0
 10
21.0
 20
25.54
 42
-1.0
  0
LWPOLYLINE
  5
287
100
AcDbEntity
  8
SILKSCREEN_OUTLINES_TOP
100
AcDbPolyline
 90
        4
 70
         0
 43
0.25
 10
18.36
 20
25.55
 10
18.56
 20
25.55
 10
18.56
 20
25.95
 10
18.36
 20
25.95
  0
LWPOLYLINE
  5
288
100
AcDbEntity
  8
SILKSCREEN_OUTLINES_TOP
100
AcDbPolyline
 90
        4
 70
         0
 43
0.25
 10
25.65
 20
25.04
 10
25.45
 20
25.04
 10
25.45
 20
24.64
 10
25.65
 20
24.64
  0
LWPOLYLINE
  5
289
100
AcDbEntity
  8
SILKSCREEN_OUTLINES_TOP
100
AcDbPolyline
 90
        2
 70
         1
 43
0.15
 10
26.2
 20
24.84
 42
-1.0
 10
27.5
 20
24.84
 42
-1.0
  0
LWPOLYLINE
  5
28A
100
AcDbEntity
  8
SILKSCREEN_OUTLINES_TOP
100
AcDbPolyline
 90
        4
 70
         0
 43
0.25
 10
26.25
 20
25.64
 10
26.45
 20
25.64
 10
26.45
 20
26.04
 10
26.25
 20
26.04
  0
LWPOLYLINE
  5
28B
100
AcDbEntity
  8
SILKSCREEN_OUTLINES_TOP
100
AcDbPolyline
 90
        2
 70
         1
 43
0.15
 10
22.9
 20
25.14
 42
-1.0
 10
24.2
 20
25.14
 42
-1.0
  0
LWPOLYLINE
  5
28C
100
AcDbEntity
  8
SILKSCREEN_OUTLINES_TOP
100
AcDbPolyline
 90
        4
 70
         0
 43
0.25
 10
23.85
 20
7.94
 10
24.05
 20
7.94
 10
24.05
 20
8.34
 10
23.85
 20
8.34
  0
LWPOLYLINE
  5
28D
100
AcDbEntity
  8
SILKSCREEN_OUTLINES_TOP
100
AcDbPolyline
 90
        4
 70
         0
 43
0.25
 10
39.84
 20
23.95
 10
39.84
 20
24.15
 10
39.44
 20
24.15
 10
39.44
 20
23.95
  0
LWPOLYLINE
  5
28E
100
AcDbEntity
  8
SILKSCREEN_OUTLINES_TOP
100
AcDbPolyline
 90
        4
 70
         0
 43
0.25
 10
41.85
 20
18.24
 10
41.65
 20
18.24
 10
41.65
 20
17.84
 10
41.85
 20
17.84
  0
LWPOLYLINE
  5
28F
100
AcDbEntity
  8
SILKSCREEN_OUTLINES_TOP
100
AcDbPolyline
 90
        5
 70
         1
 43
0.15
 10
50.36
 20
23.35
 10
50.36
 20
19.25
 10
48.571
 20
19.25
 10
48.571
 20
23.75
 10
49.968
 20
23.75
  0
LWPOLYLINE
  5
290
100
AcDbEntity
  8
SILKSCREEN_OUTLINES_TOP
100
AcDbPolyline
 90
        5
 70
         1
 43
0.15
 10
50.34
 20
18.65
 10
50.34
 20
14.55
 10
48.551
 20
14.55
 10
48.551
 20
19.05
 10
49.948
 20
19.05
  0
LWPOLYLINE
  5
291
100
AcDbEntity
  8
SILKSCREEN_OUTLINES_TOP
100
AcDbPolyline
 90
        4
 70
         0
 43
0.25
 10
48.49843
 20
24.69
 10
48.49843
 20
24.89
 10
48.09843
 20
24.89
 10
48.09843
 20
24.69
  0
LWPOLYLINE
  5
292
100
AcDbEntity
  8
SILKSCREEN_OUTLINES_TOP
100
AcDbPolyline
 90
        4
 70
         0
 43
0.25
 10
48.09157
 20
19.1
 10
48.09157
 20
19.3
 10
47.69157
 20
19.3
 10
47.69157
 20
19.1
  0
LWPOLYLINE
  5
293
100
AcDbEntity
  8
SILKSCREEN_OUTLINES_TOP
100
AcDbPolyline
 90
        5
 70
         1
 43
0.2
 10
40.34593
 20
20.30419
 10
47.49593
 20
20.30419
 10
47.49593
 20
23.55419
 10
46.84593
 20
24.20419
 10
40.34593
 20
24.20419
  0
LWPOLYLINE
  5
294
100
AcDbEntity
  8
SILKSCREEN_OUTLINES_TOP
100
AcDbPolyline
 90
        2
 70
         1
 43
0.2
 10
46.66157
 20
16.65
 42
-1.0
 10
47.16157
 20
16.65
 42
-1.0
  0
LWPOLYLINE
  5
295
100
AcDbEntity
  8
SILKSCREEN_OUTLINES_TOP
100
AcDbPolyline
 90
        4
 70
         1
 43
0.15
 10
44.05407
 20
16.3325
 10
44.05407
 20
16.9675
 10
47.22907
 20
16.9675
 10
47.22907
 20
16.3325
  0
LWPOLYLINE
  5
296
100
AcDbEntity
  8
SILKSCREEN_OUTLINES_TOP
100
AcDbPolyline
 90
        4
 70
         0
 43
0.25
 10
43.54157
 20
16.65
 10
43.54157
 20
16.85
 10
43.14157
 20
16.85
 10
43.14157
 20
16.65
  0
LWPOLYLINE
  5
297
100
AcDbEntity
  8
SILKSCREEN_OUTLINES_TOP
100
AcDbPolyline
 90
        4
 70
         1
 43
0.15
 10
38.97343
 20
13.24
 10
38.97343
 20
16.84
 10
41.37343
 20
16.84
 10
41.37343
 20
13.24
  0
LWPOLYLINE
  5
298
100
AcDbEntity
  8
SILKSCREEN_OUTLINES_TOP
100
AcDbPolyline
 90
        3
 70
         1
 10
41.37343
 20
13.24
 10
40.748431
 20
13.24
 10
41.37343
 20
13.739999
  0
HATCH
  5
299
100
AcDbEntity
  8
SILKSCREEN_OUTLINES_TOP
100
AcDbHatch
 10
0.0
 20
0.0
 30
0.0
210
0.0
220
0.0
230
1.0
  2
SOLID
 70
         1
 71
         1
 91
        1
 92
        2
 72
         0
 73
         1
 93
        3
 10
41.373429999999999
 20
13.24
 10
40.748430999999997
 20
13.24
 10
41.373429999999999
 20
13.739998999999999
 97
        1
330
298
 75
         0
 76
         1
 98
        1
 10
0.0
 20
0.0
  0
CIRCLE
  5
29A
100
AcDbEntity
  8
SILKSCREEN_OUTLINES_TOP
100
AcDbCircle
 10
40.57343
 20
13.64
 30
0.0
 40
0.2
  0
HATCH
  5
29B
100
AcDbEntity
  8
SILKSCREEN_OUTLINES_TOP
100
AcDbHatch
 10
0.0
 20
0.0
 30
0.0
210
0.0
220
0.0
230
1.0
  2
SOLID
 70
         1
 71
         1
 91
        1
 92
        1
 93
        1
 72
         2
 10
40.573430000000002
 20
13.640000000000001
 40
0.2
 50
0.0
 51
360.0
 73
         1
 97
        1
330
29A
 75
         0
 76
         1
 98
        1
 10
0.0
 20
0.0
  0
LWPOLYLINE
  5
29C
100
AcDbEntity
  8
SILKSCREEN_OUTLINES_TOP
100
AcDbPolyline
 90
        4
 70
         0
 43
0.25
 10
39.45
 20
20.54
 10
39.25
 20
20.54
 10
39.25
 20
20.14
 10
39.45
 20
20.14
  0
LWPOLYLINE
  5
29D
100
AcDbEntity
  8
SILKSCREEN_OUTLINES_TOP
100
AcDbPolyline
 90
        4
 70
         0
 43
0.25
 10
39.45
 20
18.94
 10
39.25
 20
18.94
 10
39.25
 20
18.54
 10
39.45
 20
18.54
  0
LWPOLYLINE
  5
29E
100
AcDbEntity
  8
SILKSCREEN_OUTLINES_TOP
100
AcDbPolyline
 90
        4
 70
         0
 43
0.25
 10
39.45
 20
19.74
 10
39.25
 20
19.74
 10
39.25
 20
19.34
 10
39.45
 20
19.34
  0
LWPOLYLINE
  5
29F
100
AcDbEntity
  8
SILKSCREEN_OUTLINES_TOP
100
AcDbPolyline
 90
        4
 70
         0
 43
0.25
 10
39.25
 20
17.74
 10
39.45
 20
17.74
 10
39.45
 20
18.14
 10
39.25
 20
18.14
  0
LWPOLYLINE
  5
2A0
100
AcDbEntity
  8
SILKSCREEN_OUTLINES_TOP
100
AcDbPolyline
 90
        5
 70
         1
 43
0.15
 10
33.25
 20
7.54
 10
37.35
 20
7.54
 10
37.35
 20
5.751
 10
32.85
 20
5.751
 10
32.85
 20
7.148
  0
LWPOLYLINE
  5
2A1
100
AcDbEntity
  8
SILKSCREEN_OUTLINES_TOP
100
AcDbPolyline
 90
        4
 70
         0
 43
0.25
 10
36.35
 20
8.04
 10
36.55
 20
8.04
 10
36.55
 20
8.44
 10
36.35
 20
8.44
  0
LWPOLYLINE
  5
2A2
100
AcDbEntity
  8
SILKSCREEN_OUTLINES_TOP
100
AcDbPolyline
 90
        2
 70
         1
 43
0.15
 10
24.6
 20
6.84
 42
-1.0
 10
25.9
 20
6.84
 42
-1.0
  0
LWPOLYLINE
  5
2A3
100
AcDbEntity
  8
SILKSCREEN_OUTLINES_TOP
100
AcDbPolyline
 90
        2
 70
         1
 43
0.15
 10
26.0
 20
7.14
 42
-1.0
 10
27.3
 20
7.14
 42
-1.0
  0
LWPOLYLINE
  5
2A4
100
AcDbEntity
  8
SILKSCREEN_OUTLINES_TOP
100
AcDbPolyline
 90
        2
 70
         1
 43
0.15
 10
24.8
 20
8.04
 42
-1.0
 10
26.1
 20
8.04
 42
-1.0
  0
LWPOLYLINE
  5
2A5
100
AcDbEntity
  8
SILKSCREEN_OUTLINES_TOP
100
AcDbPolyline
 90
        2
 70
         1
 43
0.15
 10
21.1
 20
7.14
 42
-1.0
 10
22.4
 20
7.14
 42
-1.0
  0
LWPOLYLINE
  5
2A6
100
AcDbEntity
  8
SILKSCREEN_OUTLINES_TOP
100
AcDbPolyline
 90
        2
 70
         1
 43
0.15
 10
19.9
 20
7.94
 42
-1.0
 10
21.2
 20
7.94
 42
-1.0
  0
LWPOLYLINE
  5
2A7
100
AcDbEntity
  8
SILKSCREEN_OUTLINES_TOP
100
AcDbPolyline
 90
        4
 70
         0
 43
0.25
 10
18.85157
 20
7.94
 10
19.05157
 20
7.94
 10
19.05157
 20
8.34
 10
18.85157
 20
8.34
  0
LWPOLYLINE
  5
2A8
100
AcDbEntity
  8
SILKSCREEN_OUTLINES_TOP
100
AcDbPolyline
 90
        4
 70
         0
 43
0.2
 10
18.25
 20
7.53843
 10
18.65
 20
7.53843
 10
18.65
 20
6.33843
 10
18.25
 20
6.33843
  0
LWPOLYLINE
  5
2A9
100
AcDbEntity
  8
SILKSCREEN_OUTLINES_TOP
100
AcDbPolyline
 90
        4
 70
         0
 43
0.25
 10
30.24843
 20
8.54
 10
30.04843
 20
8.54
 10
30.04843
 20
8.14
 10
30.24843
 20
8.14
  0
LWPOLYLINE
  5
2AA
100
AcDbEntity
  8
SILKSCREEN_OUTLINES_TOP
100
AcDbPolyline
 90
        4
 70
         0
 43
0.2
 10
30.45
 20
6.53843
 10
30.05
 20
6.53843
 10
30.05
 20
7.73843
 10
30.45
 20
7.73843
  0
LWPOLYLINE
  5
2AB
100
AcDbEntity
  8
SILKSCREEN_OUTLINES_TOP
100
AcDbPolyline
 90
        4
 70
         0
 43
0.25
 10
14.75
 20
16.94
 10
14.75
 20
16.74
 10
15.15
 20
16.74
 10
15.15
 20
16.94
  0
LWPOLYLINE
  5
2AC
100
AcDbEntity
  8
SILKSCREEN_OUTLINES_TOP
100
AcDbPolyline
 90
        4
 70
         0
 43
0.25
 10
16.25
 20
16.64
 10
16.05
 20
16.64
 10
16.05
 20
16.24
 10
16.25
 20
16.24
  0
LWPOLYLINE
  5
2AD
100
AcDbEntity
  8
SILKSCREEN_OUTLINES_TOP
100
AcDbPolyline
 90
        4
 70
         0
 43
0.25
 10
13.65
 20
16.24
 10
13.85
 20
16.24
 10
13.85
 20
16.64
 10
13.65
 20
16.64
  0
CIRCLE
  5
2AE
100
AcDbEntity
  8
SILKSCREEN_OUTLINES_TOP
100
AcDbCircle
 10
18.03
 20
9.47
 30
0.0
 40
0.5
  0
HATCH
  5
2AF
100
AcDbEntity
  8
SILKSCREEN_OUTLINES_TOP
100
AcDbHatch
 10
0.0
 20
0.0
 30
0.0
210
0.0
220
0.0
230
1.0
  2
SOLID
 70
         1
 71
         1
 91
        1
 92
        1
 93
        1
 72
         2
 10
18.030000000000001
 20
9.4700000000000006
 40
0.5
 50
0.0
 51
360.0
 73
         1
 97
        1
330
2AE
 75
         0
 76
         1
 98
        1
 10
0.0
 20
0.0
  0
LWPOLYLINE
  5
2B0
100
AcDbEntity
  8
SILKSCREEN_OUTLINES_TOP
100
AcDbPolyline
 90
        4
 70
         0
 43
0.25
 10
31.25
 20
24.64
 10
31.45
 20
24.64
 10
31.45
 20
25.04
 10
31.25
 20
25.04
  0
LWPOLYLINE
  5
2B1
100
AcDbEntity
  8
SILKSCREEN_OUTLINES_TOP
100
AcDbPolyline
 90
        2
 70
         1
 43
0.15
 10
29.0
 20
24.84
 42
-1.0
 10
30.3
 20
24.84
 42
-1.0
  0
LWPOLYLINE
  5
2B2
100
AcDbEntity
  8
SILKSCREEN_OUTLINES_TOP
100
AcDbPolyline
 90
        2
 70
         1
 43
0.15
 10
27.7
 20
25.44
 42
-1.0
 10
29.0
 20
25.44
 42
-1.0
  0
LWPOLYLINE
  5
2B3
100
AcDbEntity
  8
SILKSCREEN_OUTLINES_TOP
100
AcDbPolyline
 90
        4
 70
         0
 43
0.25
 10
31.05
 20
26.04
 10
30.85
 20
26.04
 10
30.85
 20
25.64
 10
31.05
 20
25.64
  0
LWPOLYLINE
  5
2B4
100
AcDbEntity
  8
SILKSCREEN_OUTLINES_TOP
100
AcDbPolyline
 90
        2
 70
         1
 43
0.15
 10
37.53
 20
9.7
 42
-1.0
 10
43.53
 20
9.7
 42
-1.0
  0
ENDSEC
  0
SECTION
  2
OBJECTS
  0
DICTIONARY
  5
19
100
AcDbDictionary
  3
ACAD_GROUP
350
1A
  3
ACAD_MLINESTYLE
350
1B
  0
DICTIONARY
  5
1A
102
{ACAD_REACTORS
330
19
102
}
100
AcDbDictionary
  0
DICTIONARY
  5
1B
102
{ACAD_REACTORS
330
19
102
}
100
AcDbDictionary
  3
STANDARD
350
1C
  0
MLINESTYLE
  5
1C
102
{ACAD_REACTORS
330
1B
102
}
100
AcDbMlineStyle
  2
STANDARD
 70
         0
  3

 62
         0
 51
90.0
 52
90.0
 71
         2
 49
0.5
 62
       256
  6
BYLAYER
 49
-0.5
 62
       256
  6
BYLAYER
  0
DICTIONARY
  5
22
102
{ACAD_REACTORS
330
19
102
}
100
AcDbDictionary
  0
ENDSEC
  0
EOF
