  0
SECTION
  2
HEADER
  9
$ACADVER
  1
AC1014
  9
$ACADMAINTVER
 70
         0
  9
$DWGCODEPAGE
  3
ANSI_1252
  9
$INSBASE
 10
0.0
 20
0.0
 30
0.0
  9
$EXTMIN
 10
-254.0
 20
-254.0
 30
0.0
  9
$EXTMAX
 10
254.0
 20
254.0
 30
0.0
  9
$LIMMIN
 10
0.0
 20
0.0
  9
$LIMMAX
 10
0.0
 20
0.0
  9
$ORTHOMODE
 70
         0
  9
$REGENMODE
 70
         1
  9
$FILLMODE
 70
         1
  9
$QTEXTMODE
 70
         0
  9
$MIRRTEXT
 70
         1
  9
$DRAGMODE
 70
         2
  9
$LTSCALE
 40
1.0
  9
$OSMODE
 70
         0
  9
$ATTMODE
 70
         1
  9
$TEXTSIZE
 40
0.2
  9
$TRACEWID
 40
0.05
  9
$TEXTSTYLE
  7
STANDARD
  9
$CLAYER
  8
0
  9
$CELTYPE
  6
CONTINUOUS
  9
$CECOLOR
 62
       256
  9
$CELTSCALE
 40
1.0
  9
$DELOBJ
 70
         1
  9
$DISPSILH
 70
         0
  9
$DIMSCALE
 40
1.0
  9
$DIMASZ
 40
0.18
  9
$DIMEXO
 40
0.0625
  9
$DIMDLI
 40
0.38
  9
$DIMRND
 40
0.0
  9
$DIMDLE
 40
0.0
  9
$DIMEXE
 40
0.18
  9
$DIMTP
 40
0.0
  9
$DIMTM
 40
0.0
  9
$DIMTXT
 40
0.18
  9
$DIMCEN
 40
0.09
  9
$DIMTSZ
 40
0.0
  9
$DIMTOL
 70
         0
  9
$DIMLIM
 70
         0
  9
$DIMTIH
 70
         1
  9
$DIMTOH
 70
         1
  9
$DIMSE1
 70
         0
  9
$DIMSE2
 70
         0
  9
$DIMTAD
 70
         0
  9
$DIMZIN
 70
         0
  9
$DIMBLK
  1

  9
$DIMASO
 70
         1
  9
$DIMSHO
 70
         1
  9
$DIMPOST
  1

  9
$DIMAPOST
  1

  9
$DIMALT
 70
         0
  9
$DIMALTD
 70
         2
  9
$DIMALTF
 40
25.4
  9
$DIMLFAC
 40
1.0
  9
$DIMTOFL
 70
         0
  9
$DIMTVP
 40
0.0
  9
$DIMTIX
 70
         0
  9
$DIMSOXD
 70
         0
  9
$DIMSAH
 70
         0
  9
$DIMBLK1
  1

  9
$DIMBLK2
  1

  9
$DIMSTYLE
  2
STANDARD
  9
$DIMCLRD
 70
         0
  9
$DIMCLRE
 70
         0
  9
$DIMCLRT
 70
         0
  9
$DIMTFAC
 40
1.0
  9
$DIMGAP
 40
0.09
  9
$DIMJUST
 70
         0
  9
$DIMSD1
 70
         0
  9
$DIMSD2
 70
         0
  9
$DIMTOLJ
 70
         1
  9
$DIMTZIN
 70
         0
  9
$DIMALTZ
 70
         0
  9
$DIMALTTZ
 70
         0
  9
$DIMFIT
 70
         3
  9
$DIMUPT
 70
         0
  9
$DIMUNIT
 70
         2
  9
$DIMDEC
 70
         4
  9
$DIMTDEC
 70
         4
  9
$DIMALTU
 70
         2
  9
$DIMALTTD
 70
         2
  9
$DIMTXSTY
  7
STANDARD
  9
$DIMAUNIT
 70
         0
  9
$LUNITS
 70
         2
  9
$LUPREC
 70
         4
  9
$SKETCHINC
 40
0.1
  9
$FILLETRAD
 40
0.0
  9
$AUNITS
 70
         0
  9
$AUPREC
 70
         0
  9
$MENU
  1
acad
  9
$ELEVATION
 40
0.0
  9
$PELEVATION
 40
0.0
  9
$THICKNESS
 40
0.0
  9
$LIMCHECK
 70
         0
  9
$BLIPMODE
 70
         1
  9
$CHAMFERA
 40
0.0
  9
$CHAMFERB
 40
0.0
  9
$CHAMFERC
 40
0.0
  9
$CHAMFERD
 40
0.0
  9
$SKPOLY
 70
         0
  9
$TDCREATE
 40
2455971.445231482
  9
$TDUPDATE
 40
0.000000000
  9
$TDINDWG
 40
0.0000000000
  9
$TDUSRTIMER
 40
0.0000000000
  9
$USRTIMER
 70
         1
  9
$ANGBASE
 50
0.0
  9
$ANGDIR
 70
         0
  9
$PDMODE
 70
         0
  9
$PDSIZE
 40
0.0
  9
$PLINEWID
 40
0.0
  9
$COORDS
 70
         0
  9
$SPLFRAME
 70
         0
  9
$SPLINETYPE
 70
         6
  9
$SPLINESEGS
 70
         8
  9
$ATTDIA
 70
         0
  9
$ATTREQ
 70
         1
  9
$HANDLING
 70
         1
  9
$HANDSEED
  5
4DD
  9
$SURFTAB1
 70
         6
  9
$SURFTAB2
 70
         6
  9
$SURFTYPE
 70
         6
  9
$SURFU
 70
         6
  9
$SURFV
 70
         6
  9
$UCSNAME
  2

  9
$UCSORG
 10
0.0
 20
0.0
 30
0.0
  9
$UCSXDIR
 10
1.0
 20
0.0
 30
0.0
  9
$UCSYDIR
 10
0.0
 20
1.0
 30
0.0
  9
$PUCSNAME
  2

  9
$PUCSORG
 10
0.0
 20
0.0
 30
0.0
  9
$PUCSXDIR
 10
1.0
 20
0.0
 30
0.0
  9
$PUCSYDIR
 10
0.0
 20
1.0
 30
0.0
  9
$USERI1
 70
        -3
  9
$USERI2
 70
         0
  9
$USERI3
 70
         0
  9
$USERI4
 70
         0
  9
$USERI5
 70
         0
  9
$USERR1
 40
0.0
  9
$USERR2
 40
0.0
  9
$USERR3
 40
0.0
  9
$USERR4
 40
0.0
  9
$USERR5
 40
0.0
  9
$WORLDVIEW
 70
         1
  9
$SHADEDGE
 70
         3
  9
$SHADEDIF
 70
        70
  9
$TILEMODE
 70
         1
  9
$MAXACTVP
 70
        16
  9
$PINSBASE
 10
0.0
 20
0.0
 30
0.0
  9
$PLIMCHECK
 70
         0
  9
$PEXTMIN
 10
1.0000000000E+20
 20
1.0000000000E+20
 30
1.0000000000E+20
  9
$PEXTMAX
 10
-1.0000000000E+20
 20
-1.0000000000E+20
 30
-1.0000000000E+20
  9
$PLIMMIN
 10
0.0
 20
0.0
  9
$PLIMMAX
 10
12.0
 20
9.0
  9
$UNITMODE
 70
         0
  9
$VISRETAIN
 70
         0
  9
$PLINEGEN
 70
         1
  9
$PSLTSCALE
 70
         0
  9
$TREEDEPTH
 70
      3020
  9
$PICKSTYLE
 70
         1
  9
$CMLSTYLE
  2
STANDARD
  9
$CMLJUST
 70
         0
  9
$CMLSCALE
 40
1.0
  9
$PROXYGRAPHICS
 70
         0
  9
$MEASUREMENT
 70
         0
  0
ENDSEC
  0
SECTION
  2
CLASSES
  0
CLASS
  1
LWPOLYLINE
  2
AcDbPolyline
  3
"AutoCAD"
 90
        0
280
         0
281
         1
  0
CLASS
  1
IMAGE
  2
AcDbRasterImage
  3
ISM
 90
      127
280
         0
281
         1
  0
CLASS
  1
OLE2FRAME
  2
AcDbOle2Frame
  3
""
 90
        0
280
         0
281
         1
  0
CLASS
  1
HATCH
  2
AcDbHatch
  3
"ACAD_SEDONA"
 90
        0
280
         0
281
         1
  0
CLASS
  1
DICTIONARYVAR
  2
AcDbDictionaryVar
  3
"AutoCAD"
 90
        0
280
         0
281
         0
  0
CLASS
  1
RASTERVARIABLES
  2
AcDbRasterVariables
  3
ISM
 90
        0
280
         0
281
         0
  0
CLASS
  1
IMAGEDEF
  2
AcDbRasterImageDef
  3
ISM
 90
        0
280
         0
281
         0
  0
CLASS
  1
IMAGEDEF_REACTOR
  2
AcDbRasterImageDefReactor
  3
ISM
 90
        1
280
         0
281
         0
  0
CLASS
  1
IDBUFFER
  2
AcDbIdBuffer
  3
"Acad"
 90
        0
280
         0
281
         0
  0
CLASS
  1
SPATIAL_FILTER
  2
AcDbSpatialFilter
  3
"Acad"
 90
        0
280
         0
281
         0
  0
CLASS
  1
XRECORD
  2
AcDbXrecord
  3
"<Built In>"
 90
        0
280
         0
281
         0
  0
CLASS
  1
SORTENTSTABLE
  2
AcDbSortentsTable
  3
"AutoCAD"
 90
        0
280
         0
281
         0
  0
CLASS
  1
LAYER_INDEX
  2
AcDbLayerIndex
  3
"Acad"
 90
        0
280
         0
281
         0
  0
CLASS
  1
SPATIAL_INDEX
  2
AcDbSpatialIndex
  3
"Acad"
 90
        0
280
         0
281
         0
  0
CLASS
  1
OBJECT_PTR
  2
CAseDLPNTableRecord
  3
"ASE-LPNTableRecord"
 90
        1
280
         0
281
         0
  0
CLASS
  1
LAYOUT
  2
AcDbLayout
  3
"AutoCAD 2000"
 90
        0
280
         0
281
         0
  0
CLASS
  1
PLOTSETTINGS
  2
AcDbPlotSettings
  3
"AutoCAD 2000"
 90
        0
280
         0
281
         0
  0
CLASS
  1
ACDBDICTIONARYWDFLT
  2
AcDbDictionaryWithDefault
  3
"AutoCAD 2000"
 90
        0
280
         0
281
         0
  0
CLASS
  1
ACDBPLACEHOLDER
  2
AcDbPlaceHolder
  3
"AutoCAD 2000"
 90
        0
280
         0
281
         0
  0
CLASS
  1
VBA_PROJECT
  2
AcDbVbaProject
  3
"acadvba"
 90
        0
280
         0
281
         0
  0
CLASS
  1
WIPEOUT
  2
AcDbWipeout
  3
WipeOut|AutoCAD Express Tool|expresstools@autodesk.com
 90
      127
280
         0
281
         1
  0
CLASS
  1
WIPEOUTVARIABLES
  2
AcDbWipeoutVariables
  3
WipeOut|AutoCAD Express Tool|expresstools@autodesk.com
 90
        0
280
         0
281
         0
  0
CLASS
  1
RTEXT
  2
RText
  3
RText|AutoCAD Express Tool|expresstools@autodesk.com
 90
        0
280
         0
281
         1
  0
CLASS
  1
ARCALIGNEDTEXT
  2
AcDbArcAlignedText
  3
ATEXT|AutoCAD Express Tool|expresstools@autodesk.com
 90
        0
280
         0
281
         1
  0
ENDSEC
  0
SECTION
  2
TABLES
  0
TABLE
  2
VPORT
  5
7
100
AcDbSymbolTable
 70
         1
  0
VPORT
  5
15
100
AcDbSymbolTableRecord
100
AcDbViewportTableRecord
  2
*ACTIVE
 70
         0
 10
0.0
 20
0.0
 11
1.0
 21
1.0
 12
6.591288
 22
4.579184
 13
0.0
 23
0.0
 14
1.0
 24
1.0
 15
0.0
 25
0.0
 16
0.0
 26
0.0
 36
1.0
 17
0.0
 27
0.0
 37
0.0
 40
9.158369
 41
0.688564
 42
50.0
 43
0.0
 44
0.0
 50
0.0
 51
0.0
 71
         0
 72
       100
 73
         1
 74
         1
 75
         0
 76
         0
 77
         0
 78
         0
  0
ENDTAB
  0
TABLE
  2
LTYPE
  5
4
100
AcDbSymbolTable
 70
         3
  0
LTYPE
  5
11
100
AcDbSymbolTableRecord
100
AcDbLinetypeTableRecord
  2
BYBLOCK
 70
        64
  3

 72
        65
 73
         0
 40
0.0
  0
LTYPE
  5
12
100
AcDbSymbolTableRecord
100
AcDbLinetypeTableRecord
  2
BYLAYER
 70
        64
  3

 72
        65
 73
         0
 40
0.0
  0
LTYPE
  5
13
100
AcDbSymbolTableRecord
100
AcDbLinetypeTableRecord
  2
CONTINUOUS
 70
        64
  3
Solid line
 72
        65
 73
         0
 40
0.0
  0
ENDTAB
  0
TABLE
  2
LAYER
  5
2
100
AcDbSymbolTable
 70
        11
  0
LAYER
  5
14
100
AcDbSymbolTableRecord
100
AcDbLayerTableRecord
  2
0
 70
         0
 62
         7
  6
CONTINUOUS
  0
LAYER
  5
24
100
AcDbSymbolTableRecord
100
AcDbLayerTableRecord
  2
ASSEMBLY_OUTLINES_TOP
 70
         0
 62
       104
  6
CONTINUOUS
  0
LAYER
  5
25
100
AcDbSymbolTableRecord
100
AcDbLayerTableRecord
  2
ASSEMBLY_REF_DES_TOP
 70
         0
 62
        30
  6
CONTINUOUS
  0
LAYER
  5
26
100
AcDbSymbolTableRecord
100
AcDbLayerTableRecord
  2
BOARD_OUTLINE
 70
         0
 62
        10
  6
CONTINUOUS
  0
LAYER
  5
27
100
AcDbSymbolTableRecord
100
AcDbLayerTableRecord
  2
DIMENSION-1
 70
         0
 62
        10
  6
CONTINUOUS
  0
LAYER
  5
28
100
AcDbSymbolTableRecord
100
AcDbLayerTableRecord
  2
MOUNTING_HOLES_LAYER_TOP
 70
         0
 62
       104
  6
CONTINUOUS
  0
LAYER
  5
29
100
AcDbSymbolTableRecord
100
AcDbLayerTableRecord
  2
PART_HOLES_LAYER_TOP
 70
         0
 62
       170
  6
CONTINUOUS
  0
LAYER
  5
2A
100
AcDbSymbolTableRecord
100
AcDbLayerTableRecord
  2
PART_PADS_SMD_TOP
 70
         0
 62
       170
  6
CONTINUOUS
  0
LAYER
  5
2B
100
AcDbSymbolTableRecord
100
AcDbLayerTableRecord
  2
PIN_NUMBERS_TOP
 70
         0
 62
         8
  6
CONTINUOUS
  0
LAYER
  5
2C
100
AcDbSymbolTableRecord
100
AcDbLayerTableRecord
  2
SILKSCREEN_OUTLINES_TOP
 70
         0
 62
       104
  6
CONTINUOUS
  0
LAYER
  5
2D
100
AcDbSymbolTableRecord
100
AcDbLayerTableRecord
  2
SOLDERMASK_PADS_TOP
 70
         0
 62
        81
  6
CONTINUOUS
  0
ENDTAB
  0
TABLE
  2
STYLE
  5
3
100
AcDbSymbolTable
 70
         3
  0
STYLE
  5
17
100
AcDbSymbolTableRecord
100
AcDbTextStyleTableRecord
  2
STANDARD
 70
         0
 40
0.0
 41
1.0
 50
0.0
 71
         0
 42
0.0
  3
txt
  4

  0
STYLE
  5
111
100
AcDbSymbolTableRecord
100
AcDbTextStyleTableRecord
  2
ARIAL
 70
         0
 40
0.0
 41
1.0
 50
0.0
 71
         0
 42
0.0
  3
ARIAL.TTF
  4

  0
STYLE
  5
2C3
100
AcDbSymbolTableRecord
100
AcDbTextStyleTableRecord
  2
COURIER_NEW
 70
         0
 40
0.0
 41
1.0
 50
0.0
 71
         0
 42
0.0
  3
COUR.TTF
  4

  0
ENDTAB
  0
TABLE
  2
VIEW
  5
5
100
AcDbSymbolTable
 70
         0
  0
ENDTAB
  0
TABLE
  2
UCS
  5
6
100
AcDbSymbolTable
 70
         0
  0
ENDTAB
  0
TABLE
  2
APPID
  5
8
100
AcDbSymbolTable
 70
         1
  0
APPID
  5
16
100
AcDbSymbolTableRecord
100
AcDbRegAppTableRecord
  2
ACAD
 70
         0
  0
ENDTAB
  0
TABLE
  2
DIMSTYLE
  5
9
100
AcDbSymbolTable
 70
         1
  0
DIMSTYLE
105
18
100
AcDbSymbolTableRecord
100
AcDbDimStyleTableRecord
  2
STANDARD
 70
         0
  3

  4

  5

  6

  7

 40
1.0
 41
0.18
 42
0.0625
 43
0.38
 44
0.18
 45
0.0
 46
0.0
 47
0.0
 48
0.0
 71
         0
 72
         0
 73
         1
 74
         1
 75
         0
 76
         0
 77
         0
 78
         0
140
0.18
141
0.09
142
0.0
143
25.4
144
1.0
145
0.0
146
1.0
147
0.09
170
         0
171
         2
172
         0
173
         0
174
         0
175
         0
176
         0
177
         0
178
         0
270
         2
271
         4
272
         4
273
         2
274
         2
275
         0
280
         0
281
         0
282
         0
283
         1
284
         0
285
         0
286
         0
287
         3
288
         0
340
17
  0
ENDTAB
  0
TABLE
  2
BLOCK_RECORD
  5
1
100
AcDbSymbolTable
 70
         0
  0
BLOCK_RECORD
  5
A
100
AcDbSymbolTableRecord
100
AcDbBlockTableRecord
  2
*MODEL_SPACE
  0
BLOCK_RECORD
  5
B
100
AcDbSymbolTableRecord
100
AcDbBlockTableRecord
  2
*PAPER_SPACE
  0
ENDTAB
  0
ENDSEC
  0
SECTION
  2
BLOCKS
  0
BLOCK
  5
D
100
AcDbEntity
  8
0
100
AcDbBlockBegin
  2
*MODEL_SPACE
 70
         0
 10
0.0
 20
0.0
 30
0.0
  3
*MODEL_SPACE
  1

  0
ENDBLK
  5
E
100
AcDbEntity
  8
0
100
AcDbBlockEnd
  0
BLOCK
  5
F
100
AcDbEntity
 67
         1
  8
0
100
AcDbBlockBegin
  2
*PAPER_SPACE
 70
         0
 10
0.0
 20
0.0
 30
0.0
  3
*PAPER_SPACE
  1

  0
ENDBLK
  5
10
100
AcDbEntity
 67
         1
  8
0
100
AcDbBlockEnd
  0
ENDSEC
  0
SECTION
  2
ENTITIES
  0
LWPOLYLINE
  5
2E
100
AcDbEntity
  8
ASSEMBLY_OUTLINES_TOP
100
AcDbPolyline
 90
        6
 70
         1
 43
0.15
 10
-16.0
 20
-18.6845
 10
-17.5
 20
-17.1845
 10
-17.5
 20
-12.7155
 10
17.5
 20
-12.652
 10
17.5
 20
-17.986
 10
16.827681
 20
-18.6845
  0
LWPOLYLINE
  5
2F
100
AcDbEntity
  8
ASSEMBLY_OUTLINES_TOP
100
AcDbPolyline
 90
        6
 70
         1
 43
0.15
 10
-16.0
 20
12.7155
 10
-17.5
 20
14.2155
 10
-17.5
 20
18.6845
 10
17.5
 20
18.748
 10
17.5
 20
13.414
 10
16.827681
 20
12.7155
  0
LWPOLYLINE
  5
30
100
AcDbEntity
  8
ASSEMBLY_OUTLINES_TOP
100
AcDbPolyline
 90
        4
 70
         1
 10
-27.504
 20
-22.5
 10
-27.504
 20
22.5
 10
27.496
 20
22.5
 10
27.496
 20
-22.5
  0
LWPOLYLINE
  5
31
100
AcDbEntity
  8
ASSEMBLY_OUTLINES_TOP
100
AcDbPolyline
 90
        2
 70
         0
 43
0.15
 10
-41.25
 20
0.0
 10
-38.0496
 20
0.0
  0
LWPOLYLINE
  5
32
100
AcDbEntity
  8
ASSEMBLY_OUTLINES_TOP
100
AcDbPolyline
 90
        2
 70
         0
 43
0.15
 10
-37.09949
 20
0.0
 10
-37.0995
 20
0.0
  0
LWPOLYLINE
  5
33
100
AcDbEntity
  8
ASSEMBLY_OUTLINES_TOP
100
AcDbPolyline
 90
        2
 70
         0
 43
0.15
 10
-36.1494
 20
0.0
 10
-32.949
 20
0.0
  0
LWPOLYLINE
  5
34
100
AcDbEntity
  8
ASSEMBLY_OUTLINES_TOP
100
AcDbPolyline
 90
        2
 70
         0
 43
0.15
 10
-31.99889
 20
0.0
 10
-31.9989
 20
0.0
  0
LWPOLYLINE
  5
35
100
AcDbEntity
  8
ASSEMBLY_OUTLINES_TOP
100
AcDbPolyline
 90
        2
 70
         0
 43
0.15
 10
-31.0488
 20
0.0
 10
-27.8484
 20
0.0
  0
LWPOLYLINE
  5
36
100
AcDbEntity
  8
ASSEMBLY_OUTLINES_TOP
100
AcDbPolyline
 90
        2
 70
         0
 43
0.15
 10
-26.89829
 20
0.0
 10
-26.8983
 20
0.0
  0
LWPOLYLINE
  5
37
100
AcDbEntity
  8
ASSEMBLY_OUTLINES_TOP
100
AcDbPolyline
 90
        2
 70
         0
 43
0.15
 10
-25.9482
 20
0.0
 10
-22.7478
 20
0.0
  0
LWPOLYLINE
  5
38
100
AcDbEntity
  8
ASSEMBLY_OUTLINES_TOP
100
AcDbPolyline
 90
        2
 70
         0
 43
0.15
 10
-21.79769
 20
0.0
 10
-21.7977
 20
0.0
  0
LWPOLYLINE
  5
39
100
AcDbEntity
  8
ASSEMBLY_OUTLINES_TOP
100
AcDbPolyline
 90
        2
 70
         0
 43
0.15
 10
-20.8476
 20
0.0
 10
-17.6472
 20
0.0
  0
LWPOLYLINE
  5
3A
100
AcDbEntity
  8
ASSEMBLY_OUTLINES_TOP
100
AcDbPolyline
 90
        2
 70
         0
 43
0.15
 10
-16.69709
 20
0.0
 10
-16.6971
 20
0.0
  0
LWPOLYLINE
  5
3B
100
AcDbEntity
  8
ASSEMBLY_OUTLINES_TOP
100
AcDbPolyline
 90
        2
 70
         0
 43
0.15
 10
-15.747
 20
0.0
 10
-12.5466
 20
0.0
  0
LWPOLYLINE
  5
3C
100
AcDbEntity
  8
ASSEMBLY_OUTLINES_TOP
100
AcDbPolyline
 90
        2
 70
         0
 43
0.15
 10
-11.59649
 20
0.0
 10
-11.5965
 20
0.0
  0
LWPOLYLINE
  5
3D
100
AcDbEntity
  8
ASSEMBLY_OUTLINES_TOP
100
AcDbPolyline
 90
        2
 70
         0
 43
0.15
 10
-10.6464
 20
0.0
 10
-7.446
 20
0.0
  0
LWPOLYLINE
  5
3E
100
AcDbEntity
  8
ASSEMBLY_OUTLINES_TOP
100
AcDbPolyline
 90
        2
 70
         0
 43
0.15
 10
-6.49589
 20
0.0
 10
-6.4959
 20
0.0
  0
LWPOLYLINE
  5
3F
100
AcDbEntity
  8
ASSEMBLY_OUTLINES_TOP
100
AcDbPolyline
 90
        2
 70
         0
 43
0.15
 10
-5.5458
 20
0.0
 10
-2.3454
 20
0.0
  0
LWPOLYLINE
  5
40
100
AcDbEntity
  8
ASSEMBLY_OUTLINES_TOP
100
AcDbPolyline
 90
        2
 70
         0
 43
0.15
 10
-1.39529
 20
0.0
 10
-1.3953
 20
0.0
  0
LWPOLYLINE
  5
41
100
AcDbEntity
  8
ASSEMBLY_OUTLINES_TOP
100
AcDbPolyline
 90
        2
 70
         0
 43
0.15
 10
-0.4452
 20
0.0
 10
2.7552
 20
0.0
  0
LWPOLYLINE
  5
42
100
AcDbEntity
  8
ASSEMBLY_OUTLINES_TOP
100
AcDbPolyline
 90
        2
 70
         0
 43
0.15
 10
3.70531
 20
0.0
 10
3.7053
 20
0.0
  0
LWPOLYLINE
  5
43
100
AcDbEntity
  8
ASSEMBLY_OUTLINES_TOP
100
AcDbPolyline
 90
        2
 70
         0
 43
0.15
 10
4.6554
 20
0.0
 10
7.8558
 20
0.0
  0
LWPOLYLINE
  5
44
100
AcDbEntity
  8
ASSEMBLY_OUTLINES_TOP
100
AcDbPolyline
 90
        2
 70
         0
 43
0.15
 10
8.80591
 20
0.0
 10
8.8059
 20
0.0
  0
LWPOLYLINE
  5
45
100
AcDbEntity
  8
ASSEMBLY_OUTLINES_TOP
100
AcDbPolyline
 90
        2
 70
         0
 43
0.15
 10
9.756
 20
0.0
 10
12.9564
 20
0.0
  0
LWPOLYLINE
  5
46
100
AcDbEntity
  8
ASSEMBLY_OUTLINES_TOP
100
AcDbPolyline
 90
        2
 70
         0
 43
0.15
 10
13.90651
 20
0.0
 10
13.9065
 20
0.0
  0
LWPOLYLINE
  5
47
100
AcDbEntity
  8
ASSEMBLY_OUTLINES_TOP
100
AcDbPolyline
 90
        2
 70
         0
 43
0.15
 10
14.8566
 20
0.0
 10
18.057
 20
0.0
  0
LWPOLYLINE
  5
48
100
AcDbEntity
  8
ASSEMBLY_OUTLINES_TOP
100
AcDbPolyline
 90
        2
 70
         0
 43
0.15
 10
19.00711
 20
0.0
 10
19.0071
 20
0.0
  0
LWPOLYLINE
  5
49
100
AcDbEntity
  8
ASSEMBLY_OUTLINES_TOP
100
AcDbPolyline
 90
        2
 70
         0
 43
0.15
 10
19.9572
 20
0.0
 10
23.1576
 20
0.0
  0
LWPOLYLINE
  5
4A
100
AcDbEntity
  8
ASSEMBLY_OUTLINES_TOP
100
AcDbPolyline
 90
        2
 70
         0
 43
0.15
 10
24.10771
 20
0.0
 10
24.1077
 20
0.0
  0
LWPOLYLINE
  5
4B
100
AcDbEntity
  8
ASSEMBLY_OUTLINES_TOP
100
AcDbPolyline
 90
        2
 70
         0
 43
0.15
 10
25.0578
 20
0.0
 10
28.2582
 20
0.0
  0
LWPOLYLINE
  5
4C
100
AcDbEntity
  8
ASSEMBLY_OUTLINES_TOP
100
AcDbPolyline
 90
        2
 70
         0
 43
0.15
 10
29.20831
 20
0.0
 10
29.2083
 20
0.0
  0
LWPOLYLINE
  5
4D
100
AcDbEntity
  8
ASSEMBLY_OUTLINES_TOP
100
AcDbPolyline
 90
        2
 70
         0
 43
0.15
 10
30.1584
 20
0.0
 10
33.3588
 20
0.0
  0
LWPOLYLINE
  5
4E
100
AcDbEntity
  8
ASSEMBLY_OUTLINES_TOP
100
AcDbPolyline
 90
        2
 70
         0
 43
0.15
 10
34.30891
 20
0.0
 10
34.3089
 20
0.0
  0
LWPOLYLINE
  5
4F
100
AcDbEntity
  8
ASSEMBLY_OUTLINES_TOP
100
AcDbPolyline
 90
        2
 70
         0
 43
0.15
 10
35.259
 20
0.0
 10
38.0
 20
0.0
  0
LWPOLYLINE
  5
50
100
AcDbEntity
  8
ASSEMBLY_OUTLINES_TOP
100
AcDbPolyline
 90
        2
 70
         0
 10
24.5
 20
-16.5
 10
24.49872
 20
-16.420004
  0
LWPOLYLINE
  5
51
100
AcDbEntity
  8
ASSEMBLY_OUTLINES_TOP
100
AcDbPolyline
 90
        2
 70
         0
 10
24.49872
 20
-16.420004
 10
24.49488
 20
-16.340089
  0
LWPOLYLINE
  5
52
100
AcDbEntity
  8
ASSEMBLY_OUTLINES_TOP
100
AcDbPolyline
 90
        2
 70
         0
 10
24.49488
 20
-16.340089
 10
24.488486
 20
-16.260339
  0
LWPOLYLINE
  5
53
100
AcDbEntity
  8
ASSEMBLY_OUTLINES_TOP
100
AcDbPolyline
 90
        2
 70
         0
 10
24.488486
 20
-16.260339
 10
24.479543
 20
-16.180833
  0
LWPOLYLINE
  5
54
100
AcDbEntity
  8
ASSEMBLY_OUTLINES_TOP
100
AcDbPolyline
 90
        2
 70
         0
 10
24.479543
 20
-16.180833
 10
24.46806
 20
-16.101655
  0
LWPOLYLINE
  5
55
100
AcDbEntity
  8
ASSEMBLY_OUTLINES_TOP
100
AcDbPolyline
 90
        2
 70
         0
 10
24.46806
 20
-16.101655
 10
24.45405
 20
-16.022885
  0
LWPOLYLINE
  5
56
100
AcDbEntity
  8
ASSEMBLY_OUTLINES_TOP
100
AcDbPolyline
 90
        2
 70
         0
 10
24.45405
 20
-16.022885
 10
24.437526
 20
-15.944603
  0
LWPOLYLINE
  5
57
100
AcDbEntity
  8
ASSEMBLY_OUTLINES_TOP
100
AcDbPolyline
 90
        2
 70
         0
 10
24.437526
 20
-15.944603
 10
24.418506
 20
-15.86689
  0
LWPOLYLINE
  5
58
100
AcDbEntity
  8
ASSEMBLY_OUTLINES_TOP
100
AcDbPolyline
 90
        2
 70
         0
 10
24.418506
 20
-15.86689
 10
24.397009
 20
-15.789826
  0
LWPOLYLINE
  5
59
100
AcDbEntity
  8
ASSEMBLY_OUTLINES_TOP
100
AcDbPolyline
 90
        2
 70
         0
 10
24.397009
 20
-15.789826
 10
24.373057
 20
-15.713489
  0
LWPOLYLINE
  5
5A
100
AcDbEntity
  8
ASSEMBLY_OUTLINES_TOP
100
AcDbPolyline
 90
        2
 70
         0
 10
24.373057
 20
-15.713489
 10
24.346675
 20
-15.637957
  0
LWPOLYLINE
  5
5B
100
AcDbEntity
  8
ASSEMBLY_OUTLINES_TOP
100
AcDbPolyline
 90
        2
 70
         0
 10
24.346675
 20
-15.637957
 10
24.317889
 20
-15.563308
  0
LWPOLYLINE
  5
5C
100
AcDbEntity
  8
ASSEMBLY_OUTLINES_TOP
100
AcDbPolyline
 90
        2
 70
         0
 10
24.317889
 20
-15.563308
 10
24.286729
 20
-15.489619
  0
LWPOLYLINE
  5
5D
100
AcDbEntity
  8
ASSEMBLY_OUTLINES_TOP
100
AcDbPolyline
 90
        2
 70
         0
 10
24.286729
 20
-15.489619
 10
24.253227
 20
-15.416964
  0
LWPOLYLINE
  5
5E
100
AcDbEntity
  8
ASSEMBLY_OUTLINES_TOP
100
AcDbPolyline
 90
        2
 70
         0
 10
24.253227
 20
-15.416964
 10
24.217418
 20
-15.345419
  0
LWPOLYLINE
  5
5F
100
AcDbEntity
  8
ASSEMBLY_OUTLINES_TOP
100
AcDbPolyline
 90
        2
 70
         0
 10
24.217418
 20
-15.345419
 10
24.179337
 20
-15.275056
  0
LWPOLYLINE
  5
60
100
AcDbEntity
  8
ASSEMBLY_OUTLINES_TOP
100
AcDbPolyline
 90
        2
 70
         0
 10
24.179337
 20
-15.275056
 10
24.139025
 20
-15.205948
  0
LWPOLYLINE
  5
61
100
AcDbEntity
  8
ASSEMBLY_OUTLINES_TOP
100
AcDbPolyline
 90
        2
 70
         0
 10
24.139025
 20
-15.205948
 10
24.096522
 20
-15.138165
  0
LWPOLYLINE
  5
62
100
AcDbEntity
  8
ASSEMBLY_OUTLINES_TOP
100
AcDbPolyline
 90
        2
 70
         0
 10
24.096522
 20
-15.138165
 10
24.051872
 20
-15.071776
  0
LWPOLYLINE
  5
63
100
AcDbEntity
  8
ASSEMBLY_OUTLINES_TOP
100
AcDbPolyline
 90
        2
 70
         0
 10
24.051872
 20
-15.071776
 10
24.00512
 20
-15.006851
  0
LWPOLYLINE
  5
64
100
AcDbEntity
  8
ASSEMBLY_OUTLINES_TOP
100
AcDbPolyline
 90
        2
 70
         0
 10
24.00512
 20
-15.006851
 10
23.956314
 20
-14.943454
  0
LWPOLYLINE
  5
65
100
AcDbEntity
  8
ASSEMBLY_OUTLINES_TOP
100
AcDbPolyline
 90
        2
 70
         0
 10
23.956314
 20
-14.943454
 10
23.905505
 20
-14.881652
  0
LWPOLYLINE
  5
66
100
AcDbEntity
  8
ASSEMBLY_OUTLINES_TOP
100
AcDbPolyline
 90
        2
 70
         0
 10
23.905505
 20
-14.881652
 10
23.852745
 20
-14.821508
  0
LWPOLYLINE
  5
67
100
AcDbEntity
  8
ASSEMBLY_OUTLINES_TOP
100
AcDbPolyline
 90
        2
 70
         0
 10
23.852745
 20
-14.821508
 10
23.798087
 20
-14.763082
  0
LWPOLYLINE
  5
68
100
AcDbEntity
  8
ASSEMBLY_OUTLINES_TOP
100
AcDbPolyline
 90
        2
 70
         0
 10
23.798087
 20
-14.763082
 10
23.741587
 20
-14.706435
  0
LWPOLYLINE
  5
69
100
AcDbEntity
  8
ASSEMBLY_OUTLINES_TOP
100
AcDbPolyline
 90
        2
 70
         0
 10
23.741587
 20
-14.706435
 10
23.683304
 20
-14.651626
  0
LWPOLYLINE
  5
6A
100
AcDbEntity
  8
ASSEMBLY_OUTLINES_TOP
100
AcDbPolyline
 90
        2
 70
         0
 10
23.683304
 20
-14.651626
 10
23.623297
 20
-14.598709
  0
LWPOLYLINE
  5
6B
100
AcDbEntity
  8
ASSEMBLY_OUTLINES_TOP
100
AcDbPolyline
 90
        2
 70
         0
 10
23.623297
 20
-14.598709
 10
23.561627
 20
-14.547739
  0
LWPOLYLINE
  5
6C
100
AcDbEntity
  8
ASSEMBLY_OUTLINES_TOP
100
AcDbPolyline
 90
        2
 70
         0
 10
23.561627
 20
-14.547739
 10
23.498358
 20
-14.498769
  0
LWPOLYLINE
  5
6D
100
AcDbEntity
  8
ASSEMBLY_OUTLINES_TOP
100
AcDbPolyline
 90
        2
 70
         0
 10
23.498358
 20
-14.498769
 10
23.433554
 20
-14.451849
  0
LWPOLYLINE
  5
6E
100
AcDbEntity
  8
ASSEMBLY_OUTLINES_TOP
100
AcDbPolyline
 90
        2
 70
         0
 10
23.433554
 20
-14.451849
 10
23.367282
 20
-14.407026
  0
LWPOLYLINE
  5
6F
100
AcDbEntity
  8
ASSEMBLY_OUTLINES_TOP
100
AcDbPolyline
 90
        2
 70
         0
 10
23.367282
 20
-14.407026
 10
23.29961
 20
-14.364347
  0
LWPOLYLINE
  5
70
100
AcDbEntity
  8
ASSEMBLY_OUTLINES_TOP
100
AcDbPolyline
 90
        2
 70
         0
 10
23.29961
 20
-14.364347
 10
23.230606
 20
-14.323855
  0
LWPOLYLINE
  5
71
100
AcDbEntity
  8
ASSEMBLY_OUTLINES_TOP
100
AcDbPolyline
 90
        2
 70
         0
 10
23.230606
 20
-14.323855
 10
23.160343
 20
-14.285591
  0
LWPOLYLINE
  5
72
100
AcDbEntity
  8
ASSEMBLY_OUTLINES_TOP
100
AcDbPolyline
 90
        2
 70
         0
 10
23.160343
 20
-14.285591
 10
23.088891
 20
-14.249596
  0
LWPOLYLINE
  5
73
100
AcDbEntity
  8
ASSEMBLY_OUTLINES_TOP
100
AcDbPolyline
 90
        2
 70
         0
 10
23.088891
 20
-14.249596
 10
23.016323
 20
-14.215906
  0
LWPOLYLINE
  5
74
100
AcDbEntity
  8
ASSEMBLY_OUTLINES_TOP
100
AcDbPolyline
 90
        2
 70
         0
 10
23.016323
 20
-14.215906
 10
22.942715
 20
-14.184554
  0
LWPOLYLINE
  5
75
100
AcDbEntity
  8
ASSEMBLY_OUTLINES_TOP
100
AcDbPolyline
 90
        2
 70
         0
 10
22.942715
 20
-14.184554
 10
22.868142
 20
-14.155575
  0
LWPOLYLINE
  5
76
100
AcDbEntity
  8
ASSEMBLY_OUTLINES_TOP
100
AcDbPolyline
 90
        2
 70
         0
 10
22.868142
 20
-14.155575
 10
22.792679
 20
-14.128996
  0
LWPOLYLINE
  5
77
100
AcDbEntity
  8
ASSEMBLY_OUTLINES_TOP
100
AcDbPolyline
 90
        2
 70
         0
 10
22.792679
 20
-14.128996
 10
22.716404
 20
-14.104846
  0
LWPOLYLINE
  5
78
100
AcDbEntity
  8
ASSEMBLY_OUTLINES_TOP
100
AcDbPolyline
 90
        2
 70
         0
 10
21.926501
 20
-14.001081
 10
21.9265
 20
-14.001081
  0
LWPOLYLINE
  5
79
100
AcDbEntity
  8
ASSEMBLY_OUTLINES_TOP
100
AcDbPolyline
 90
        2
 70
         0
 10
21.92651
 20
-14.001081
 10
21.9265
 20
-14.001081
  0
LWPOLYLINE
  5
7A
100
AcDbEntity
  8
ASSEMBLY_OUTLINES_TOP
100
AcDbPolyline
 90
        2
 70
         0
 10
21.9265
 20
-14.001081
 10
21.926499
 20
-14.001081
  0
LWPOLYLINE
  5
7B
100
AcDbEntity
  8
ASSEMBLY_OUTLINES_TOP
100
AcDbPolyline
 90
        2
 70
         0
 10
21.144059
 20
-14.151094
 10
21.069336
 20
-14.179686
  0
LWPOLYLINE
  5
7C
100
AcDbEntity
  8
ASSEMBLY_OUTLINES_TOP
100
AcDbPolyline
 90
        2
 70
         0
 10
21.069336
 20
-14.179686
 10
20.995566
 20
-14.210654
  0
LWPOLYLINE
  5
7D
100
AcDbEntity
  8
ASSEMBLY_OUTLINES_TOP
100
AcDbPolyline
 90
        2
 70
         0
 10
20.995566
 20
-14.210654
 10
20.922824
 20
-14.243967
  0
LWPOLYLINE
  5
7E
100
AcDbEntity
  8
ASSEMBLY_OUTLINES_TOP
100
AcDbPolyline
 90
        2
 70
         0
 10
20.922824
 20
-14.243967
 10
20.851186
 20
-14.27959
  0
LWPOLYLINE
  5
7F
100
AcDbEntity
  8
ASSEMBLY_OUTLINES_TOP
100
AcDbPolyline
 90
        2
 70
         0
 10
20.851186
 20
-14.27959
 10
20.780725
 20
-14.317487
  0
LWPOLYLINE
  5
80
100
AcDbEntity
  8
ASSEMBLY_OUTLINES_TOP
100
AcDbPolyline
 90
        2
 70
         0
 10
20.780725
 20
-14.317487
 10
20.711512
 20
-14.35762
  0
LWPOLYLINE
  5
81
100
AcDbEntity
  8
ASSEMBLY_OUTLINES_TOP
100
AcDbPolyline
 90
        2
 70
         0
 10
20.711512
 20
-14.35762
 10
20.643619
 20
-14.399947
  0
LWPOLYLINE
  5
82
100
AcDbEntity
  8
ASSEMBLY_OUTLINES_TOP
100
AcDbPolyline
 90
        2
 70
         0
 10
20.643619
 20
-14.399947
 10
20.577115
 20
-14.444424
  0
LWPOLYLINE
  5
83
100
AcDbEntity
  8
ASSEMBLY_OUTLINES_TOP
100
AcDbPolyline
 90
        2
 70
         0
 10
20.577115
 20
-14.444424
 10
20.512068
 20
-14.491007
  0
LWPOLYLINE
  5
84
100
AcDbEntity
  8
ASSEMBLY_OUTLINES_TOP
100
AcDbPolyline
 90
        2
 70
         0
 10
20.512068
 20
-14.491007
 10
20.448545
 20
-14.539648
  0
LWPOLYLINE
  5
85
100
AcDbEntity
  8
ASSEMBLY_OUTLINES_TOP
100
AcDbPolyline
 90
        2
 70
         0
 10
20.448545
 20
-14.539648
 10
20.386611
 20
-14.590296
  0
LWPOLYLINE
  5
86
100
AcDbEntity
  8
ASSEMBLY_OUTLINES_TOP
100
AcDbPolyline
 90
        2
 70
         0
 10
20.386611
 20
-14.590296
 10
20.326329
 20
-14.6429
  0
LWPOLYLINE
  5
87
100
AcDbEntity
  8
ASSEMBLY_OUTLINES_TOP
100
AcDbPolyline
 90
        2
 70
         0
 10
20.326329
 20
-14.6429
 10
20.267762
 20
-14.697406
  0
LWPOLYLINE
  5
88
100
AcDbEntity
  8
ASSEMBLY_OUTLINES_TOP
100
AcDbPolyline
 90
        2
 70
         0
 10
20.267762
 20
-14.697406
 10
20.210969
 20
-14.753758
  0
LWPOLYLINE
  5
89
100
AcDbEntity
  8
ASSEMBLY_OUTLINES_TOP
100
AcDbPolyline
 90
        2
 70
         0
 10
20.210969
 20
-14.753758
 10
20.156008
 20
-14.811899
  0
LWPOLYLINE
  5
8A
100
AcDbEntity
  8
ASSEMBLY_OUTLINES_TOP
100
AcDbPolyline
 90
        2
 70
         0
 10
20.156008
 20
-14.811899
 10
20.102935
 20
-14.871768
  0
LWPOLYLINE
  5
8B
100
AcDbEntity
  8
ASSEMBLY_OUTLINES_TOP
100
AcDbPolyline
 90
        2
 70
         0
 10
20.102935
 20
-14.871768
 10
20.051806
 20
-14.933305
  0
LWPOLYLINE
  5
8C
100
AcDbEntity
  8
ASSEMBLY_OUTLINES_TOP
100
AcDbPolyline
 90
        2
 70
         0
 10
20.051806
 20
-14.933305
 10
20.002671
 20
-14.996447
  0
LWPOLYLINE
  5
8D
100
AcDbEntity
  8
ASSEMBLY_OUTLINES_TOP
100
AcDbPolyline
 90
        2
 70
         0
 10
20.002671
 20
-14.996447
 10
19.955583
 20
-15.061128
  0
LWPOLYLINE
  5
8E
100
AcDbEntity
  8
ASSEMBLY_OUTLINES_TOP
100
AcDbPolyline
 90
        2
 70
         0
 10
19.955583
 20
-15.061128
 10
19.910588
 20
-15.127284
  0
LWPOLYLINE
  5
8F
100
AcDbEntity
  8
ASSEMBLY_OUTLINES_TOP
100
AcDbPolyline
 90
        2
 70
         0
 10
19.910588
 20
-15.127284
 10
19.867733
 20
-15.194845
  0
LWPOLYLINE
  5
90
100
AcDbEntity
  8
ASSEMBLY_OUTLINES_TOP
100
AcDbPolyline
 90
        2
 70
         0
 10
19.867733
 20
-15.194845
 10
19.827062
 20
-15.263742
  0
LWPOLYLINE
  5
91
100
AcDbEntity
  8
ASSEMBLY_OUTLINES_TOP
100
AcDbPolyline
 90
        2
 70
         0
 10
19.827062
 20
-15.263742
 10
19.788616
 20
-15.333906
  0
LWPOLYLINE
  5
92
100
AcDbEntity
  8
ASSEMBLY_OUTLINES_TOP
100
AcDbPolyline
 90
        2
 70
         0
 10
19.788616
 20
-15.333906
 10
19.752435
 20
-15.405264
  0
LWPOLYLINE
  5
93
100
AcDbEntity
  8
ASSEMBLY_OUTLINES_TOP
100
AcDbPolyline
 90
        2
 70
         0
 10
19.752435
 20
-15.405264
 10
19.718556
 20
-15.477744
  0
LWPOLYLINE
  5
94
100
AcDbEntity
  8
ASSEMBLY_OUTLINES_TOP
100
AcDbPolyline
 90
        2
 70
         0
 10
19.718556
 20
-15.477744
 10
19.687014
 20
-15.55127
  0
LWPOLYLINE
  5
95
100
AcDbEntity
  8
ASSEMBLY_OUTLINES_TOP
100
AcDbPolyline
 90
        2
 70
         0
 10
19.687014
 20
-15.55127
 10
19.65784
 20
-15.625768
  0
LWPOLYLINE
  5
96
100
AcDbEntity
  8
ASSEMBLY_OUTLINES_TOP
100
AcDbPolyline
 90
        2
 70
         0
 10
19.65784
 20
-15.625768
 10
19.631065
 20
-15.701162
  0
LWPOLYLINE
  5
97
100
AcDbEntity
  8
ASSEMBLY_OUTLINES_TOP
100
AcDbPolyline
 90
        2
 70
         0
 10
19.631065
 20
-15.701162
 10
19.606717
 20
-15.777373
  0
LWPOLYLINE
  5
98
100
AcDbEntity
  8
ASSEMBLY_OUTLINES_TOP
100
AcDbPolyline
 90
        2
 70
         0
 10
19.606717
 20
-15.777373
 10
19.584819
 20
-15.854325
  0
LWPOLYLINE
  5
99
100
AcDbEntity
  8
ASSEMBLY_OUTLINES_TOP
100
AcDbPolyline
 90
        2
 70
         0
 10
19.584819
 20
-15.854325
 10
19.565395
 20
-15.931938
  0
LWPOLYLINE
  5
9A
100
AcDbEntity
  8
ASSEMBLY_OUTLINES_TOP
100
AcDbPolyline
 90
        2
 70
         0
 10
19.565395
 20
-15.931938
 10
19.548465
 20
-16.010132
  0
LWPOLYLINE
  5
9B
100
AcDbEntity
  8
ASSEMBLY_OUTLINES_TOP
100
AcDbPolyline
 90
        2
 70
         0
 10
19.548465
 20
-16.010132
 10
19.534045
 20
-16.088829
  0
LWPOLYLINE
  5
9C
100
AcDbEntity
  8
ASSEMBLY_OUTLINES_TOP
100
AcDbPolyline
 90
        2
 70
         0
 10
19.534045
 20
-16.088829
 10
19.522151
 20
-16.167946
  0
LWPOLYLINE
  5
9D
100
AcDbEntity
  8
ASSEMBLY_OUTLINES_TOP
100
AcDbPolyline
 90
        2
 70
         0
 10
19.522151
 20
-16.167946
 10
19.512795
 20
-16.247404
  0
LWPOLYLINE
  5
9E
100
AcDbEntity
  8
ASSEMBLY_OUTLINES_TOP
100
AcDbPolyline
 90
        2
 70
         0
 10
19.512795
 20
-16.247404
 10
19.505986
 20
-16.32712
  0
LWPOLYLINE
  5
9F
100
AcDbEntity
  8
ASSEMBLY_OUTLINES_TOP
100
AcDbPolyline
 90
        2
 70
         0
 10
19.505986
 20
-16.32712
 10
19.501731
 20
-16.407013
  0
LWPOLYLINE
  5
A0
100
AcDbEntity
  8
ASSEMBLY_OUTLINES_TOP
100
AcDbPolyline
 90
        2
 70
         0
 10
19.501731
 20
-16.407013
 10
19.500035
 20
-16.487002
  0
LWPOLYLINE
  5
A1
100
AcDbEntity
  8
ASSEMBLY_OUTLINES_TOP
100
AcDbPolyline
 90
        2
 70
         0
 10
19.500035
 20
-16.487002
 10
19.500899
 20
-16.567004
  0
LWPOLYLINE
  5
A2
100
AcDbEntity
  8
ASSEMBLY_OUTLINES_TOP
100
AcDbPolyline
 90
        2
 70
         0
 10
19.500899
 20
-16.567004
 10
19.504322
 20
-16.646937
  0
LWPOLYLINE
  5
A3
100
AcDbEntity
  8
ASSEMBLY_OUTLINES_TOP
100
AcDbPolyline
 90
        2
 70
         0
 10
19.677283
 20
-17.424629
 10
19.677273
 20
-17.424629
  0
LWPOLYLINE
  5
A4
100
AcDbEntity
  8
ASSEMBLY_OUTLINES_TOP
100
AcDbPolyline
 90
        2
 70
         0
 10
19.677273
 20
-17.424629
 10
19.677273
 20
-17.42463
  0
LWPOLYLINE
  5
A5
100
AcDbEntity
  8
ASSEMBLY_OUTLINES_TOP
100
AcDbPolyline
 90
        2
 70
         0
 10
19.677273
 20
-17.42463
 10
19.677274
 20
-17.42463
  0
LWPOLYLINE
  5
A6
100
AcDbEntity
  8
ASSEMBLY_OUTLINES_TOP
100
AcDbPolyline
 90
        2
 70
         0
 10
20.086109
 20
-18.108421
 10
20.138556
 20
-18.168839
  0
LWPOLYLINE
  5
A7
100
AcDbEntity
  8
ASSEMBLY_OUTLINES_TOP
100
AcDbPolyline
 90
        2
 70
         0
 10
20.138556
 20
-18.168839
 10
20.19291
 20
-18.227548
  0
LWPOLYLINE
  5
A8
100
AcDbEntity
  8
ASSEMBLY_OUTLINES_TOP
100
AcDbPolyline
 90
        2
 70
         0
 10
20.19291
 20
-18.227548
 10
20.249114
 20
-18.284488
  0
LWPOLYLINE
  5
A9
100
AcDbEntity
  8
ASSEMBLY_OUTLINES_TOP
100
AcDbPolyline
 90
        2
 70
         0
 10
20.249114
 20
-18.284488
 10
20.307112
 20
-18.3396
  0
LWPOLYLINE
  5
AA
100
AcDbEntity
  8
ASSEMBLY_OUTLINES_TOP
100
AcDbPolyline
 90
        2
 70
         0
 10
20.307112
 20
-18.3396
 10
20.366843
 20
-18.392827
  0
LWPOLYLINE
  5
AB
100
AcDbEntity
  8
ASSEMBLY_OUTLINES_TOP
100
AcDbPolyline
 90
        2
 70
         0
 10
20.366843
 20
-18.392827
 10
20.428247
 20
-18.444117
  0
LWPOLYLINE
  5
AC
100
AcDbEntity
  8
ASSEMBLY_OUTLINES_TOP
100
AcDbPolyline
 90
        2
 70
         0
 10
20.428247
 20
-18.444117
 10
20.491261
 20
-18.493415
  0
LWPOLYLINE
  5
AD
100
AcDbEntity
  8
ASSEMBLY_OUTLINES_TOP
100
AcDbPolyline
 90
        2
 70
         0
 10
20.491261
 20
-18.493415
 10
20.55582
 20
-18.540672
  0
LWPOLYLINE
  5
AE
100
AcDbEntity
  8
ASSEMBLY_OUTLINES_TOP
100
AcDbPolyline
 90
        2
 70
         0
 10
20.55582
 20
-18.540672
 10
20.621858
 20
-18.585838
  0
LWPOLYLINE
  5
AF
100
AcDbEntity
  8
ASSEMBLY_OUTLINES_TOP
100
AcDbPolyline
 90
        2
 70
         0
 10
20.621858
 20
-18.585838
 10
20.689308
 20
-18.628869
  0
LWPOLYLINE
  5
B0
100
AcDbEntity
  8
ASSEMBLY_OUTLINES_TOP
100
AcDbPolyline
 90
        2
 70
         0
 10
20.689308
 20
-18.628869
 10
20.7581
 20
-18.669719
  0
LWPOLYLINE
  5
B1
100
AcDbEntity
  8
ASSEMBLY_OUTLINES_TOP
100
AcDbPolyline
 90
        2
 70
         0
 10
20.7581
 20
-18.669719
 10
20.828163
 20
-18.708347
  0
LWPOLYLINE
  5
B2
100
AcDbEntity
  8
ASSEMBLY_OUTLINES_TOP
100
AcDbPolyline
 90
        2
 70
         0
 10
20.828163
 20
-18.708347
 10
20.899427
 20
-18.744713
  0
LWPOLYLINE
  5
B3
100
AcDbEntity
  8
ASSEMBLY_OUTLINES_TOP
100
AcDbPolyline
 90
        2
 70
         0
 10
20.899427
 20
-18.744713
 10
20.971818
 20
-18.77878
  0
LWPOLYLINE
  5
B4
100
AcDbEntity
  8
ASSEMBLY_OUTLINES_TOP
100
AcDbPolyline
 90
        2
 70
         0
 10
20.971818
 20
-18.77878
 10
21.045263
 20
-18.810514
  0
LWPOLYLINE
  5
B5
100
AcDbEntity
  8
ASSEMBLY_OUTLINES_TOP
100
AcDbPolyline
 90
        2
 70
         0
 10
21.045263
 20
-18.810514
 10
21.119685
 20
-18.839881
  0
LWPOLYLINE
  5
B6
100
AcDbEntity
  8
ASSEMBLY_OUTLINES_TOP
100
AcDbPolyline
 90
        2
 70
         0
 10
21.119685
 20
-18.839881
 10
21.195008
 20
-18.866851
  0
LWPOLYLINE
  5
B7
100
AcDbEntity
  8
ASSEMBLY_OUTLINES_TOP
100
AcDbPolyline
 90
        2
 70
         0
 10
21.195008
 20
-18.866851
 10
21.271156
 20
-18.891398
  0
LWPOLYLINE
  5
B8
100
AcDbEntity
  8
ASSEMBLY_OUTLINES_TOP
100
AcDbPolyline
 90
        2
 70
         0
 10
21.271156
 20
-18.891398
 10
21.348051
 20
-18.913495
  0
LWPOLYLINE
  5
B9
100
AcDbEntity
  8
ASSEMBLY_OUTLINES_TOP
100
AcDbPolyline
 90
        2
 70
         0
 10
21.348051
 20
-18.913495
 10
21.425613
 20
-18.933121
  0
LWPOLYLINE
  5
BA
100
AcDbEntity
  8
ASSEMBLY_OUTLINES_TOP
100
AcDbPolyline
 90
        2
 70
         0
 10
21.425613
 20
-18.933121
 10
21.503763
 20
-18.950254
  0
LWPOLYLINE
  5
BB
100
AcDbEntity
  8
ASSEMBLY_OUTLINES_TOP
100
AcDbPolyline
 90
        2
 70
         0
 10
21.503763
 20
-18.950254
 10
21.582422
 20
-18.964878
  0
LWPOLYLINE
  5
BC
100
AcDbEntity
  8
ASSEMBLY_OUTLINES_TOP
100
AcDbPolyline
 90
        2
 70
         0
 10
21.582422
 20
-18.964878
 10
21.661508
 20
-18.976978
  0
LWPOLYLINE
  5
BD
100
AcDbEntity
  8
ASSEMBLY_OUTLINES_TOP
100
AcDbPolyline
 90
        2
 70
         0
 10
21.661508
 20
-18.976978
 10
21.740941
 20
-18.986541
  0
LWPOLYLINE
  5
BE
100
AcDbEntity
  8
ASSEMBLY_OUTLINES_TOP
100
AcDbPolyline
 90
        2
 70
         0
 10
21.740941
 20
-18.986541
 10
21.82064
 20
-18.993557
  0
LWPOLYLINE
  5
BF
100
AcDbEntity
  8
ASSEMBLY_OUTLINES_TOP
100
AcDbPolyline
 90
        2
 70
         0
 10
21.82064
 20
-18.993557
 10
21.900522
 20
-18.998019
  0
LWPOLYLINE
  5
C0
100
AcDbEntity
  8
ASSEMBLY_OUTLINES_TOP
100
AcDbPolyline
 90
        2
 70
         0
 10
21.900522
 20
-18.998019
 10
21.980506
 20
-18.999923
  0
LWPOLYLINE
  5
C1
100
AcDbEntity
  8
ASSEMBLY_OUTLINES_TOP
100
AcDbPolyline
 90
        2
 70
         0
 10
21.980506
 20
-18.999923
 10
22.060509
 20
-18.999267
  0
LWPOLYLINE
  5
C2
100
AcDbEntity
  8
ASSEMBLY_OUTLINES_TOP
100
AcDbPolyline
 90
        2
 70
         0
 10
22.060509
 20
-18.999267
 10
22.140451
 20
-18.996051
  0
LWPOLYLINE
  5
C3
100
AcDbEntity
  8
ASSEMBLY_OUTLINES_TOP
100
AcDbPolyline
 90
        2
 70
         0
 10
22.140451
 20
-18.996051
 10
22.220249
 20
-18.990279
  0
LWPOLYLINE
  5
C4
100
AcDbEntity
  8
ASSEMBLY_OUTLINES_TOP
100
AcDbPolyline
 90
        2
 70
         0
 10
22.220249
 20
-18.990279
 10
22.299822
 20
-18.981956
  0
LWPOLYLINE
  5
C5
100
AcDbEntity
  8
ASSEMBLY_OUTLINES_TOP
100
AcDbPolyline
 90
        2
 70
         0
 10
22.299822
 20
-18.981956
 10
22.379087
 20
-18.971091
  0
LWPOLYLINE
  5
C6
100
AcDbEntity
  8
ASSEMBLY_OUTLINES_TOP
100
AcDbPolyline
 90
        2
 70
         0
 10
22.379087
 20
-18.971091
 10
22.457965
 20
-18.957695
  0
LWPOLYLINE
  5
C7
100
AcDbEntity
  8
ASSEMBLY_OUTLINES_TOP
100
AcDbPolyline
 90
        2
 70
         0
 10
22.457965
 20
-18.957695
 10
22.536373
 20
-18.941782
  0
LWPOLYLINE
  5
C8
100
AcDbEntity
  8
ASSEMBLY_OUTLINES_TOP
100
AcDbPolyline
 90
        2
 70
         0
 10
22.536373
 20
-18.941782
 10
22.614232
 20
-18.923369
  0
LWPOLYLINE
  5
C9
100
AcDbEntity
  8
ASSEMBLY_OUTLINES_TOP
100
AcDbPolyline
 90
        2
 70
         0
 10
22.614232
 20
-18.923369
 10
22.691461
 20
-18.902473
  0
LWPOLYLINE
  5
CA
100
AcDbEntity
  8
ASSEMBLY_OUTLINES_TOP
100
AcDbPolyline
 90
        2
 70
         0
 10
22.691461
 20
-18.902473
 10
22.767983
 20
-18.879117
  0
LWPOLYLINE
  5
CB
100
AcDbEntity
  8
ASSEMBLY_OUTLINES_TOP
100
AcDbPolyline
 90
        2
 70
         0
 10
22.767983
 20
-18.879117
 10
22.843718
 20
-18.853325
  0
LWPOLYLINE
  5
CC
100
AcDbEntity
  8
ASSEMBLY_OUTLINES_TOP
100
AcDbPolyline
 90
        2
 70
         0
 10
22.843718
 20
-18.853325
 10
22.918589
 20
-18.825122
  0
LWPOLYLINE
  5
CD
100
AcDbEntity
  8
ASSEMBLY_OUTLINES_TOP
100
AcDbPolyline
 90
        2
 70
         0
 10
22.918589
 20
-18.825122
 10
22.992519
 20
-18.794538
  0
LWPOLYLINE
  5
CE
100
AcDbEntity
  8
ASSEMBLY_OUTLINES_TOP
100
AcDbPolyline
 90
        2
 70
         0
 10
23.663994
 20
-18.365776
 10
23.663995
 20
-18.365776
  0
LWPOLYLINE
  5
CF
100
AcDbEntity
  8
ASSEMBLY_OUTLINES_TOP
100
AcDbPolyline
 90
        2
 70
         0
 10
23.663995
 20
-18.365776
 10
23.663995
 20
-18.365775
  0
LWPOLYLINE
  5
D0
100
AcDbEntity
  8
ASSEMBLY_OUTLINES_TOP
100
AcDbPolyline
 90
        2
 70
         0
 10
23.663995
 20
-18.365775
 10
23.663996
 20
-18.365775
  0
LWPOLYLINE
  5
D1
100
AcDbEntity
  8
ASSEMBLY_OUTLINES_TOP
100
AcDbPolyline
 90
        2
 70
         0
 10
24.166484
 20
-17.747534
 10
24.206059
 20
-17.676138
  0
LWPOLYLINE
  5
D2
100
AcDbEntity
  8
ASSEMBLY_OUTLINES_TOP
100
AcDbPolyline
 90
        2
 70
         0
 10
24.206059
 20
-17.676138
 10
24.243281
 20
-17.603487
  0
LWPOLYLINE
  5
D3
100
AcDbEntity
  8
ASSEMBLY_OUTLINES_TOP
100
AcDbPolyline
 90
        2
 70
         0
 10
24.243281
 20
-17.603487
 10
24.278112
 20
-17.529661
  0
LWPOLYLINE
  5
D4
100
AcDbEntity
  8
ASSEMBLY_OUTLINES_TOP
100
AcDbPolyline
 90
        2
 70
         0
 10
24.278112
 20
-17.529661
 10
24.310514
 20
-17.454736
  0
LWPOLYLINE
  5
D5
100
AcDbEntity
  8
ASSEMBLY_OUTLINES_TOP
100
AcDbPolyline
 90
        2
 70
         0
 10
24.310514
 20
-17.454736
 10
24.340452
 20
-17.378794
  0
LWPOLYLINE
  5
D6
100
AcDbEntity
  8
ASSEMBLY_OUTLINES_TOP
100
AcDbPolyline
 90
        2
 70
         0
 10
24.340452
 20
-17.378794
 10
24.367895
 20
-17.301914
  0
LWPOLYLINE
  5
D7
100
AcDbEntity
  8
ASSEMBLY_OUTLINES_TOP
100
AcDbPolyline
 90
        2
 70
         0
 10
24.367895
 20
-17.301914
 10
24.392814
 20
-17.22418
  0
LWPOLYLINE
  5
D8
100
AcDbEntity
  8
ASSEMBLY_OUTLINES_TOP
100
AcDbPolyline
 90
        2
 70
         0
 10
24.392814
 20
-17.22418
 10
24.415181
 20
-17.145673
  0
LWPOLYLINE
  5
D9
100
AcDbEntity
  8
ASSEMBLY_OUTLINES_TOP
100
AcDbPolyline
 90
        2
 70
         0
 10
24.415181
 20
-17.145673
 10
24.434974
 20
-17.066478
  0
LWPOLYLINE
  5
DA
100
AcDbEntity
  8
ASSEMBLY_OUTLINES_TOP
100
AcDbPolyline
 90
        2
 70
         0
 10
24.434974
 20
-17.066478
 10
24.45217
 20
-16.986679
  0
LWPOLYLINE
  5
DB
100
AcDbEntity
  8
ASSEMBLY_OUTLINES_TOP
100
AcDbPolyline
 90
        2
 70
         0
 10
24.45217
 20
-16.986679
 10
24.466752
 20
-16.906362
  0
LWPOLYLINE
  5
DC
100
AcDbEntity
  8
ASSEMBLY_OUTLINES_TOP
100
AcDbPolyline
 90
        2
 70
         0
 10
24.466752
 20
-16.906362
 10
24.478704
 20
-16.825611
  0
LWPOLYLINE
  5
DD
100
AcDbEntity
  8
ASSEMBLY_OUTLINES_TOP
100
AcDbPolyline
 90
        2
 70
         0
 10
24.478704
 20
-16.825611
 10
24.488013
 20
-16.744513
  0
LWPOLYLINE
  5
DE
100
AcDbEntity
  8
ASSEMBLY_OUTLINES_TOP
100
AcDbPolyline
 90
        2
 70
         0
 10
24.488013
 20
-16.744513
 10
24.494669
 20
-16.663154
  0
LWPOLYLINE
  5
DF
100
AcDbEntity
  8
ASSEMBLY_OUTLINES_TOP
100
AcDbPolyline
 90
        2
 70
         0
 10
24.494669
 20
-16.663154
 10
24.498666
 20
-16.581621
  0
LWPOLYLINE
  5
E0
100
AcDbEntity
  8
ASSEMBLY_OUTLINES_TOP
100
AcDbPolyline
 90
        2
 70
         0
 10
24.498666
 20
-16.581621
 10
24.5
 20
-16.500001
  0
LWPOLYLINE
  5
E1
100
AcDbEntity
  8
ASSEMBLY_OUTLINES_TOP
100
AcDbPolyline
 90
        2
 70
         0
 10
-25.504
 20
20.5
 10
-22.3036
 20
20.5
  0
LWPOLYLINE
  5
E2
100
AcDbEntity
  8
ASSEMBLY_OUTLINES_TOP
100
AcDbPolyline
 90
        2
 70
         0
 10
-21.50096
 20
20.5
 10
-18.30056
 20
20.5
  0
LWPOLYLINE
  5
E3
100
AcDbEntity
  8
ASSEMBLY_OUTLINES_TOP
100
AcDbPolyline
 90
        2
 70
         0
 10
-17.49792
 20
20.5
 10
-14.29752
 20
20.5
  0
LWPOLYLINE
  5
E4
100
AcDbEntity
  8
ASSEMBLY_OUTLINES_TOP
100
AcDbPolyline
 90
        2
 70
         0
 10
-13.49488
 20
20.5
 10
-10.29448
 20
20.5
  0
LWPOLYLINE
  5
E5
100
AcDbEntity
  8
ASSEMBLY_OUTLINES_TOP
100
AcDbPolyline
 90
        2
 70
         0
 10
-9.49184
 20
20.5
 10
-6.29144
 20
20.5
  0
LWPOLYLINE
  5
E6
100
AcDbEntity
  8
ASSEMBLY_OUTLINES_TOP
100
AcDbPolyline
 90
        2
 70
         0
 10
-5.4888
 20
20.5
 10
-2.2884
 20
20.5
  0
LWPOLYLINE
  5
E7
100
AcDbEntity
  8
ASSEMBLY_OUTLINES_TOP
100
AcDbPolyline
 90
        2
 70
         0
 10
-1.48576
 20
20.5
 10
1.71464
 20
20.5
  0
LWPOLYLINE
  5
E8
100
AcDbEntity
  8
ASSEMBLY_OUTLINES_TOP
100
AcDbPolyline
 90
        2
 70
         0
 10
2.51728
 20
20.5
 10
5.71768
 20
20.5
  0
LWPOLYLINE
  5
E9
100
AcDbEntity
  8
ASSEMBLY_OUTLINES_TOP
100
AcDbPolyline
 90
        2
 70
         0
 10
6.52032
 20
20.5
 10
9.72072
 20
20.5
  0
LWPOLYLINE
  5
EA
100
AcDbEntity
  8
ASSEMBLY_OUTLINES_TOP
100
AcDbPolyline
 90
        2
 70
         0
 10
10.52336
 20
20.5
 10
13.72376
 20
20.5
  0
LWPOLYLINE
  5
EB
100
AcDbEntity
  8
ASSEMBLY_OUTLINES_TOP
100
AcDbPolyline
 90
        2
 70
         0
 10
14.5264
 20
20.5
 10
17.7268
 20
20.5
  0
LWPOLYLINE
  5
EC
100
AcDbEntity
  8
ASSEMBLY_OUTLINES_TOP
100
AcDbPolyline
 90
        2
 70
         0
 10
18.52944
 20
20.5
 10
21.72984
 20
20.5
  0
LWPOLYLINE
  5
ED
100
AcDbEntity
  8
ASSEMBLY_OUTLINES_TOP
100
AcDbPolyline
 90
        2
 70
         0
 10
22.53248
 20
20.5
 10
25.496
 20
20.5
  0
LWPOLYLINE
  5
EE
100
AcDbEntity
  8
ASSEMBLY_OUTLINES_TOP
100
AcDbPolyline
 90
        2
 70
         0
 10
25.496
 20
20.5
 10
25.496
 20
17.2996
  0
LWPOLYLINE
  5
EF
100
AcDbEntity
  8
ASSEMBLY_OUTLINES_TOP
100
AcDbPolyline
 90
        2
 70
         0
 10
25.496
 20
16.49696
 10
25.496
 20
13.29656
  0
LWPOLYLINE
  5
F0
100
AcDbEntity
  8
ASSEMBLY_OUTLINES_TOP
100
AcDbPolyline
 90
        2
 70
         0
 10
25.496
 20
12.49392
 10
25.496
 20
9.29352
  0
LWPOLYLINE
  5
F1
100
AcDbEntity
  8
ASSEMBLY_OUTLINES_TOP
100
AcDbPolyline
 90
        2
 70
         0
 10
25.496
 20
8.49088
 10
25.496
 20
5.29048
  0
LWPOLYLINE
  5
F2
100
AcDbEntity
  8
ASSEMBLY_OUTLINES_TOP
100
AcDbPolyline
 90
        2
 70
         0
 10
25.496
 20
4.48784
 10
25.496
 20
1.28744
  0
LWPOLYLINE
  5
F3
100
AcDbEntity
  8
ASSEMBLY_OUTLINES_TOP
100
AcDbPolyline
 90
        2
 70
         0
 10
25.496
 20
0.4848
 10
25.496
 20
-2.7156
  0
LWPOLYLINE
  5
F4
100
AcDbEntity
  8
ASSEMBLY_OUTLINES_TOP
100
AcDbPolyline
 90
        2
 70
         0
 10
25.496
 20
-3.51824
 10
25.496
 20
-6.71864
  0
LWPOLYLINE
  5
F5
100
AcDbEntity
  8
ASSEMBLY_OUTLINES_TOP
100
AcDbPolyline
 90
        2
 70
         0
 10
25.496
 20
-7.52128
 10
25.496
 20
-10.72168
  0
LWPOLYLINE
  5
F6
100
AcDbEntity
  8
ASSEMBLY_OUTLINES_TOP
100
AcDbPolyline
 90
        2
 70
         0
 10
25.496
 20
-11.52432
 10
25.496
 20
-14.72472
  0
LWPOLYLINE
  5
F7
100
AcDbEntity
  8
ASSEMBLY_OUTLINES_TOP
100
AcDbPolyline
 90
        2
 70
         0
 10
25.496
 20
-15.52736
 10
25.496
 20
-18.72776
  0
LWPOLYLINE
  5
F8
100
AcDbEntity
  8
ASSEMBLY_OUTLINES_TOP
100
AcDbPolyline
 90
        2
 70
         0
 10
25.496
 20
-19.5304
 10
25.496
 20
-20.5
  0
LWPOLYLINE
  5
F9
100
AcDbEntity
  8
ASSEMBLY_OUTLINES_TOP
100
AcDbPolyline
 90
        2
 70
         0
 10
-25.504
 20
-20.5
 10
-22.3036
 20
-20.5
  0
LWPOLYLINE
  5
FA
100
AcDbEntity
  8
ASSEMBLY_OUTLINES_TOP
100
AcDbPolyline
 90
        2
 70
         0
 10
-21.50096
 20
-20.5
 10
-18.30056
 20
-20.5
  0
LWPOLYLINE
  5
FB
100
AcDbEntity
  8
ASSEMBLY_OUTLINES_TOP
100
AcDbPolyline
 90
        2
 70
         0
 10
-17.49792
 20
-20.5
 10
-14.29752
 20
-20.5
  0
LWPOLYLINE
  5
FC
100
AcDbEntity
  8
ASSEMBLY_OUTLINES_TOP
100
AcDbPolyline
 90
        2
 70
         0
 10
-13.49488
 20
-20.5
 10
-10.29448
 20
-20.5
  0
LWPOLYLINE
  5
FD
100
AcDbEntity
  8
ASSEMBLY_OUTLINES_TOP
100
AcDbPolyline
 90
        2
 70
         0
 10
-9.49184
 20
-20.5
 10
-6.29144
 20
-20.5
  0
LWPOLYLINE
  5
FE
100
AcDbEntity
  8
ASSEMBLY_OUTLINES_TOP
100
AcDbPolyline
 90
        2
 70
         0
 10
-5.4888
 20
-20.5
 10
-2.2884
 20
-20.5
  0
LWPOLYLINE
  5
FF
100
AcDbEntity
  8
ASSEMBLY_OUTLINES_TOP
100
AcDbPolyline
 90
        2
 70
         0
 10
-1.48576
 20
-20.5
 10
1.71464
 20
-20.5
  0
LWPOLYLINE
  5
100
100
AcDbEntity
  8
ASSEMBLY_OUTLINES_TOP
100
AcDbPolyline
 90
        2
 70
         0
 10
2.51728
 20
-20.5
 10
5.71768
 20
-20.5
  0
LWPOLYLINE
  5
101
100
AcDbEntity
  8
ASSEMBLY_OUTLINES_TOP
100
AcDbPolyline
 90
        2
 70
         0
 10
6.52032
 20
-20.5
 10
9.72072
 20
-20.5
  0
LWPOLYLINE
  5
102
100
AcDbEntity
  8
ASSEMBLY_OUTLINES_TOP
100
AcDbPolyline
 90
        2
 70
         0
 10
10.52336
 20
-20.5
 10
13.72376
 20
-20.5
  0
LWPOLYLINE
  5
103
100
AcDbEntity
  8
ASSEMBLY_OUTLINES_TOP
100
AcDbPolyline
 90
        2
 70
         0
 10
14.5264
 20
-20.5
 10
17.7268
 20
-20.5
  0
LWPOLYLINE
  5
104
100
AcDbEntity
  8
ASSEMBLY_OUTLINES_TOP
100
AcDbPolyline
 90
        2
 70
         0
 10
18.52944
 20
-20.5
 10
21.72984
 20
-20.5
  0
LWPOLYLINE
  5
105
100
AcDbEntity
  8
ASSEMBLY_OUTLINES_TOP
100
AcDbPolyline
 90
        2
 70
         0
 10
22.53248
 20
-20.5
 10
25.496
 20
-20.5
  0
LWPOLYLINE
  5
106
100
AcDbEntity
  8
ASSEMBLY_OUTLINES_TOP
100
AcDbPolyline
 90
        2
 70
         0
 10
-25.504
 20
-20.5
 10
-25.504
 20
-17.2996
  0
LWPOLYLINE
  5
107
100
AcDbEntity
  8
ASSEMBLY_OUTLINES_TOP
100
AcDbPolyline
 90
        2
 70
         0
 10
-25.504
 20
-16.49696
 10
-25.504
 20
-13.29656
  0
LWPOLYLINE
  5
108
100
AcDbEntity
  8
ASSEMBLY_OUTLINES_TOP
100
AcDbPolyline
 90
        2
 70
         0
 10
-25.504
 20
-12.49392
 10
-25.504
 20
-9.29352
  0
LWPOLYLINE
  5
109
100
AcDbEntity
  8
ASSEMBLY_OUTLINES_TOP
100
AcDbPolyline
 90
        2
 70
         0
 10
-25.504
 20
-8.49088
 10
-25.504
 20
-5.29048
  0
LWPOLYLINE
  5
10A
100
AcDbEntity
  8
ASSEMBLY_OUTLINES_TOP
100
AcDbPolyline
 90
        2
 70
         0
 10
-25.504
 20
-4.48784
 10
-25.504
 20
-1.28744
  0
LWPOLYLINE
  5
10B
100
AcDbEntity
  8
ASSEMBLY_OUTLINES_TOP
100
AcDbPolyline
 90
        2
 70
         0
 10
-25.504
 20
-0.4848
 10
-25.504
 20
2.7156
  0
LWPOLYLINE
  5
10C
100
AcDbEntity
  8
ASSEMBLY_OUTLINES_TOP
100
AcDbPolyline
 90
        2
 70
         0
 10
-25.504
 20
3.51824
 10
-25.504
 20
6.71864
  0
LWPOLYLINE
  5
10D
100
AcDbEntity
  8
ASSEMBLY_OUTLINES_TOP
100
AcDbPolyline
 90
        2
 70
         0
 10
-25.504
 20
7.52128
 10
-25.504
 20
10.72168
  0
LWPOLYLINE
  5
10E
100
AcDbEntity
  8
ASSEMBLY_OUTLINES_TOP
100
AcDbPolyline
 90
        2
 70
         0
 10
-25.504
 20
11.52432
 10
-25.504
 20
14.72472
  0
LWPOLYLINE
  5
10F
100
AcDbEntity
  8
ASSEMBLY_OUTLINES_TOP
100
AcDbPolyline
 90
        2
 70
         0
 10
-25.504
 20
15.52736
 10
-25.504
 20
18.72776
  0
LWPOLYLINE
  5
110
100
AcDbEntity
  8
ASSEMBLY_OUTLINES_TOP
100
AcDbPolyline
 90
        2
 70
         0
 10
-25.504
 20
19.5304
 10
-25.504
 20
20.5
  0
TEXT
  5
112
100
AcDbEntity
  8
ASSEMBLY_REF_DES_TOP
100
AcDbText
 10
0.804623
 20
-16.043956
 30
0.0
 40
1.0
  1
Ref Des
  7
ARIAL
 11
0.804623
 21
-15.003956
 31
0.0
100
AcDbText
 73
         3
  0
LWPOLYLINE
  5
113
100
AcDbEntity
  8
BOARD_OUTLINE
100
AcDbPolyline
 90
        4
 70
         1
 43
0.000001
 10
-254.0
 20
-254.0
 10
-254.0
 20
254.0
 10
254.0
 20
254.0
 10
254.0
 20
-254.0
  0
TEXT
  5
114
100
AcDbEntity
  8
DIMENSION-1
100
AcDbText
 10
-35.1536
 20
-2.520949
 30
0.0
 40
1.27
  1
41mm
 50
90.0
  7
ARIAL
 72
         1
 11
-35.814
 21
0.000001
 31
0.0
100
AcDbText
 73
         2
  0
TEXT
  5
115
100
AcDbEntity
  8
DIMENSION-1
100
AcDbText
 10
-2.524951
 20
-32.456032
 30
0.0
 40
1.27
  1
51mm
  7
ARIAL
 72
         1
 11
-0.004001
 21
-31.795632
 31
0.0
100
AcDbText
 73
         2
  0
TEXT
  5
116
100
AcDbEntity
  8
DIMENSION-1
100
AcDbText
 10
2.609428
 20
-4.229211
 30
0.0
 40
1.27
  1
D5mm
  7
ARIAL
 72
         1
 11
5.280873
 21
-3.568811
 31
0.0
100
AcDbText
 73
         2
  0
TEXT
  5
117
100
AcDbEntity
  8
DIMENSION-1
100
AcDbText
 10
3.580502
 20
-8.6604
 30
0.0
 40
1.27
  1
D1.1mm
  7
ARIAL
 72
         1
 11
7.008867
 21
-8.0
 31
0.0
100
AcDbText
 73
         2
  0
TEXT
  5
118
100
AcDbEntity
  8
DIMENSION-1
100
AcDbText
 10
-9.437232
 20
-8.6604
 30
0.0
 40
1.27
  1
D1.1mm
  7
ARIAL
 72
         1
 11
-6.008867
 21
-8.0
 31
0.0
100
AcDbText
 73
         2
  0
TEXT
  5
119
100
AcDbEntity
  8
DIMENSION-1
100
AcDbText
 10
-12.437232
 20
-4.1604
 30
0.0
 40
1.27
  1
D2.2mm
  7
ARIAL
 72
         1
 11
-9.008867
 21
-3.5
 31
0.0
100
AcDbText
 73
         2
  0
TEXT
  5
11A
100
AcDbEntity
  8
DIMENSION-1
100
AcDbText
 10
8.062408
 20
23.379105
 30
0.0
 40
1.27
  1
5.3mm
  7
ARIAL
 72
         1
 11
10.835453
 21
24.039505
 31
0.0
100
AcDbText
 73
         2
  0
TEXT
  5
11B
100
AcDbEntity
  8
DIMENSION-1
100
AcDbText
 10
-30.675592
 20
26.327694
 30
0.0
 40
1.27
  1
7.3mm
  7
ARIAL
 72
         1
 11
-27.902547
 21
26.988094
 31
0.0
100
AcDbText
 73
         2
  0
TEXT
  5
11C
100
AcDbEntity
  8
DIMENSION-1
100
AcDbText
 10
-30.675592
 20
23.255511
 30
0.0
 40
1.27
  1
5.3mm
  7
ARIAL
 72
         1
 11
-27.902547
 21
23.915911
 31
0.0
100
AcDbText
 73
         2
  0
TEXT
  5
11D
100
AcDbEntity
  8
DIMENSION-1
100
AcDbText
 10
-12.425592
 20
23.252692
 30
0.0
 40
1.27
  1
0.5mm
  7
ARIAL
 72
         1
 11
-9.652547
 21
23.913092
 31
0.0
100
AcDbText
 73
         2
  0
TEXT
  5
11E
100
AcDbEntity
  8
DIMENSION-1
100
AcDbText
 10
-3.277869
 20
-25.660399
 30
0.0
 40
1.27
  1
29.5mm
  7
ARIAL
 72
         1
 11
0.000001
 21
-24.999999
 31
0.0
100
AcDbText
 73
         2
  0
TEXT
  5
11F
100
AcDbEntity
  8
DIMENSION-1
100
AcDbText
 10
-2.524951
 20
-34.932536
 30
0.0
 40
1.27
  1
55mm
  7
ARIAL
 72
         1
 11
-0.004001
 21
-34.272136
 31
0.0
100
AcDbText
 73
         2
  0
TEXT
  5
120
100
AcDbEntity
  8
DIMENSION-1
100
AcDbText
 10
-2.520949
 20
-30.074936
 30
0.0
 40
1.27
  1
44mm
  7
ARIAL
 72
         1
 11
0.000001
 21
-29.414536
 31
0.0
100
AcDbText
 73
         2
  0
TEXT
  5
121
100
AcDbEntity
  8
DIMENSION-1
100
AcDbText
 10
-3.277869
 20
-27.80227
 30
0.0
 40
1.27
  1
33.5mm
  7
ARIAL
 72
         1
 11
0.000001
 21
-27.14187
 31
0.0
100
AcDbText
 73
         2
  0
TEXT
  5
122
100
AcDbEntity
  8
DIMENSION-1
100
AcDbText
 10
-37.581718
 20
-2.520949
 30
0.0
 40
1.27
  1
45mm
 50
90.0
  7
ARIAL
 72
         1
 11
-38.242118
 21
0.000001
 31
0.0
100
AcDbText
 73
         2
  0
TEXT
  5
123
100
AcDbEntity
  8
DIMENSION-1
100
AcDbText
 10
33.4264
 20
-13.370498
 30
0.0
 40
1.27
  1
2.3mm
 50
90.0
  7
ARIAL
 72
         1
 11
32.766
 21
-10.597453
 31
0.0
100
AcDbText
 73
         2
  0
TEXT
  5
124
100
AcDbEntity
  8
DIMENSION-1
100
AcDbText
 10
33.626519
 20
19.629502
 30
0.0
 40
1.27
  1
3.9mm
 50
90.0
  7
ARIAL
 72
         1
 11
32.966119
 21
22.402547
 31
0.0
100
AcDbText
 73
         2
  0
TEXT
  5
125
100
AcDbEntity
  8
DIMENSION-1
100
AcDbText
 10
31.000549
 20
-10.564498
 30
0.0
 40
1.27
  1
2.8mm
 50
90.0
  7
ARIAL
 72
         1
 11
30.340149
 21
-7.791453
 31
0.0
100
AcDbText
 73
         2
  0
TEXT
  5
126
100
AcDbEntity
  8
DIMENSION-1
100
AcDbText
 10
30.807709
 20
20.839502
 30
0.0
 40
1.27
  1
1.2mm
 50
90.0
  7
ARIAL
 72
         1
 11
30.147309
 21
23.612547
 31
0.0
100
AcDbText
 73
         2
  0
TEXT
  5
127
100
AcDbEntity
  8
DIMENSION-1
100
AcDbText
 10
-30.581599
 20
-3.277869
 30
0.0
 40
1.27
  1
25.3mm
 50
90.0
  7
ARIAL
 72
         1
 11
-31.241999
 21
0.000001
 31
0.0
100
AcDbText
 73
         2
  0
TEXT
  5
128
100
AcDbEntity
  8
DIMENSION-1
100
AcDbText
 10
-32.867599
 20
-2.520949
 30
0.0
 40
1.27
  1
33mm
 50
90.0
  7
ARIAL
 72
         1
 11
-33.527999
 21
0.000001
 31
0.0
100
AcDbText
 73
         2
  0
TEXT
  5
129
100
AcDbEntity
  8
DIMENSION-1
100
AcDbText
 10
8.0
 20
-4.3208
 30
0.0
 40
1.27
  1
pad
  7
ARIAL
 11
8.0
 21
-3.0
 31
0.0
100
AcDbText
 73
         3
  0
TEXT
  5
12A
100
AcDbEntity
  8
DIMENSION-1
100
AcDbText
 10
-12.25
 20
-6.3208
 30
0.0
 40
1.27
  1
mounting hole
  7
ARIAL
 11
-12.25
 21
-5.0
 31
0.0
100
AcDbText
 73
         3
  0
LWPOLYLINE
  5
12B
100
AcDbEntity
  8
DIMENSION-1
100
AcDbPolyline
 90
        2
 70
         0
 43
0.2032
 10
-22.508
 20
16.5
 10
-34.036
 20
16.5
  0
LWPOLYLINE
  5
12C
100
AcDbEntity
  8
DIMENSION-1
100
AcDbPolyline
 90
        2
 70
         0
 43
0.2032
 10
-22.508
 20
-16.5
 10
-34.036
 20
-16.5
  0
LWPOLYLINE
  5
12D
100
AcDbEntity
  8
DIMENSION-1
100
AcDbPolyline
 90
        2
 70
         0
 43
0.2032
 10
-33.528
 20
15.9285
 10
-33.528
 20
2.881946
  0
LWPOLYLINE
  5
12E
100
AcDbEntity
  8
DIMENSION-1
100
AcDbPolyline
 90
        2
 70
         0
 43
0.2032
 10
-33.528
 20
-2.881947
 10
-33.528
 20
-15.9285
  0
LWPOLYLINE
  5
12F
100
AcDbEntity
  8
DIMENSION-1
100
AcDbPolyline
 90
        3
 70
         1
 10
-33.528
 20
16.5
 10
-32.956501
 20
15.357
 10
-34.0995
 20
15.357001
  0
HATCH
  5
130
100
AcDbEntity
  8
DIMENSION-1
100
AcDbHatch
 10
0.0
 20
0.0
 30
0.0
210
0.0
220
0.0
230
1.0
  2
SOLID
 70
         1
 71
         1
 91
        1
 92
        2
 72
         0
 73
         1
 93
        3
 10
-33.527999999999999
 20
16.5
 10
-32.956501000000003
 20
15.356999999999999
 10
-34.099499999999999
 20
15.357001
 97
        1
330
12F
 75
         0
 76
         1
 98
        1
 10
0.0
 20
0.0
  0
LWPOLYLINE
  5
131
100
AcDbEntity
  8
DIMENSION-1
100
AcDbPolyline
 90
        3
 70
         1
 10
-33.528
 20
-16.5
 10
-34.0995
 20
-15.357
 10
-32.9565
 20
-15.357
  0
HATCH
  5
132
100
AcDbEntity
  8
DIMENSION-1
100
AcDbHatch
 10
0.0
 20
0.0
 30
0.0
210
0.0
220
0.0
230
1.0
  2
SOLID
 70
         1
 71
         1
 91
        1
 92
        2
 72
         0
 73
         1
 93
        3
 10
-33.527999999999999
 20
-16.5
 10
-34.099499999999999
 20
-15.356999999999999
 10
-32.956499999999998
 20
-15.356999999999999
 97
        1
330
131
 75
         0
 76
         1
 98
        1
 10
0.0
 20
0.0
  0
LWPOLYLINE
  5
133
100
AcDbEntity
  8
DIMENSION-1
100
AcDbPolyline
 90
        2
 70
         0
 43
0.2032
 10
-13.758
 20
12.64
 10
-31.75
 20
12.64
  0
LWPOLYLINE
  5
134
100
AcDbEntity
  8
DIMENSION-1
100
AcDbPolyline
 90
        2
 70
         0
 43
0.2032
 10
-14.758
 20
-12.64
 10
-31.75
 20
-12.64
  0
LWPOLYLINE
  5
135
100
AcDbEntity
  8
DIMENSION-1
100
AcDbPolyline
 90
        2
 70
         0
 43
0.2032
 10
-31.242
 20
12.0685
 10
-31.242
 20
3.676712
  0
LWPOLYLINE
  5
136
100
AcDbEntity
  8
DIMENSION-1
100
AcDbPolyline
 90
        2
 70
         0
 43
0.2032
 10
-31.242
 20
-3.676713
 10
-31.242
 20
-12.0685
  0
LWPOLYLINE
  5
137
100
AcDbEntity
  8
DIMENSION-1
100
AcDbPolyline
 90
        3
 70
         1
 10
-31.242
 20
12.64
 10
-30.670501
 20
11.497
 10
-31.8135
 20
11.497001
  0
HATCH
  5
138
100
AcDbEntity
  8
DIMENSION-1
100
AcDbHatch
 10
0.0
 20
0.0
 30
0.0
210
0.0
220
0.0
230
1.0
  2
SOLID
 70
         1
 71
         1
 91
        1
 92
        2
 72
         0
 73
         1
 93
        3
 10
-31.242000000000001
 20
12.640000000000001
 10
-30.670501000000002
 20
11.497
 10
-31.813500000000001
 20
11.497000999999999
 97
        1
330
137
 75
         0
 76
         1
 98
        1
 10
0.0
 20
0.0
  0
LWPOLYLINE
  5
139
100
AcDbEntity
  8
DIMENSION-1
100
AcDbPolyline
 90
        3
 70
         1
 10
-31.242
 20
-12.64
 10
-31.8135
 20
-11.497
 10
-30.6705
 20
-11.497
  0
HATCH
  5
13A
100
AcDbEntity
  8
DIMENSION-1
100
AcDbHatch
 10
0.0
 20
0.0
 30
0.0
210
0.0
220
0.0
230
1.0
  2
SOLID
 70
         1
 71
         1
 91
        1
 92
        2
 72
         0
 73
         1
 93
        3
 10
-31.242000000000001
 20
-12.640000000000001
 10
-31.813500000000001
 20
-11.497
 10
-30.670500000000001
 20
-11.497
 97
        1
330
139
 75
         0
 76
         1
 98
        1
 10
0.0
 20
0.0
  0
LWPOLYLINE
  5
13B
100
AcDbEntity
  8
DIMENSION-1
100
AcDbPolyline
 90
        2
 70
         0
 43
0.2032
 10
17.246
 20
17.71
 10
30.655309
 20
17.71
  0
LWPOLYLINE
  5
13C
100
AcDbEntity
  8
DIMENSION-1
100
AcDbPolyline
 90
        2
 70
         0
 43
0.2032
 10
22.508
 20
16.5
 10
30.655309
 20
16.5
  0
LWPOLYLINE
  5
13D
100
AcDbEntity
  8
DIMENSION-1
100
AcDbPolyline
 90
        2
 70
         0
 43
0.2032
 10
30.147309
 20
18.2815
 10
30.147309
 20
20.5675
  0
LWPOLYLINE
  5
13E
100
AcDbEntity
  8
DIMENSION-1
100
AcDbPolyline
 90
        2
 70
         0
 43
0.2032
 10
30.147309
 20
15.9285
 10
30.147309
 20
13.6425
  0
LWPOLYLINE
  5
13F
100
AcDbEntity
  8
DIMENSION-1
100
AcDbPolyline
 90
        3
 70
         1
 10
30.147309
 20
17.71
 10
29.575809
 20
18.853
 10
30.718809
 20
18.853
  0
HATCH
  5
140
100
AcDbEntity
  8
DIMENSION-1
100
AcDbHatch
 10
0.0
 20
0.0
 30
0.0
210
0.0
220
0.0
230
1.0
  2
SOLID
 70
         1
 71
         1
 91
        1
 92
        2
 72
         0
 73
         1
 93
        3
 10
30.147309
 20
17.710000000000001
 10
29.575809
 20
18.853000000000002
 10
30.718809
 20
18.853000000000002
 97
        1
330
13F
 75
         0
 76
         1
 98
        1
 10
0.0
 20
0.0
  0
LWPOLYLINE
  5
141
100
AcDbEntity
  8
DIMENSION-1
100
AcDbPolyline
 90
        3
 70
         1
 10
30.147309
 20
16.5
 10
30.718808
 20
15.357
 10
29.575809
 20
15.357001
  0
HATCH
  5
142
100
AcDbEntity
  8
DIMENSION-1
100
AcDbHatch
 10
0.0
 20
0.0
 30
0.0
210
0.0
220
0.0
230
1.0
  2
SOLID
 70
         1
 71
         1
 91
        1
 92
        2
 72
         0
 73
         1
 93
        3
 10
30.147309
 20
16.5
 10
30.718807999999999
 20
15.356999999999999
 10
29.575809
 20
15.357001
 97
        1
330
141
 75
         0
 76
         1
 98
        1
 10
0.0
 20
0.0
  0
LWPOLYLINE
  5
143
100
AcDbEntity
  8
DIMENSION-1
100
AcDbPolyline
 90
        2
 70
         0
 43
0.2032
 10
17.246
 20
-13.694
 10
30.848149
 20
-13.694
  0
LWPOLYLINE
  5
144
100
AcDbEntity
  8
DIMENSION-1
100
AcDbPolyline
 90
        2
 70
         0
 43
0.2032
 10
22.508
 20
-16.5
 10
30.848149
 20
-16.5
  0
LWPOLYLINE
  5
145
100
AcDbEntity
  8
DIMENSION-1
100
AcDbPolyline
 90
        2
 70
         0
 43
0.2032
 10
30.340149
 20
-13.1225
 10
30.340149
 20
-10.8365
  0
LWPOLYLINE
  5
146
100
AcDbEntity
  8
DIMENSION-1
100
AcDbPolyline
 90
        2
 70
         0
 43
0.2032
 10
30.340149
 20
-17.0715
 10
30.340149
 20
-19.3575
  0
LWPOLYLINE
  5
147
100
AcDbEntity
  8
DIMENSION-1
100
AcDbPolyline
 90
        3
 70
         1
 10
30.340149
 20
-13.694
 10
29.768649
 20
-12.551
 10
30.911649
 20
-12.551
  0
HATCH
  5
148
100
AcDbEntity
  8
DIMENSION-1
100
AcDbHatch
 10
0.0
 20
0.0
 30
0.0
210
0.0
220
0.0
230
1.0
  2
SOLID
 70
         1
 71
         1
 91
        1
 92
        2
 72
         0
 73
         1
 93
        3
 10
30.340149
 20
-13.694000000000001
 10
29.768649
 20
-12.551
 10
30.911649000000001
 20
-12.551
 97
        1
330
147
 75
         0
 76
         1
 98
        1
 10
0.0
 20
0.0
  0
LWPOLYLINE
  5
149
100
AcDbEntity
  8
DIMENSION-1
100
AcDbPolyline
 90
        3
 70
         1
 10
30.340149
 20
-16.5
 10
30.911648
 20
-17.643
 10
29.768649
 20
-17.642999
  0
HATCH
  5
14A
100
AcDbEntity
  8
DIMENSION-1
100
AcDbHatch
 10
0.0
 20
0.0
 30
0.0
210
0.0
220
0.0
230
1.0
  2
SOLID
 70
         1
 71
         1
 91
        1
 92
        2
 72
         0
 73
         1
 93
        3
 10
30.340149
 20
-16.5
 10
30.911648
 20
-17.643000000000001
 10
29.768649
 20
-17.642999
 97
        1
330
149
 75
         0
 76
         1
 98
        1
 10
0.0
 20
0.0
  0
LWPOLYLINE
  5
14B
100
AcDbEntity
  8
DIMENSION-1
100
AcDbPolyline
 90
        2
 70
         0
 43
0.2032
 10
22.508
 20
16.5
 10
33.474119
 20
16.5
  0
LWPOLYLINE
  5
14C
100
AcDbEntity
  8
DIMENSION-1
100
AcDbPolyline
 90
        2
 70
         0
 43
0.2032
 10
15.258
 20
12.64
 10
33.474119
 20
12.64
  0
LWPOLYLINE
  5
14D
100
AcDbEntity
  8
DIMENSION-1
100
AcDbPolyline
 90
        2
 70
         0
 43
0.2032
 10
32.966119
 20
17.0715
 10
32.966119
 20
19.3575
  0
LWPOLYLINE
  5
14E
100
AcDbEntity
  8
DIMENSION-1
100
AcDbPolyline
 90
        2
 70
         0
 43
0.2032
 10
32.966119
 20
12.0685
 10
32.966119
 20
9.7825
  0
LWPOLYLINE
  5
14F
100
AcDbEntity
  8
DIMENSION-1
100
AcDbPolyline
 90
        3
 70
         1
 10
32.966119
 20
16.5
 10
32.394619
 20
17.643
 10
33.537619
 20
17.643
  0
HATCH
  5
150
100
AcDbEntity
  8
DIMENSION-1
100
AcDbHatch
 10
0.0
 20
0.0
 30
0.0
210
0.0
220
0.0
230
1.0
  2
SOLID
 70
         1
 71
         1
 91
        1
 92
        2
 72
         0
 73
         1
 93
        3
 10
32.966118999999999
 20
16.5
 10
32.394618999999999
 20
17.643000000000001
 10
33.537618999999999
 20
17.643000000000001
 97
        1
330
14F
 75
         0
 76
         1
 98
        1
 10
0.0
 20
0.0
  0
LWPOLYLINE
  5
151
100
AcDbEntity
  8
DIMENSION-1
100
AcDbPolyline
 90
        3
 70
         1
 10
32.966119
 20
12.64
 10
33.537618
 20
11.497
 10
32.394619
 20
11.497001
  0
HATCH
  5
152
100
AcDbEntity
  8
DIMENSION-1
100
AcDbHatch
 10
0.0
 20
0.0
 30
0.0
210
0.0
220
0.0
230
1.0
  2
SOLID
 70
         1
 71
         1
 91
        1
 92
        2
 72
         0
 73
         1
 93
        3
 10
32.966118999999999
 20
12.640000000000001
 10
33.537618000000002
 20
11.497
 10
32.394618999999999
 20
11.497000999999999
 97
        1
330
151
 75
         0
 76
         1
 98
        1
 10
0.0
 20
0.0
  0
LWPOLYLINE
  5
153
100
AcDbEntity
  8
DIMENSION-1
100
AcDbPolyline
 90
        2
 70
         0
 43
0.2032
 10
22.508
 20
-16.5
 10
33.274
 20
-16.5
  0
LWPOLYLINE
  5
154
100
AcDbEntity
  8
DIMENSION-1
100
AcDbPolyline
 90
        2
 70
         0
 43
0.2032
 10
15.258
 20
-18.76
 10
33.274
 20
-18.76
  0
LWPOLYLINE
  5
155
100
AcDbEntity
  8
DIMENSION-1
100
AcDbPolyline
 90
        2
 70
         0
 43
0.2032
 10
32.766
 20
-15.9285
 10
32.766
 20
-13.6425
  0
LWPOLYLINE
  5
156
100
AcDbEntity
  8
DIMENSION-1
100
AcDbPolyline
 90
        2
 70
         0
 43
0.2032
 10
32.766
 20
-19.3315
 10
32.766
 20
-21.6175
  0
LWPOLYLINE
  5
157
100
AcDbEntity
  8
DIMENSION-1
100
AcDbPolyline
 90
        3
 70
         1
 10
32.766
 20
-16.5
 10
32.1945
 20
-15.357
 10
33.3375
 20
-15.357
  0
HATCH
  5
158
100
AcDbEntity
  8
DIMENSION-1
100
AcDbHatch
 10
0.0
 20
0.0
 30
0.0
210
0.0
220
0.0
230
1.0
  2
SOLID
 70
         1
 71
         1
 91
        1
 92
        2
 72
         0
 73
         1
 93
        3
 10
32.765999999999998
 20
-16.5
 10
32.194499999999998
 20
-15.356999999999999
 10
33.337499999999999
 20
-15.356999999999999
 97
        1
330
157
 75
         0
 76
         1
 98
        1
 10
0.0
 20
0.0
  0
LWPOLYLINE
  5
159
100
AcDbEntity
  8
DIMENSION-1
100
AcDbPolyline
 90
        3
 70
         1
 10
32.766
 20
-18.76
 10
33.337499
 20
-19.903
 10
32.1945
 20
-19.902999
  0
HATCH
  5
15A
100
AcDbEntity
  8
DIMENSION-1
100
AcDbHatch
 10
0.0
 20
0.0
 30
0.0
210
0.0
220
0.0
230
1.0
  2
SOLID
 70
         1
 71
         1
 91
        1
 92
        2
 72
         0
 73
         1
 93
        3
 10
32.765999999999998
 20
-18.760000000000002
 10
33.337499000000001
 20
-19.902999999999999
 10
32.194499999999998
 20
-19.902999000000001
 97
        1
330
159
 75
         0
 76
         1
 98
        1
 10
0.0
 20
0.0
  0
LWPOLYLINE
  5
15B
100
AcDbEntity
  8
DIMENSION-1
100
AcDbPolyline
 90
        2
 70
         0
 43
0.2032
 10
-28.012
 20
22.5
 10
-38.750118
 20
22.5
  0
LWPOLYLINE
  5
15C
100
AcDbEntity
  8
DIMENSION-1
100
AcDbPolyline
 90
        2
 70
         0
 43
0.2032
 10
-28.012
 20
-22.5
 10
-38.750118
 20
-22.5
  0
LWPOLYLINE
  5
15D
100
AcDbEntity
  8
DIMENSION-1
100
AcDbPolyline
 90
        2
 70
         0
 43
0.2032
 10
-38.242118
 20
21.9285
 10
-38.242118
 20
2.881946
  0
LWPOLYLINE
  5
15E
100
AcDbEntity
  8
DIMENSION-1
100
AcDbPolyline
 90
        2
 70
         0
 43
0.2032
 10
-38.242118
 20
-2.881947
 10
-38.242118
 20
-21.9285
  0
LWPOLYLINE
  5
15F
100
AcDbEntity
  8
DIMENSION-1
100
AcDbPolyline
 90
        3
 70
         1
 10
-38.242118
 20
22.5
 10
-37.670619
 20
21.357
 10
-38.813618
 20
21.357001
  0
HATCH
  5
160
100
AcDbEntity
  8
DIMENSION-1
100
AcDbHatch
 10
0.0
 20
0.0
 30
0.0
210
0.0
220
0.0
230
1.0
  2
SOLID
 70
         1
 71
         1
 91
        1
 92
        2
 72
         0
 73
         1
 93
        3
 10
-38.242117999999998
 20
22.5
 10
-37.670619000000002
 20
21.356999999999999
 10
-38.813617999999998
 20
21.357001
 97
        1
330
15F
 75
         0
 76
         1
 98
        1
 10
0.0
 20
0.0
  0
LWPOLYLINE
  5
161
100
AcDbEntity
  8
DIMENSION-1
100
AcDbPolyline
 90
        3
 70
         1
 10
-38.242118
 20
-22.5
 10
-38.813618
 20
-21.357
 10
-37.670618
 20
-21.357
  0
HATCH
  5
162
100
AcDbEntity
  8
DIMENSION-1
100
AcDbHatch
 10
0.0
 20
0.0
 30
0.0
210
0.0
220
0.0
230
1.0
  2
SOLID
 70
         1
 71
         1
 91
        1
 92
        2
 72
         0
 73
         1
 93
        3
 10
-38.242117999999998
 20
-22.5
 10
-38.813617999999998
 20
-21.356999999999999
 10
-37.670617999999997
 20
-21.356999999999999
 97
        1
330
161
 75
         0
 76
         1
 98
        1
 10
0.0
 20
0.0
  0
LWPOLYLINE
  5
163
100
AcDbEntity
  8
DIMENSION-1
100
AcDbPolyline
 90
        2
 70
         0
 43
0.2032
 10
-16.738
 20
-14.202
 10
-16.738
 20
-27.64987
  0
LWPOLYLINE
  5
164
100
AcDbEntity
  8
DIMENSION-1
100
AcDbPolyline
 90
        2
 70
         0
 43
0.2032
 10
16.738
 20
-14.202
 10
16.738
 20
-27.64987
  0
LWPOLYLINE
  5
165
100
AcDbEntity
  8
DIMENSION-1
100
AcDbPolyline
 90
        2
 70
         0
 43
0.2032
 10
-16.1665
 20
-27.14187
 10
-3.676712
 20
-27.14187
  0
LWPOLYLINE
  5
166
100
AcDbEntity
  8
DIMENSION-1
100
AcDbPolyline
 90
        2
 70
         0
 43
0.2032
 10
3.676715
 20
-27.14187
 10
16.1665
 20
-27.14187
  0
LWPOLYLINE
  5
167
100
AcDbEntity
  8
DIMENSION-1
100
AcDbPolyline
 90
        3
 70
         1
 10
-16.738
 20
-27.14187
 10
-15.595
 20
-26.57037
 10
-15.595
 20
-27.71337
  0
HATCH
  5
168
100
AcDbEntity
  8
DIMENSION-1
100
AcDbHatch
 10
0.0
 20
0.0
 30
0.0
210
0.0
220
0.0
230
1.0
  2
SOLID
 70
         1
 71
         1
 91
        1
 92
        2
 72
         0
 73
         1
 93
        3
 10
-16.738
 20
-27.141870000000001
 10
-15.595000000000001
 20
-26.57037
 10
-15.595000000000001
 20
-27.713370000000001
 97
        1
330
167
 75
         0
 76
         1
 98
        1
 10
0.0
 20
0.0
  0
LWPOLYLINE
  5
169
100
AcDbEntity
  8
DIMENSION-1
100
AcDbPolyline
 90
        3
 70
         1
 10
16.738
 20
-27.14187
 10
15.595
 20
-27.713369
 10
15.595
 20
-26.57037
  0
HATCH
  5
16A
100
AcDbEntity
  8
DIMENSION-1
100
AcDbHatch
 10
0.0
 20
0.0
 30
0.0
210
0.0
220
0.0
230
1.0
  2
SOLID
 70
         1
 71
         1
 91
        1
 92
        2
 72
         0
 73
         1
 93
        3
 10
16.738
 20
-27.141870000000001
 10
15.595000000000001
 20
-27.713369
 10
15.595000000000001
 20
-26.57037
 97
        1
330
169
 75
         0
 76
         1
 98
        1
 10
0.0
 20
0.0
  0
LWPOLYLINE
  5
16B
100
AcDbEntity
  8
DIMENSION-1
100
AcDbPolyline
 90
        2
 70
         0
 43
0.2032
 10
-22.0
 20
-17.008
 10
-22.0
 20
-29.922537
  0
LWPOLYLINE
  5
16C
100
AcDbEntity
  8
DIMENSION-1
100
AcDbPolyline
 90
        2
 70
         0
 43
0.2032
 10
22.0
 20
-17.008
 10
22.0
 20
-29.922537
  0
LWPOLYLINE
  5
16D
100
AcDbEntity
  8
DIMENSION-1
100
AcDbPolyline
 90
        2
 70
         0
 43
0.2032
 10
-21.4285
 20
-29.414537
 10
-2.881946
 20
-29.414537
  0
LWPOLYLINE
  5
16E
100
AcDbEntity
  8
DIMENSION-1
100
AcDbPolyline
 90
        2
 70
         0
 43
0.2032
 10
2.881949
 20
-29.414537
 10
21.4285
 20
-29.414537
  0
LWPOLYLINE
  5
16F
100
AcDbEntity
  8
DIMENSION-1
100
AcDbPolyline
 90
        3
 70
         1
 10
-22.0
 20
-29.414537
 10
-20.857
 20
-28.843037
 10
-20.857
 20
-29.986037
  0
HATCH
  5
170
100
AcDbEntity
  8
DIMENSION-1
100
AcDbHatch
 10
0.0
 20
0.0
 30
0.0
210
0.0
220
0.0
230
1.0
  2
SOLID
 70
         1
 71
         1
 91
        1
 92
        2
 72
         0
 73
         1
 93
        3
 10
-22.0
 20
-29.414536999999999
 10
-20.856999999999999
 20
-28.843036999999999
 10
-20.856999999999999
 20
-29.986037
 97
        1
330
16F
 75
         0
 76
         1
 98
        1
 10
0.0
 20
0.0
  0
LWPOLYLINE
  5
171
100
AcDbEntity
  8
DIMENSION-1
100
AcDbPolyline
 90
        3
 70
         1
 10
22.0
 20
-29.414537
 10
20.857
 20
-29.986036
 10
20.857
 20
-28.843037
  0
HATCH
  5
172
100
AcDbEntity
  8
DIMENSION-1
100
AcDbHatch
 10
0.0
 20
0.0
 30
0.0
210
0.0
220
0.0
230
1.0
  2
SOLID
 70
         1
 71
         1
 91
        1
 92
        2
 72
         0
 73
         1
 93
        3
 10
22.0
 20
-29.414536999999999
 10
20.856999999999999
 20
-29.986035999999999
 10
20.856999999999999
 20
-28.843036999999999
 97
        1
330
171
 75
         0
 76
         1
 98
        1
 10
0.0
 20
0.0
  0
LWPOLYLINE
  5
173
100
AcDbEntity
  8
DIMENSION-1
100
AcDbPolyline
 90
        2
 70
         0
 43
0.2032
 10
-27.504
 20
-23.008
 10
-27.504
 20
-34.780136
  0
LWPOLYLINE
  5
174
100
AcDbEntity
  8
DIMENSION-1
100
AcDbPolyline
 90
        2
 70
         0
 43
0.2032
 10
27.496
 20
-23.008
 10
27.496
 20
-34.780136
  0
LWPOLYLINE
  5
175
100
AcDbEntity
  8
DIMENSION-1
100
AcDbPolyline
 90
        2
 70
         0
 43
0.2032
 10
-26.9325
 20
-34.272136
 10
-2.885948
 20
-34.272136
  0
LWPOLYLINE
  5
176
100
AcDbEntity
  8
DIMENSION-1
100
AcDbPolyline
 90
        2
 70
         0
 43
0.2032
 10
2.877948
 20
-34.272136
 10
26.9245
 20
-34.272136
  0
LWPOLYLINE
  5
177
100
AcDbEntity
  8
DIMENSION-1
100
AcDbPolyline
 90
        3
 70
         1
 10
-27.504
 20
-34.272136
 10
-26.361
 20
-33.700636
 10
-26.361
 20
-34.843636
  0
HATCH
  5
178
100
AcDbEntity
  8
DIMENSION-1
100
AcDbHatch
 10
0.0
 20
0.0
 30
0.0
210
0.0
220
0.0
230
1.0
  2
SOLID
 70
         1
 71
         1
 91
        1
 92
        2
 72
         0
 73
         1
 93
        3
 10
-27.504000000000001
 20
-34.272136000000003
 10
-26.361000000000001
 20
-33.700636000000003
 10
-26.361000000000001
 20
-34.843635999999996
 97
        1
330
177
 75
         0
 76
         1
 98
        1
 10
0.0
 20
0.0
  0
LWPOLYLINE
  5
179
100
AcDbEntity
  8
DIMENSION-1
100
AcDbPolyline
 90
        3
 70
         1
 10
27.496
 20
-34.272136
 10
26.353
 20
-34.843635
 10
26.353
 20
-33.700636
  0
HATCH
  5
17A
100
AcDbEntity
  8
DIMENSION-1
100
AcDbHatch
 10
0.0
 20
0.0
 30
0.0
210
0.0
220
0.0
230
1.0
  2
SOLID
 70
         1
 71
         1
 91
        1
 92
        2
 72
         0
 73
         1
 93
        3
 10
27.495999999999999
 20
-34.272136000000003
 10
26.353000000000002
 20
-34.843634999999999
 10
26.353000000000002
 20
-33.700636000000003
 97
        1
330
179
 75
         0
 76
         1
 98
        1
 10
0.0
 20
0.0
  0
LWPOLYLINE
  5
17B
100
AcDbEntity
  8
DIMENSION-1
100
AcDbPolyline
 90
        2
 70
         0
 43
0.2032
 10
-14.75
 20
-19.268
 10
-14.75
 20
-25.508
  0
LWPOLYLINE
  5
17C
100
AcDbEntity
  8
DIMENSION-1
100
AcDbPolyline
 90
        2
 70
         0
 43
0.2032
 10
14.75
 20
-19.268
 10
14.75
 20
-25.508
  0
LWPOLYLINE
  5
17D
100
AcDbEntity
  8
DIMENSION-1
100
AcDbPolyline
 90
        2
 70
         0
 43
0.2032
 10
-14.1785
 20
-25.0
 10
-3.676712
 20
-25.0
  0
LWPOLYLINE
  5
17E
100
AcDbEntity
  8
DIMENSION-1
100
AcDbPolyline
 90
        2
 70
         0
 43
0.2032
 10
3.676715
 20
-25.0
 10
14.1785
 20
-25.0
  0
LWPOLYLINE
  5
17F
100
AcDbEntity
  8
DIMENSION-1
100
AcDbPolyline
 90
        3
 70
         1
 10
-14.75
 20
-25.0
 10
-13.607
 20
-24.4285
 10
-13.607
 20
-25.5715
  0
HATCH
  5
180
100
AcDbEntity
  8
DIMENSION-1
100
AcDbHatch
 10
0.0
 20
0.0
 30
0.0
210
0.0
220
0.0
230
1.0
  2
SOLID
 70
         1
 71
         1
 91
        1
 92
        2
 72
         0
 73
         1
 93
        3
 10
-14.75
 20
-25.0
 10
-13.606999999999999
 20
-24.4285
 10
-13.606999999999999
 20
-25.5715
 97
        1
330
17F
 75
         0
 76
         1
 98
        1
 10
0.0
 20
0.0
  0
LWPOLYLINE
  5
181
100
AcDbEntity
  8
DIMENSION-1
100
AcDbPolyline
 90
        3
 70
         1
 10
14.75
 20
-25.0
 10
13.607
 20
-25.571499
 10
13.607
 20
-24.4285
  0
HATCH
  5
182
100
AcDbEntity
  8
DIMENSION-1
100
AcDbHatch
 10
0.0
 20
0.0
 30
0.0
210
0.0
220
0.0
230
1.0
  2
SOLID
 70
         1
 71
         1
 91
        1
 92
        2
 72
         0
 73
         1
 93
        3
 10
14.75
 20
-25.0
 10
13.606999999999999
 20
-25.571498999999999
 10
13.606999999999999
 20
-24.4285
 97
        1
330
181
 75
         0
 76
         1
 98
        1
 10
0.0
 20
0.0
  0
LWPOLYLINE
  5
183
100
AcDbEntity
  8
DIMENSION-1
100
AcDbPolyline
 90
        2
 70
         0
 43
0.2032
 10
-3.75
 20
19.268
 10
-3.75
 20
24.421092
  0
LWPOLYLINE
  5
184
100
AcDbEntity
  8
DIMENSION-1
100
AcDbPolyline
 90
        2
 70
         0
 43
0.2032
 10
-3.25
 20
19.268
 10
-3.25
 20
24.421092
  0
LWPOLYLINE
  5
185
100
AcDbEntity
  8
DIMENSION-1
100
AcDbPolyline
 90
        2
 70
         0
 43
0.2032
 10
-4.3215
 20
23.913092
 10
-6.6075
 20
23.913092
  0
LWPOLYLINE
  5
186
100
AcDbEntity
  8
DIMENSION-1
100
AcDbPolyline
 90
        2
 70
         0
 43
0.2032
 10
-2.6785
 20
23.913092
 10
-0.3925
 20
23.913092
  0
LWPOLYLINE
  5
187
100
AcDbEntity
  8
DIMENSION-1
100
AcDbPolyline
 90
        3
 70
         1
 10
-3.75
 20
23.913092
 10
-4.893
 20
23.341593
 10
-4.893
 20
24.484592
  0
HATCH
  5
188
100
AcDbEntity
  8
DIMENSION-1
100
AcDbHatch
 10
0.0
 20
0.0
 30
0.0
210
0.0
220
0.0
230
1.0
  2
SOLID
 70
         1
 71
         1
 91
        1
 92
        2
 72
         0
 73
         1
 93
        3
 10
-3.75
 20
23.913091999999999
 10
-4.8929999999999998
 20
23.341593
 10
-4.8929999999999998
 20
24.484591999999999
 97
        1
330
187
 75
         0
 76
         1
 98
        1
 10
0.0
 20
0.0
  0
LWPOLYLINE
  5
189
100
AcDbEntity
  8
DIMENSION-1
100
AcDbPolyline
 90
        3
 70
         1
 10
-3.25
 20
23.913092
 10
-2.107
 20
24.484592
 10
-2.107
 20
23.341592
  0
HATCH
  5
18A
100
AcDbEntity
  8
DIMENSION-1
100
AcDbHatch
 10
0.0
 20
0.0
 30
0.0
210
0.0
220
0.0
230
1.0
  2
SOLID
 70
         1
 71
         1
 91
        1
 92
        2
 72
         0
 73
         1
 93
        3
 10
-3.25
 20
23.913091999999999
 10
-2.1070000000000002
 20
24.484591999999999
 10
-2.1070000000000002
 20
23.341591999999999
 97
        1
330
189
 75
         0
 76
         1
 98
        1
 10
0.0
 20
0.0
  0
LWPOLYLINE
  5
18B
100
AcDbEntity
  8
DIMENSION-1
100
AcDbPolyline
 90
        2
 70
         0
 43
0.2032
 10
-22.0
 20
17.008
 10
-22.0
 20
24.423911
  0
LWPOLYLINE
  5
18C
100
AcDbEntity
  8
DIMENSION-1
100
AcDbPolyline
 90
        2
 70
         0
 43
0.2032
 10
-16.738
 20
18.218
 10
-16.738
 20
24.423911
  0
LWPOLYLINE
  5
18D
100
AcDbEntity
  8
DIMENSION-1
100
AcDbPolyline
 90
        2
 70
         0
 43
0.2032
 10
-22.5715
 20
23.915911
 10
-24.8575
 20
23.915911
  0
LWPOLYLINE
  5
18E
100
AcDbEntity
  8
DIMENSION-1
100
AcDbPolyline
 90
        2
 70
         0
 43
0.2032
 10
-16.1665
 20
23.915911
 10
-13.8805
 20
23.915911
  0
LWPOLYLINE
  5
18F
100
AcDbEntity
  8
DIMENSION-1
100
AcDbPolyline
 90
        3
 70
         1
 10
-22.0
 20
23.915911
 10
-23.143
 20
23.344412
 10
-23.143
 20
24.487411
  0
HATCH
  5
190
100
AcDbEntity
  8
DIMENSION-1
100
AcDbHatch
 10
0.0
 20
0.0
 30
0.0
210
0.0
220
0.0
230
1.0
  2
SOLID
 70
         1
 71
         1
 91
        1
 92
        2
 72
         0
 73
         1
 93
        3
 10
-22.0
 20
23.915911000000001
 10
-23.143000000000001
 20
23.344411999999998
 10
-23.143000000000001
 20
24.487411000000002
 97
        1
330
18F
 75
         0
 76
         1
 98
        1
 10
0.0
 20
0.0
  0
LWPOLYLINE
  5
191
100
AcDbEntity
  8
DIMENSION-1
100
AcDbPolyline
 90
        3
 70
         1
 10
-16.738
 20
23.915911
 10
-15.595
 20
24.487411
 10
-15.595
 20
23.344411
  0
HATCH
  5
192
100
AcDbEntity
  8
DIMENSION-1
100
AcDbHatch
 10
0.0
 20
0.0
 30
0.0
210
0.0
220
0.0
230
1.0
  2
SOLID
 70
         1
 71
         1
 91
        1
 92
        2
 72
         0
 73
         1
 93
        3
 10
-16.738
 20
23.915911000000001
 10
-15.595000000000001
 20
24.487411000000002
 10
-15.595000000000001
 20
23.344411000000001
 97
        1
330
191
 75
         0
 76
         1
 98
        1
 10
0.0
 20
0.0
  0
LWPOLYLINE
  5
193
100
AcDbEntity
  8
DIMENSION-1
100
AcDbPolyline
 90
        2
 70
         0
 43
0.2032
 10
-22.0
 20
17.008
 10
-22.0
 20
27.496094
  0
LWPOLYLINE
  5
194
100
AcDbEntity
  8
DIMENSION-1
100
AcDbPolyline
 90
        2
 70
         0
 43
0.2032
 10
-14.75
 20
19.268
 10
-14.75
 20
27.496094
  0
LWPOLYLINE
  5
195
100
AcDbEntity
  8
DIMENSION-1
100
AcDbPolyline
 90
        2
 70
         0
 43
0.2032
 10
-22.5715
 20
26.988094
 10
-24.8575
 20
26.988094
  0
LWPOLYLINE
  5
196
100
AcDbEntity
  8
DIMENSION-1
100
AcDbPolyline
 90
        2
 70
         0
 43
0.2032
 10
-14.1785
 20
26.988094
 10
-11.8925
 20
26.988094
  0
LWPOLYLINE
  5
197
100
AcDbEntity
  8
DIMENSION-1
100
AcDbPolyline
 90
        3
 70
         1
 10
-22.0
 20
26.988094
 10
-23.143
 20
26.416595
 10
-23.143
 20
27.559594
  0
HATCH
  5
198
100
AcDbEntity
  8
DIMENSION-1
100
AcDbHatch
 10
0.0
 20
0.0
 30
0.0
210
0.0
220
0.0
230
1.0
  2
SOLID
 70
         1
 71
         1
 91
        1
 92
        2
 72
         0
 73
         1
 93
        3
 10
-22.0
 20
26.988094
 10
-23.143000000000001
 20
26.416595000000001
 10
-23.143000000000001
 20
27.559594000000001
 97
        1
330
197
 75
         0
 76
         1
 98
        1
 10
0.0
 20
0.0
  0
LWPOLYLINE
  5
199
100
AcDbEntity
  8
DIMENSION-1
100
AcDbPolyline
 90
        3
 70
         1
 10
-14.75
 20
26.988094
 10
-13.607
 20
27.559594
 10
-13.607
 20
26.416594
  0
HATCH
  5
19A
100
AcDbEntity
  8
DIMENSION-1
100
AcDbHatch
 10
0.0
 20
0.0
 30
0.0
210
0.0
220
0.0
230
1.0
  2
SOLID
 70
         1
 71
         1
 91
        1
 92
        2
 72
         0
 73
         1
 93
        3
 10
-14.75
 20
26.988094
 10
-13.606999999999999
 20
27.559594000000001
 10
-13.606999999999999
 20
26.416594
 97
        1
330
199
 75
         0
 76
         1
 98
        1
 10
0.0
 20
0.0
  0
LWPOLYLINE
  5
19B
100
AcDbEntity
  8
DIMENSION-1
100
AcDbPolyline
 90
        2
 70
         0
 43
0.2032
 10
16.738
 20
18.218
 10
16.738
 20
24.547505
  0
LWPOLYLINE
  5
19C
100
AcDbEntity
  8
DIMENSION-1
100
AcDbPolyline
 90
        2
 70
         0
 43
0.2032
 10
22.0
 20
17.008
 10
22.0
 20
24.547505
  0
LWPOLYLINE
  5
19D
100
AcDbEntity
  8
DIMENSION-1
100
AcDbPolyline
 90
        2
 70
         0
 43
0.2032
 10
16.1665
 20
24.039505
 10
13.8805
 20
24.039505
  0
LWPOLYLINE
  5
19E
100
AcDbEntity
  8
DIMENSION-1
100
AcDbPolyline
 90
        2
 70
         0
 43
0.2032
 10
22.5715
 20
24.039505
 10
24.8575
 20
24.039505
  0
LWPOLYLINE
  5
19F
100
AcDbEntity
  8
DIMENSION-1
100
AcDbPolyline
 90
        3
 70
         1
 10
16.738
 20
24.039505
 10
15.595
 20
23.468006
 10
15.595
 20
24.611005
  0
HATCH
  5
1A0
100
AcDbEntity
  8
DIMENSION-1
100
AcDbHatch
 10
0.0
 20
0.0
 30
0.0
210
0.0
220
0.0
230
1.0
  2
SOLID
 70
         1
 71
         1
 91
        1
 92
        2
 72
         0
 73
         1
 93
        3
 10
16.738
 20
24.039504999999998
 10
15.595000000000001
 20
23.468005999999999
 10
15.595000000000001
 20
24.611004999999999
 97
        1
330
19F
 75
         0
 76
         1
 98
        1
 10
0.0
 20
0.0
  0
LWPOLYLINE
  5
1A1
100
AcDbEntity
  8
DIMENSION-1
100
AcDbPolyline
 90
        3
 70
         1
 10
22.0
 20
24.039505
 10
23.143
 20
24.611005
 10
23.143
 20
23.468005
  0
HATCH
  5
1A2
100
AcDbEntity
  8
DIMENSION-1
100
AcDbHatch
 10
0.0
 20
0.0
 30
0.0
210
0.0
220
0.0
230
1.0
  2
SOLID
 70
         1
 71
         1
 91
        1
 92
        2
 72
         0
 73
         1
 93
        3
 10
22.0
 20
24.039504999999998
 10
23.143000000000001
 20
24.611004999999999
 10
23.143000000000001
 20
23.468005000000002
 97
        1
330
1A1
 75
         0
 76
         1
 98
        1
 10
0.0
 20
0.0
  0
LWPOLYLINE
  5
1A3
100
AcDbEntity
  8
DIMENSION-1
100
AcDbPolyline
 90
        2
 70
         0
 43
0.2032
 10
-13.25
 20
-3.5
 10
-17.06
 20
-3.5
  0
LWPOLYLINE
  5
1A4
100
AcDbEntity
  8
DIMENSION-1
100
AcDbPolyline
 90
        2
 70
         0
 43
0.2032
 10
-17.06
 20
-3.5
 10
-21.60926
 20
-15.471738
  0
LWPOLYLINE
  5
1A5
100
AcDbEntity
  8
DIMENSION-1
100
AcDbPolyline
 90
        3
 70
         1
 10
-21.60926
 20
-15.471738
 10
-21.737474
 20
-14.200274
 10
-20.669018
 20
-14.606288
  0
HATCH
  5
1A6
100
AcDbEntity
  8
DIMENSION-1
100
AcDbHatch
 10
0.0
 20
0.0
 30
0.0
210
0.0
220
0.0
230
1.0
  2
SOLID
 70
         1
 71
         1
 91
        1
 92
        2
 72
         0
 73
         1
 93
        3
 10
-21.609259999999999
 20
-15.471738
 10
-21.737473999999999
 20
-14.200274
 10
-20.669018000000001
 20
-14.606287999999999
 97
        1
330
1A5
 75
         0
 76
         1
 98
        1
 10
0.0
 20
0.0
  0
LWPOLYLINE
  5
1A7
100
AcDbEntity
  8
DIMENSION-1
100
AcDbPolyline
 90
        2
 70
         0
 43
0.2032
 10
-10.25
 20
-8.0
 10
-14.06
 20
-8.0
  0
LWPOLYLINE
  5
1A8
100
AcDbEntity
  8
DIMENSION-1
100
AcDbPolyline
 90
        2
 70
         0
 43
0.2032
 10
-14.06
 20
-8.0
 10
-16.503921
 20
-13.196298
  0
LWPOLYLINE
  5
1A9
100
AcDbEntity
  8
DIMENSION-1
100
AcDbPolyline
 90
        3
 70
         1
 10
-16.503921
 20
-13.196298
 10
-16.534619
 20
-11.918754
 10
-15.500306
 20
-12.405213
  0
HATCH
  5
1AA
100
AcDbEntity
  8
DIMENSION-1
100
AcDbHatch
 10
0.0
 20
0.0
 30
0.0
210
0.0
220
0.0
230
1.0
  2
SOLID
 70
         1
 71
         1
 91
        1
 92
        2
 72
         0
 73
         1
 93
        3
 10
-16.503920999999998
 20
-13.196298000000001
 10
-16.534618999999999
 20
-11.918754
 10
-15.500306
 20
-12.405213
 97
        1
330
1A9
 75
         0
 76
         1
 98
        1
 10
0.0
 20
0.0
  0
LWPOLYLINE
  5
1AB
100
AcDbEntity
  8
DIMENSION-1
100
AcDbPolyline
 90
        2
 70
         0
 43
0.2032
 10
11.25
 20
-8.0
 10
15.06
 20
-8.0
  0
LWPOLYLINE
  5
1AC
100
AcDbEntity
  8
DIMENSION-1
100
AcDbPolyline
 90
        2
 70
         0
 43
0.2032
 10
15.06
 20
-8.0
 10
16.582527
 20
-13.166431
  0
LWPOLYLINE
  5
1AD
100
AcDbEntity
  8
DIMENSION-1
100
AcDbPolyline
 90
        3
 70
         1
 10
16.582527
 20
-13.166431
 10
15.711236
 20
-12.231598
 10
16.807618
 20
-11.908499
  0
HATCH
  5
1AE
100
AcDbEntity
  8
DIMENSION-1
100
AcDbHatch
 10
0.0
 20
0.0
 30
0.0
210
0.0
220
0.0
230
1.0
  2
SOLID
 70
         1
 71
         1
 91
        1
 92
        2
 72
         0
 73
         1
 93
        3
 10
16.582526999999999
 20
-13.166430999999999
 10
15.711236
 20
-12.231598
 10
16.807618000000002
 20
-11.908499000000001
 97
        1
330
1AD
 75
         0
 76
         1
 98
        1
 10
0.0
 20
0.0
  0
LWPOLYLINE
  5
1AF
100
AcDbEntity
  8
DIMENSION-1
100
AcDbPolyline
 90
        2
 70
         0
 43
0.2032
 10
11.5
 20
-3.5
 10
15.31
 20
-3.5
  0
LWPOLYLINE
  5
1B0
100
AcDbEntity
  8
DIMENSION-1
100
AcDbPolyline
 90
        2
 70
         0
 43
0.2032
 10
15.31
 20
-3.5
 10
20.85605
 20
-14.277078
  0
LWPOLYLINE
  5
1B1
100
AcDbEntity
  8
DIMENSION-1
100
AcDbPolyline
 90
        3
 70
         1
 10
20.85605
 20
-14.277078
 10
19.824877
 20
-13.522266
 10
20.841197
 20
-12.999252
  0
HATCH
  5
1B2
100
AcDbEntity
  8
DIMENSION-1
100
AcDbHatch
 10
0.0
 20
0.0
 30
0.0
210
0.0
220
0.0
230
1.0
  2
SOLID
 70
         1
 71
         1
 91
        1
 92
        2
 72
         0
 73
         1
 93
        3
 10
20.85605
 20
-14.277077999999999
 10
19.824877000000001
 20
-13.522266
 10
20.841197000000001
 20
-12.999252
 97
        1
330
1B1
 75
         0
 76
         1
 98
        1
 10
0.0
 20
0.0
  0
LWPOLYLINE
  5
1B3
100
AcDbEntity
  8
DIMENSION-1
100
AcDbPolyline
 90
        2
 70
         0
 43
0.2032
 10
-25.504
 20
-21.008
 10
-25.504
 20
-32.303632
  0
LWPOLYLINE
  5
1B4
100
AcDbEntity
  8
DIMENSION-1
100
AcDbPolyline
 90
        2
 70
         0
 43
0.2032
 10
25.496
 20
-21.008
 10
25.496
 20
-32.303632
  0
LWPOLYLINE
  5
1B5
100
AcDbEntity
  8
DIMENSION-1
100
AcDbPolyline
 90
        2
 70
         0
 43
0.2032
 10
-24.9325
 20
-31.795632
 10
-2.885948
 20
-31.795632
  0
LWPOLYLINE
  5
1B6
100
AcDbEntity
  8
DIMENSION-1
100
AcDbPolyline
 90
        2
 70
         0
 43
0.2032
 10
2.877948
 20
-31.795632
 10
24.9245
 20
-31.795632
  0
LWPOLYLINE
  5
1B7
100
AcDbEntity
  8
DIMENSION-1
100
AcDbPolyline
 90
        3
 70
         1
 10
-25.504
 20
-31.795632
 10
-24.361
 20
-31.224132
 10
-24.361
 20
-32.367132
  0
HATCH
  5
1B8
100
AcDbEntity
  8
DIMENSION-1
100
AcDbHatch
 10
0.0
 20
0.0
 30
0.0
210
0.0
220
0.0
230
1.0
  2
SOLID
 70
         1
 71
         1
 91
        1
 92
        2
 72
         0
 73
         1
 93
        3
 10
-25.504000000000001
 20
-31.795632000000001
 10
-24.361000000000001
 20
-31.224132000000001
 10
-24.361000000000001
 20
-32.367131999999998
 97
        1
330
1B7
 75
         0
 76
         1
 98
        1
 10
0.0
 20
0.0
  0
LWPOLYLINE
  5
1B9
100
AcDbEntity
  8
DIMENSION-1
100
AcDbPolyline
 90
        3
 70
         1
 10
25.496
 20
-31.795632
 10
24.353
 20
-32.367131
 10
24.353
 20
-31.224132
  0
HATCH
  5
1BA
100
AcDbEntity
  8
DIMENSION-1
100
AcDbHatch
 10
0.0
 20
0.0
 30
0.0
210
0.0
220
0.0
230
1.0
  2
SOLID
 70
         1
 71
         1
 91
        1
 92
        2
 72
         0
 73
         1
 93
        3
 10
25.495999999999999
 20
-31.795632000000001
 10
24.353000000000002
 20
-32.367131000000001
 10
24.353000000000002
 20
-31.224132000000001
 97
        1
330
1B9
 75
         0
 76
         1
 98
        1
 10
0.0
 20
0.0
  0
LWPOLYLINE
  5
1BB
100
AcDbEntity
  8
DIMENSION-1
100
AcDbPolyline
 90
        2
 70
         0
 43
0.2032
 10
-26.012
 20
20.5
 10
-36.322
 20
20.5
  0
LWPOLYLINE
  5
1BC
100
AcDbEntity
  8
DIMENSION-1
100
AcDbPolyline
 90
        2
 70
         0
 43
0.2032
 10
-26.012
 20
-20.5
 10
-36.322
 20
-20.5
  0
LWPOLYLINE
  5
1BD
100
AcDbEntity
  8
DIMENSION-1
100
AcDbPolyline
 90
        2
 70
         0
 43
0.2032
 10
-35.814
 20
19.9285
 10
-35.814
 20
2.881946
  0
LWPOLYLINE
  5
1BE
100
AcDbEntity
  8
DIMENSION-1
100
AcDbPolyline
 90
        2
 70
         0
 43
0.2032
 10
-35.814
 20
-2.881947
 10
-35.814
 20
-19.9285
  0
LWPOLYLINE
  5
1BF
100
AcDbEntity
  8
DIMENSION-1
100
AcDbPolyline
 90
        3
 70
         1
 10
-35.814
 20
20.5
 10
-35.242501
 20
19.357
 10
-36.3855
 20
19.357001
  0
HATCH
  5
1C0
100
AcDbEntity
  8
DIMENSION-1
100
AcDbHatch
 10
0.0
 20
0.0
 30
0.0
210
0.0
220
0.0
230
1.0
  2
SOLID
 70
         1
 71
         1
 91
        1
 92
        2
 72
         0
 73
         1
 93
        3
 10
-35.814
 20
20.5
 10
-35.242500999999997
 20
19.356999999999999
 10
-36.3855
 20
19.357001
 97
        1
330
1BF
 75
         0
 76
         1
 98
        1
 10
0.0
 20
0.0
  0
LWPOLYLINE
  5
1C1
100
AcDbEntity
  8
DIMENSION-1
100
AcDbPolyline
 90
        3
 70
         1
 10
-35.814
 20
-20.5
 10
-36.3855
 20
-19.357
 10
-35.2425
 20
-19.357
  0
HATCH
  5
1C2
100
AcDbEntity
  8
DIMENSION-1
100
AcDbHatch
 10
0.0
 20
0.0
 30
0.0
210
0.0
220
0.0
230
1.0
  2
SOLID
 70
         1
 71
         1
 91
        1
 92
        2
 72
         0
 73
         1
 93
        3
 10
-35.814
 20
-20.5
 10
-36.3855
 20
-19.356999999999999
 10
-35.2425
 20
-19.356999999999999
 97
        1
330
1C1
 75
         0
 76
         1
 98
        1
 10
0.0
 20
0.0
  0
CIRCLE
  5
1C3
100
AcDbEntity
  8
MOUNTING_HOLES_LAYER_TOP
100
AcDbCircle
 10
-16.738
 20
17.71
 30
0.0
 40
0.55
  0
HATCH
  5
1C4
100
AcDbEntity
  8
MOUNTING_HOLES_LAYER_TOP
100
AcDbHatch
 10
0.0
 20
0.0
 30
0.0
210
0.0
220
0.0
230
1.0
  2
SOLID
 70
         1
 71
         1
 91
        1
 92
        1
 93
        1
 72
         2
 10
-16.738
 20
17.710000000000001
 40
0.55
 50
0.0
 51
360.0
 73
         1
 97
        1
330
1C3
 75
         0
 76
         1
 98
        1
 10
0.0
 20
0.0
  0
CIRCLE
  5
1C5
100
AcDbEntity
  8
MOUNTING_HOLES_LAYER_TOP
100
AcDbCircle
 10
16.738
 20
17.71
 30
0.0
 40
0.55
  0
HATCH
  5
1C6
100
AcDbEntity
  8
MOUNTING_HOLES_LAYER_TOP
100
AcDbHatch
 10
0.0
 20
0.0
 30
0.0
210
0.0
220
0.0
230
1.0
  2
SOLID
 70
         1
 71
         1
 91
        1
 92
        1
 93
        1
 72
         2
 10
16.738
 20
17.710000000000001
 40
0.55
 50
0.0
 51
360.0
 73
         1
 97
        1
330
1C5
 75
         0
 76
         1
 98
        1
 10
0.0
 20
0.0
  0
CIRCLE
  5
1C7
100
AcDbEntity
  8
MOUNTING_HOLES_LAYER_TOP
100
AcDbCircle
 10
16.738
 20
-13.694
 30
0.0
 40
0.55
  0
HATCH
  5
1C8
100
AcDbEntity
  8
MOUNTING_HOLES_LAYER_TOP
100
AcDbHatch
 10
0.0
 20
0.0
 30
0.0
210
0.0
220
0.0
230
1.0
  2
SOLID
 70
         1
 71
         1
 91
        1
 92
        1
 93
        1
 72
         2
 10
16.738
 20
-13.694000000000001
 40
0.55
 50
0.0
 51
360.0
 73
         1
 97
        1
330
1C7
 75
         0
 76
         1
 98
        1
 10
0.0
 20
0.0
  0
CIRCLE
  5
1C9
100
AcDbEntity
  8
MOUNTING_HOLES_LAYER_TOP
100
AcDbCircle
 10
-16.738
 20
-13.694
 30
0.0
 40
0.55
  0
HATCH
  5
1CA
100
AcDbEntity
  8
MOUNTING_HOLES_LAYER_TOP
100
AcDbHatch
 10
0.0
 20
0.0
 30
0.0
210
0.0
220
0.0
230
1.0
  2
SOLID
 70
         1
 71
         1
 91
        1
 92
        1
 93
        1
 72
         2
 10
-16.738
 20
-13.694000000000001
 40
0.55
 50
0.0
 51
360.0
 73
         1
 97
        1
330
1C9
 75
         0
 76
         1
 98
        1
 10
0.0
 20
0.0
  0
CIRCLE
  5
1CB
100
AcDbEntity
  8
PART_HOLES_LAYER_TOP
100
AcDbCircle
 10
-22.0
 20
-16.5
 30
0.0
 40
1.1
  0
HATCH
  5
1CC
100
AcDbEntity
  8
PART_HOLES_LAYER_TOP
100
AcDbHatch
 10
0.0
 20
0.0
 30
0.0
210
0.0
220
0.0
230
1.0
  2
SOLID
 70
         1
 71
         1
 91
        1
 92
        1
 93
        1
 72
         2
 10
-22.0
 20
-16.5
 40
1.1000000000000001
 50
0.0
 51
360.0
 73
         1
 97
        1
330
1CB
 75
         0
 76
         1
 98
        1
 10
0.0
 20
0.0
  0
CIRCLE
  5
1CD
100
AcDbEntity
  8
PART_HOLES_LAYER_TOP
100
AcDbCircle
 10
22.0
 20
-16.5
 30
0.0
 40
1.1
  0
HATCH
  5
1CE
100
AcDbEntity
  8
PART_HOLES_LAYER_TOP
100
AcDbHatch
 10
0.0
 20
0.0
 30
0.0
210
0.0
220
0.0
230
1.0
  2
SOLID
 70
         1
 71
         1
 91
        1
 92
        1
 93
        1
 72
         2
 10
22.0
 20
-16.5
 40
1.1000000000000001
 50
0.0
 51
360.0
 73
         1
 97
        1
330
1CD
 75
         0
 76
         1
 98
        1
 10
0.0
 20
0.0
  0
CIRCLE
  5
1CF
100
AcDbEntity
  8
PART_HOLES_LAYER_TOP
100
AcDbCircle
 10
-22.0
 20
16.5
 30
0.0
 40
1.1
  0
HATCH
  5
1D0
100
AcDbEntity
  8
PART_HOLES_LAYER_TOP
100
AcDbHatch
 10
0.0
 20
0.0
 30
0.0
210
0.0
220
0.0
230
1.0
  2
SOLID
 70
         1
 71
         1
 91
        1
 92
        1
 93
        1
 72
         2
 10
-22.0
 20
16.5
 40
1.1000000000000001
 50
0.0
 51
360.0
 73
         1
 97
        1
330
1CF
 75
         0
 76
         1
 98
        1
 10
0.0
 20
0.0
  0
CIRCLE
  5
1D1
100
AcDbEntity
  8
PART_HOLES_LAYER_TOP
100
AcDbCircle
 10
22.0
 20
16.5
 30
0.0
 40
1.1
  0
HATCH
  5
1D2
100
AcDbEntity
  8
PART_HOLES_LAYER_TOP
100
AcDbHatch
 10
0.0
 20
0.0
 30
0.0
210
0.0
220
0.0
230
1.0
  2
SOLID
 70
         1
 71
         1
 91
        1
 92
        1
 93
        1
 72
         2
 10
22.0
 20
16.5
 40
1.1000000000000001
 50
0.0
 51
360.0
 73
         1
 97
        1
330
1D1
 75
         0
 76
         1
 98
        1
 10
0.0
 20
0.0
  0
LWPOLYLINE
  5
1D3
100
AcDbEntity
  8
PART_PADS_SMD_TOP
100
AcDbPolyline
 90
        4
 70
         1
 10
-14.9
 20
-19.51
 10
-14.9
 20
-18.01
 10
-14.6
 20
-18.01
 10
-14.6
 20
-19.51
  0
LWPOLYLINE
  5
1D4
100
AcDbEntity
  8
PART_PADS_SMD_TOP
100
AcDbPolyline
 90
        4
 70
         1
 10
-14.4
 20
-19.51
 10
-14.4
 20
-18.01
 10
-14.1
 20
-18.01
 10
-14.1
 20
-19.51
  0
LWPOLYLINE
  5
1D5
100
AcDbEntity
  8
PART_PADS_SMD_TOP
100
AcDbPolyline
 90
        4
 70
         1
 10
-13.9
 20
-19.51
 10
-13.9
 20
-18.01
 10
-13.6
 20
-18.01
 10
-13.6
 20
-19.51
  0
LWPOLYLINE
  5
1D6
100
AcDbEntity
  8
PART_PADS_SMD_TOP
100
AcDbPolyline
 90
        4
 70
         1
 10
-13.4
 20
-19.51
 10
-13.4
 20
-18.01
 10
-13.1
 20
-18.01
 10
-13.1
 20
-19.51
  0
LWPOLYLINE
  5
1D7
100
AcDbEntity
  8
PART_PADS_SMD_TOP
100
AcDbPolyline
 90
        4
 70
         1
 10
-12.9
 20
-19.51
 10
-12.9
 20
-18.01
 10
-12.6
 20
-18.01
 10
-12.6
 20
-19.51
  0
LWPOLYLINE
  5
1D8
100
AcDbEntity
  8
PART_PADS_SMD_TOP
100
AcDbPolyline
 90
        4
 70
         1
 10
-12.4
 20
-19.51
 10
-12.4
 20
-18.01
 10
-12.1
 20
-18.01
 10
-12.1
 20
-19.51
  0
LWPOLYLINE
  5
1D9
100
AcDbEntity
  8
PART_PADS_SMD_TOP
100
AcDbPolyline
 90
        4
 70
         1
 10
-11.9
 20
-19.51
 10
-11.9
 20
-18.01
 10
-11.6
 20
-18.01
 10
-11.6
 20
-19.51
  0
LWPOLYLINE
  5
1DA
100
AcDbEntity
  8
PART_PADS_SMD_TOP
100
AcDbPolyline
 90
        4
 70
         1
 10
-11.4
 20
-19.51
 10
-11.4
 20
-18.01
 10
-11.1
 20
-18.01
 10
-11.1
 20
-19.51
  0
LWPOLYLINE
  5
1DB
100
AcDbEntity
  8
PART_PADS_SMD_TOP
100
AcDbPolyline
 90
        4
 70
         1
 10
-10.9
 20
-19.51
 10
-10.9
 20
-18.01
 10
-10.6
 20
-18.01
 10
-10.6
 20
-19.51
  0
LWPOLYLINE
  5
1DC
100
AcDbEntity
  8
PART_PADS_SMD_TOP
100
AcDbPolyline
 90
        4
 70
         1
 10
-10.4
 20
-19.51
 10
-10.4
 20
-18.01
 10
-10.1
 20
-18.01
 10
-10.1
 20
-19.51
  0
LWPOLYLINE
  5
1DD
100
AcDbEntity
  8
PART_PADS_SMD_TOP
100
AcDbPolyline
 90
        4
 70
         1
 10
-9.9
 20
-19.51
 10
-9.9
 20
-18.01
 10
-9.6
 20
-18.01
 10
-9.6
 20
-19.51
  0
LWPOLYLINE
  5
1DE
100
AcDbEntity
  8
PART_PADS_SMD_TOP
100
AcDbPolyline
 90
        4
 70
         1
 10
-9.4
 20
-19.51
 10
-9.4
 20
-18.01
 10
-9.1
 20
-18.01
 10
-9.1
 20
-19.51
  0
LWPOLYLINE
  5
1DF
100
AcDbEntity
  8
PART_PADS_SMD_TOP
100
AcDbPolyline
 90
        4
 70
         1
 10
-8.9
 20
-19.51
 10
-8.9
 20
-18.01
 10
-8.6
 20
-18.01
 10
-8.6
 20
-19.51
  0
LWPOLYLINE
  5
1E0
100
AcDbEntity
  8
PART_PADS_SMD_TOP
100
AcDbPolyline
 90
        4
 70
         1
 10
-8.4
 20
-19.51
 10
-8.4
 20
-18.01
 10
-8.1
 20
-18.01
 10
-8.1
 20
-19.51
  0
LWPOLYLINE
  5
1E1
100
AcDbEntity
  8
PART_PADS_SMD_TOP
100
AcDbPolyline
 90
        4
 70
         1
 10
-7.9
 20
-19.51
 10
-7.9
 20
-18.01
 10
-7.6
 20
-18.01
 10
-7.6
 20
-19.51
  0
LWPOLYLINE
  5
1E2
100
AcDbEntity
  8
PART_PADS_SMD_TOP
100
AcDbPolyline
 90
        4
 70
         1
 10
-7.4
 20
-19.51
 10
-7.4
 20
-18.01
 10
-7.1
 20
-18.01
 10
-7.1
 20
-19.51
  0
LWPOLYLINE
  5
1E3
100
AcDbEntity
  8
PART_PADS_SMD_TOP
100
AcDbPolyline
 90
        4
 70
         1
 10
-6.9
 20
-19.51
 10
-6.9
 20
-18.01
 10
-6.6
 20
-18.01
 10
-6.6
 20
-19.51
  0
LWPOLYLINE
  5
1E4
100
AcDbEntity
  8
PART_PADS_SMD_TOP
100
AcDbPolyline
 90
        4
 70
         1
 10
-6.4
 20
-19.51
 10
-6.4
 20
-18.01
 10
-6.1
 20
-18.01
 10
-6.1
 20
-19.51
  0
LWPOLYLINE
  5
1E5
100
AcDbEntity
  8
PART_PADS_SMD_TOP
100
AcDbPolyline
 90
        4
 70
         1
 10
-5.9
 20
-19.51
 10
-5.9
 20
-18.01
 10
-5.6
 20
-18.01
 10
-5.6
 20
-19.51
  0
LWPOLYLINE
  5
1E6
100
AcDbEntity
  8
PART_PADS_SMD_TOP
100
AcDbPolyline
 90
        4
 70
         1
 10
-5.4
 20
-19.51
 10
-5.4
 20
-18.01
 10
-5.1
 20
-18.01
 10
-5.1
 20
-19.51
  0
LWPOLYLINE
  5
1E7
100
AcDbEntity
  8
PART_PADS_SMD_TOP
100
AcDbPolyline
 90
        4
 70
         1
 10
-4.9
 20
-19.51
 10
-4.9
 20
-18.01
 10
-4.6
 20
-18.01
 10
-4.6
 20
-19.51
  0
LWPOLYLINE
  5
1E8
100
AcDbEntity
  8
PART_PADS_SMD_TOP
100
AcDbPolyline
 90
        4
 70
         1
 10
-4.4
 20
-19.51
 10
-4.4
 20
-18.01
 10
-4.1
 20
-18.01
 10
-4.1
 20
-19.51
  0
LWPOLYLINE
  5
1E9
100
AcDbEntity
  8
PART_PADS_SMD_TOP
100
AcDbPolyline
 90
        4
 70
         1
 10
-3.9
 20
-19.51
 10
-3.9
 20
-18.01
 10
-3.6
 20
-18.01
 10
-3.6
 20
-19.51
  0
LWPOLYLINE
  5
1EA
100
AcDbEntity
  8
PART_PADS_SMD_TOP
100
AcDbPolyline
 90
        4
 70
         1
 10
-3.4
 20
-19.51
 10
-3.4
 20
-18.01
 10
-3.1
 20
-18.01
 10
-3.1
 20
-19.51
  0
LWPOLYLINE
  5
1EB
100
AcDbEntity
  8
PART_PADS_SMD_TOP
100
AcDbPolyline
 90
        4
 70
         1
 10
-2.9
 20
-19.51
 10
-2.9
 20
-18.01
 10
-2.6
 20
-18.01
 10
-2.6
 20
-19.51
  0
LWPOLYLINE
  5
1EC
100
AcDbEntity
  8
PART_PADS_SMD_TOP
100
AcDbPolyline
 90
        4
 70
         1
 10
-2.4
 20
-19.51
 10
-2.4
 20
-18.01
 10
-2.1
 20
-18.01
 10
-2.1
 20
-19.51
  0
LWPOLYLINE
  5
1ED
100
AcDbEntity
  8
PART_PADS_SMD_TOP
100
AcDbPolyline
 90
        4
 70
         1
 10
-1.9
 20
-19.51
 10
-1.9
 20
-18.01
 10
-1.6
 20
-18.01
 10
-1.6
 20
-19.51
  0
LWPOLYLINE
  5
1EE
100
AcDbEntity
  8
PART_PADS_SMD_TOP
100
AcDbPolyline
 90
        4
 70
         1
 10
-1.4
 20
-19.51
 10
-1.4
 20
-18.01
 10
-1.1
 20
-18.01
 10
-1.1
 20
-19.51
  0
LWPOLYLINE
  5
1EF
100
AcDbEntity
  8
PART_PADS_SMD_TOP
100
AcDbPolyline
 90
        4
 70
         1
 10
-0.9
 20
-19.51
 10
-0.9
 20
-18.01
 10
-0.6
 20
-18.01
 10
-0.6
 20
-19.51
  0
LWPOLYLINE
  5
1F0
100
AcDbEntity
  8
PART_PADS_SMD_TOP
100
AcDbPolyline
 90
        4
 70
         1
 10
-0.4
 20
-19.51
 10
-0.4
 20
-18.01
 10
-0.1
 20
-18.01
 10
-0.1
 20
-19.51
  0
LWPOLYLINE
  5
1F1
100
AcDbEntity
  8
PART_PADS_SMD_TOP
100
AcDbPolyline
 90
        4
 70
         1
 10
0.1
 20
-19.51
 10
0.1
 20
-18.01
 10
0.4
 20
-18.01
 10
0.4
 20
-19.51
  0
LWPOLYLINE
  5
1F2
100
AcDbEntity
  8
PART_PADS_SMD_TOP
100
AcDbPolyline
 90
        4
 70
         1
 10
0.6
 20
-19.51
 10
0.6
 20
-18.01
 10
0.9
 20
-18.01
 10
0.9
 20
-19.51
  0
LWPOLYLINE
  5
1F3
100
AcDbEntity
  8
PART_PADS_SMD_TOP
100
AcDbPolyline
 90
        4
 70
         1
 10
1.1
 20
-19.51
 10
1.1
 20
-18.01
 10
1.4
 20
-18.01
 10
1.4
 20
-19.51
  0
LWPOLYLINE
  5
1F4
100
AcDbEntity
  8
PART_PADS_SMD_TOP
100
AcDbPolyline
 90
        4
 70
         1
 10
1.6
 20
-19.51
 10
1.6
 20
-18.01
 10
1.9
 20
-18.01
 10
1.9
 20
-19.51
  0
LWPOLYLINE
  5
1F5
100
AcDbEntity
  8
PART_PADS_SMD_TOP
100
AcDbPolyline
 90
        4
 70
         1
 10
2.1
 20
-19.51
 10
2.1
 20
-18.01
 10
2.4
 20
-18.01
 10
2.4
 20
-19.51
  0
LWPOLYLINE
  5
1F6
100
AcDbEntity
  8
PART_PADS_SMD_TOP
100
AcDbPolyline
 90
        4
 70
         1
 10
2.6
 20
-19.51
 10
2.6
 20
-18.01
 10
2.9
 20
-18.01
 10
2.9
 20
-19.51
  0
LWPOLYLINE
  5
1F7
100
AcDbEntity
  8
PART_PADS_SMD_TOP
100
AcDbPolyline
 90
        4
 70
         1
 10
3.1
 20
-19.51
 10
3.1
 20
-18.01
 10
3.4
 20
-18.01
 10
3.4
 20
-19.51
  0
LWPOLYLINE
  5
1F8
100
AcDbEntity
  8
PART_PADS_SMD_TOP
100
AcDbPolyline
 90
        4
 70
         1
 10
3.6
 20
-19.51
 10
3.6
 20
-18.01
 10
3.9
 20
-18.01
 10
3.9
 20
-19.51
  0
LWPOLYLINE
  5
1F9
100
AcDbEntity
  8
PART_PADS_SMD_TOP
100
AcDbPolyline
 90
        4
 70
         1
 10
4.1
 20
-19.51
 10
4.1
 20
-18.01
 10
4.4
 20
-18.01
 10
4.4
 20
-19.51
  0
LWPOLYLINE
  5
1FA
100
AcDbEntity
  8
PART_PADS_SMD_TOP
100
AcDbPolyline
 90
        4
 70
         1
 10
4.6
 20
-19.51
 10
4.6
 20
-18.01
 10
4.9
 20
-18.01
 10
4.9
 20
-19.51
  0
LWPOLYLINE
  5
1FB
100
AcDbEntity
  8
PART_PADS_SMD_TOP
100
AcDbPolyline
 90
        4
 70
         1
 10
5.1
 20
-19.51
 10
5.1
 20
-18.01
 10
5.4
 20
-18.01
 10
5.4
 20
-19.51
  0
LWPOLYLINE
  5
1FC
100
AcDbEntity
  8
PART_PADS_SMD_TOP
100
AcDbPolyline
 90
        4
 70
         1
 10
5.6
 20
-19.51
 10
5.6
 20
-18.01
 10
5.9
 20
-18.01
 10
5.9
 20
-19.51
  0
LWPOLYLINE
  5
1FD
100
AcDbEntity
  8
PART_PADS_SMD_TOP
100
AcDbPolyline
 90
        4
 70
         1
 10
6.1
 20
-19.51
 10
6.1
 20
-18.01
 10
6.4
 20
-18.01
 10
6.4
 20
-19.51
  0
LWPOLYLINE
  5
1FE
100
AcDbEntity
  8
PART_PADS_SMD_TOP
100
AcDbPolyline
 90
        4
 70
         1
 10
6.6
 20
-19.51
 10
6.6
 20
-18.01
 10
6.9
 20
-18.01
 10
6.9
 20
-19.51
  0
LWPOLYLINE
  5
1FF
100
AcDbEntity
  8
PART_PADS_SMD_TOP
100
AcDbPolyline
 90
        4
 70
         1
 10
7.1
 20
-19.51
 10
7.1
 20
-18.01
 10
7.4
 20
-18.01
 10
7.4
 20
-19.51
  0
LWPOLYLINE
  5
200
100
AcDbEntity
  8
PART_PADS_SMD_TOP
100
AcDbPolyline
 90
        4
 70
         1
 10
7.6
 20
-19.51
 10
7.6
 20
-18.01
 10
7.9
 20
-18.01
 10
7.9
 20
-19.51
  0
LWPOLYLINE
  5
201
100
AcDbEntity
  8
PART_PADS_SMD_TOP
100
AcDbPolyline
 90
        4
 70
         1
 10
8.1
 20
-19.51
 10
8.1
 20
-18.01
 10
8.4
 20
-18.01
 10
8.4
 20
-19.51
  0
LWPOLYLINE
  5
202
100
AcDbEntity
  8
PART_PADS_SMD_TOP
100
AcDbPolyline
 90
        4
 70
         1
 10
8.6
 20
-19.51
 10
8.6
 20
-18.01
 10
8.9
 20
-18.01
 10
8.9
 20
-19.51
  0
LWPOLYLINE
  5
203
100
AcDbEntity
  8
PART_PADS_SMD_TOP
100
AcDbPolyline
 90
        4
 70
         1
 10
9.1
 20
-19.51
 10
9.1
 20
-18.01
 10
9.4
 20
-18.01
 10
9.4
 20
-19.51
  0
LWPOLYLINE
  5
204
100
AcDbEntity
  8
PART_PADS_SMD_TOP
100
AcDbPolyline
 90
        4
 70
         1
 10
9.6
 20
-19.51
 10
9.6
 20
-18.01
 10
9.9
 20
-18.01
 10
9.9
 20
-19.51
  0
LWPOLYLINE
  5
205
100
AcDbEntity
  8
PART_PADS_SMD_TOP
100
AcDbPolyline
 90
        4
 70
         1
 10
10.1
 20
-19.51
 10
10.1
 20
-18.01
 10
10.4
 20
-18.01
 10
10.4
 20
-19.51
  0
LWPOLYLINE
  5
206
100
AcDbEntity
  8
PART_PADS_SMD_TOP
100
AcDbPolyline
 90
        4
 70
         1
 10
10.6
 20
-19.51
 10
10.6
 20
-18.01
 10
10.9
 20
-18.01
 10
10.9
 20
-19.51
  0
LWPOLYLINE
  5
207
100
AcDbEntity
  8
PART_PADS_SMD_TOP
100
AcDbPolyline
 90
        4
 70
         1
 10
11.1
 20
-19.51
 10
11.1
 20
-18.01
 10
11.4
 20
-18.01
 10
11.4
 20
-19.51
  0
LWPOLYLINE
  5
208
100
AcDbEntity
  8
PART_PADS_SMD_TOP
100
AcDbPolyline
 90
        4
 70
         1
 10
11.6
 20
-19.51
 10
11.6
 20
-18.01
 10
11.9
 20
-18.01
 10
11.9
 20
-19.51
  0
LWPOLYLINE
  5
209
100
AcDbEntity
  8
PART_PADS_SMD_TOP
100
AcDbPolyline
 90
        4
 70
         1
 10
12.1
 20
-19.51
 10
12.1
 20
-18.01
 10
12.4
 20
-18.01
 10
12.4
 20
-19.51
  0
LWPOLYLINE
  5
20A
100
AcDbEntity
  8
PART_PADS_SMD_TOP
100
AcDbPolyline
 90
        4
 70
         1
 10
12.6
 20
-19.51
 10
12.6
 20
-18.01
 10
12.9
 20
-18.01
 10
12.9
 20
-19.51
  0
LWPOLYLINE
  5
20B
100
AcDbEntity
  8
PART_PADS_SMD_TOP
100
AcDbPolyline
 90
        4
 70
         1
 10
13.1
 20
-19.51
 10
13.1
 20
-18.01
 10
13.4
 20
-18.01
 10
13.4
 20
-19.51
  0
LWPOLYLINE
  5
20C
100
AcDbEntity
  8
PART_PADS_SMD_TOP
100
AcDbPolyline
 90
        4
 70
         1
 10
13.6
 20
-19.51
 10
13.6
 20
-18.01
 10
13.9
 20
-18.01
 10
13.9
 20
-19.51
  0
LWPOLYLINE
  5
20D
100
AcDbEntity
  8
PART_PADS_SMD_TOP
100
AcDbPolyline
 90
        4
 70
         1
 10
14.1
 20
-19.51
 10
14.1
 20
-18.01
 10
14.4
 20
-18.01
 10
14.4
 20
-19.51
  0
LWPOLYLINE
  5
20E
100
AcDbEntity
  8
PART_PADS_SMD_TOP
100
AcDbPolyline
 90
        4
 70
         1
 10
14.6
 20
-19.51
 10
14.6
 20
-18.01
 10
14.9
 20
-18.01
 10
14.9
 20
-19.51
  0
LWPOLYLINE
  5
20F
100
AcDbEntity
  8
PART_PADS_SMD_TOP
100
AcDbPolyline
 90
        4
 70
         1
 10
-14.9
 20
-13.39
 10
-14.9
 20
-11.89
 10
-14.6
 20
-11.89
 10
-14.6
 20
-13.39
  0
LWPOLYLINE
  5
210
100
AcDbEntity
  8
PART_PADS_SMD_TOP
100
AcDbPolyline
 90
        4
 70
         1
 10
-14.4
 20
-13.39
 10
-14.4
 20
-11.89
 10
-14.1
 20
-11.89
 10
-14.1
 20
-13.39
  0
LWPOLYLINE
  5
211
100
AcDbEntity
  8
PART_PADS_SMD_TOP
100
AcDbPolyline
 90
        4
 70
         1
 10
-13.9
 20
-13.39
 10
-13.9
 20
-11.89
 10
-13.6
 20
-11.89
 10
-13.6
 20
-13.39
  0
LWPOLYLINE
  5
212
100
AcDbEntity
  8
PART_PADS_SMD_TOP
100
AcDbPolyline
 90
        4
 70
         1
 10
-13.4
 20
-13.39
 10
-13.4
 20
-11.89
 10
-13.1
 20
-11.89
 10
-13.1
 20
-13.39
  0
LWPOLYLINE
  5
213
100
AcDbEntity
  8
PART_PADS_SMD_TOP
100
AcDbPolyline
 90
        4
 70
         1
 10
-12.9
 20
-13.39
 10
-12.9
 20
-11.89
 10
-12.6
 20
-11.89
 10
-12.6
 20
-13.39
  0
LWPOLYLINE
  5
214
100
AcDbEntity
  8
PART_PADS_SMD_TOP
100
AcDbPolyline
 90
        4
 70
         1
 10
-12.4
 20
-13.39
 10
-12.4
 20
-11.89
 10
-12.1
 20
-11.89
 10
-12.1
 20
-13.39
  0
LWPOLYLINE
  5
215
100
AcDbEntity
  8
PART_PADS_SMD_TOP
100
AcDbPolyline
 90
        4
 70
         1
 10
-11.9
 20
-13.39
 10
-11.9
 20
-11.89
 10
-11.6
 20
-11.89
 10
-11.6
 20
-13.39
  0
LWPOLYLINE
  5
216
100
AcDbEntity
  8
PART_PADS_SMD_TOP
100
AcDbPolyline
 90
        4
 70
         1
 10
-11.4
 20
-13.39
 10
-11.4
 20
-11.89
 10
-11.1
 20
-11.89
 10
-11.1
 20
-13.39
  0
LWPOLYLINE
  5
217
100
AcDbEntity
  8
PART_PADS_SMD_TOP
100
AcDbPolyline
 90
        4
 70
         1
 10
-10.9
 20
-13.39
 10
-10.9
 20
-11.89
 10
-10.6
 20
-11.89
 10
-10.6
 20
-13.39
  0
LWPOLYLINE
  5
218
100
AcDbEntity
  8
PART_PADS_SMD_TOP
100
AcDbPolyline
 90
        4
 70
         1
 10
-10.4
 20
-13.39
 10
-10.4
 20
-11.89
 10
-10.1
 20
-11.89
 10
-10.1
 20
-13.39
  0
LWPOLYLINE
  5
219
100
AcDbEntity
  8
PART_PADS_SMD_TOP
100
AcDbPolyline
 90
        4
 70
         1
 10
-9.9
 20
-13.39
 10
-9.9
 20
-11.89
 10
-9.6
 20
-11.89
 10
-9.6
 20
-13.39
  0
LWPOLYLINE
  5
21A
100
AcDbEntity
  8
PART_PADS_SMD_TOP
100
AcDbPolyline
 90
        4
 70
         1
 10
-9.4
 20
-13.39
 10
-9.4
 20
-11.89
 10
-9.1
 20
-11.89
 10
-9.1
 20
-13.39
  0
LWPOLYLINE
  5
21B
100
AcDbEntity
  8
PART_PADS_SMD_TOP
100
AcDbPolyline
 90
        4
 70
         1
 10
-8.9
 20
-13.39
 10
-8.9
 20
-11.89
 10
-8.6
 20
-11.89
 10
-8.6
 20
-13.39
  0
LWPOLYLINE
  5
21C
100
AcDbEntity
  8
PART_PADS_SMD_TOP
100
AcDbPolyline
 90
        4
 70
         1
 10
-8.4
 20
-13.39
 10
-8.4
 20
-11.89
 10
-8.1
 20
-11.89
 10
-8.1
 20
-13.39
  0
LWPOLYLINE
  5
21D
100
AcDbEntity
  8
PART_PADS_SMD_TOP
100
AcDbPolyline
 90
        4
 70
         1
 10
-7.9
 20
-13.39
 10
-7.9
 20
-11.89
 10
-7.6
 20
-11.89
 10
-7.6
 20
-13.39
  0
LWPOLYLINE
  5
21E
100
AcDbEntity
  8
PART_PADS_SMD_TOP
100
AcDbPolyline
 90
        4
 70
         1
 10
-7.4
 20
-13.39
 10
-7.4
 20
-11.89
 10
-7.1
 20
-11.89
 10
-7.1
 20
-13.39
  0
LWPOLYLINE
  5
21F
100
AcDbEntity
  8
PART_PADS_SMD_TOP
100
AcDbPolyline
 90
        4
 70
         1
 10
-6.9
 20
-13.39
 10
-6.9
 20
-11.89
 10
-6.6
 20
-11.89
 10
-6.6
 20
-13.39
  0
LWPOLYLINE
  5
220
100
AcDbEntity
  8
PART_PADS_SMD_TOP
100
AcDbPolyline
 90
        4
 70
         1
 10
-6.4
 20
-13.39
 10
-6.4
 20
-11.89
 10
-6.1
 20
-11.89
 10
-6.1
 20
-13.39
  0
LWPOLYLINE
  5
221
100
AcDbEntity
  8
PART_PADS_SMD_TOP
100
AcDbPolyline
 90
        4
 70
         1
 10
-5.9
 20
-13.39
 10
-5.9
 20
-11.89
 10
-5.6
 20
-11.89
 10
-5.6
 20
-13.39
  0
LWPOLYLINE
  5
222
100
AcDbEntity
  8
PART_PADS_SMD_TOP
100
AcDbPolyline
 90
        4
 70
         1
 10
-5.4
 20
-13.39
 10
-5.4
 20
-11.89
 10
-5.1
 20
-11.89
 10
-5.1
 20
-13.39
  0
LWPOLYLINE
  5
223
100
AcDbEntity
  8
PART_PADS_SMD_TOP
100
AcDbPolyline
 90
        4
 70
         1
 10
-4.9
 20
-13.39
 10
-4.9
 20
-11.89
 10
-4.6
 20
-11.89
 10
-4.6
 20
-13.39
  0
LWPOLYLINE
  5
224
100
AcDbEntity
  8
PART_PADS_SMD_TOP
100
AcDbPolyline
 90
        4
 70
         1
 10
-4.4
 20
-13.39
 10
-4.4
 20
-11.89
 10
-4.1
 20
-11.89
 10
-4.1
 20
-13.39
  0
LWPOLYLINE
  5
225
100
AcDbEntity
  8
PART_PADS_SMD_TOP
100
AcDbPolyline
 90
        4
 70
         1
 10
-3.9
 20
-13.39
 10
-3.9
 20
-11.89
 10
-3.6
 20
-11.89
 10
-3.6
 20
-13.39
  0
LWPOLYLINE
  5
226
100
AcDbEntity
  8
PART_PADS_SMD_TOP
100
AcDbPolyline
 90
        4
 70
         1
 10
-3.4
 20
-13.39
 10
-3.4
 20
-11.89
 10
-3.1
 20
-11.89
 10
-3.1
 20
-13.39
  0
LWPOLYLINE
  5
227
100
AcDbEntity
  8
PART_PADS_SMD_TOP
100
AcDbPolyline
 90
        4
 70
         1
 10
-2.9
 20
-13.39
 10
-2.9
 20
-11.89
 10
-2.6
 20
-11.89
 10
-2.6
 20
-13.39
  0
LWPOLYLINE
  5
228
100
AcDbEntity
  8
PART_PADS_SMD_TOP
100
AcDbPolyline
 90
        4
 70
         1
 10
-2.4
 20
-13.39
 10
-2.4
 20
-11.89
 10
-2.1
 20
-11.89
 10
-2.1
 20
-13.39
  0
LWPOLYLINE
  5
229
100
AcDbEntity
  8
PART_PADS_SMD_TOP
100
AcDbPolyline
 90
        4
 70
         1
 10
-1.9
 20
-13.39
 10
-1.9
 20
-11.89
 10
-1.6
 20
-11.89
 10
-1.6
 20
-13.39
  0
LWPOLYLINE
  5
22A
100
AcDbEntity
  8
PART_PADS_SMD_TOP
100
AcDbPolyline
 90
        4
 70
         1
 10
-1.4
 20
-13.39
 10
-1.4
 20
-11.89
 10
-1.1
 20
-11.89
 10
-1.1
 20
-13.39
  0
LWPOLYLINE
  5
22B
100
AcDbEntity
  8
PART_PADS_SMD_TOP
100
AcDbPolyline
 90
        4
 70
         1
 10
-0.9
 20
-13.39
 10
-0.9
 20
-11.89
 10
-0.6
 20
-11.89
 10
-0.6
 20
-13.39
  0
LWPOLYLINE
  5
22C
100
AcDbEntity
  8
PART_PADS_SMD_TOP
100
AcDbPolyline
 90
        4
 70
         1
 10
-0.4
 20
-13.39
 10
-0.4
 20
-11.89
 10
-0.1
 20
-11.89
 10
-0.1
 20
-13.39
  0
LWPOLYLINE
  5
22D
100
AcDbEntity
  8
PART_PADS_SMD_TOP
100
AcDbPolyline
 90
        4
 70
         1
 10
0.1
 20
-13.39
 10
0.1
 20
-11.89
 10
0.4
 20
-11.89
 10
0.4
 20
-13.39
  0
LWPOLYLINE
  5
22E
100
AcDbEntity
  8
PART_PADS_SMD_TOP
100
AcDbPolyline
 90
        4
 70
         1
 10
0.6
 20
-13.39
 10
0.6
 20
-11.89
 10
0.9
 20
-11.89
 10
0.9
 20
-13.39
  0
LWPOLYLINE
  5
22F
100
AcDbEntity
  8
PART_PADS_SMD_TOP
100
AcDbPolyline
 90
        4
 70
         1
 10
1.1
 20
-13.39
 10
1.1
 20
-11.89
 10
1.4
 20
-11.89
 10
1.4
 20
-13.39
  0
LWPOLYLINE
  5
230
100
AcDbEntity
  8
PART_PADS_SMD_TOP
100
AcDbPolyline
 90
        4
 70
         1
 10
1.6
 20
-13.39
 10
1.6
 20
-11.89
 10
1.9
 20
-11.89
 10
1.9
 20
-13.39
  0
LWPOLYLINE
  5
231
100
AcDbEntity
  8
PART_PADS_SMD_TOP
100
AcDbPolyline
 90
        4
 70
         1
 10
2.1
 20
-13.39
 10
2.1
 20
-11.89
 10
2.4
 20
-11.89
 10
2.4
 20
-13.39
  0
LWPOLYLINE
  5
232
100
AcDbEntity
  8
PART_PADS_SMD_TOP
100
AcDbPolyline
 90
        4
 70
         1
 10
2.6
 20
-13.39
 10
2.6
 20
-11.89
 10
2.9
 20
-11.89
 10
2.9
 20
-13.39
  0
LWPOLYLINE
  5
233
100
AcDbEntity
  8
PART_PADS_SMD_TOP
100
AcDbPolyline
 90
        4
 70
         1
 10
3.1
 20
-13.39
 10
3.1
 20
-11.89
 10
3.4
 20
-11.89
 10
3.4
 20
-13.39
  0
LWPOLYLINE
  5
234
100
AcDbEntity
  8
PART_PADS_SMD_TOP
100
AcDbPolyline
 90
        4
 70
         1
 10
3.6
 20
-13.39
 10
3.6
 20
-11.89
 10
3.9
 20
-11.89
 10
3.9
 20
-13.39
  0
LWPOLYLINE
  5
235
100
AcDbEntity
  8
PART_PADS_SMD_TOP
100
AcDbPolyline
 90
        4
 70
         1
 10
4.1
 20
-13.39
 10
4.1
 20
-11.89
 10
4.4
 20
-11.89
 10
4.4
 20
-13.39
  0
LWPOLYLINE
  5
236
100
AcDbEntity
  8
PART_PADS_SMD_TOP
100
AcDbPolyline
 90
        4
 70
         1
 10
4.6
 20
-13.39
 10
4.6
 20
-11.89
 10
4.9
 20
-11.89
 10
4.9
 20
-13.39
  0
LWPOLYLINE
  5
237
100
AcDbEntity
  8
PART_PADS_SMD_TOP
100
AcDbPolyline
 90
        4
 70
         1
 10
5.1
 20
-13.39
 10
5.1
 20
-11.89
 10
5.4
 20
-11.89
 10
5.4
 20
-13.39
  0
LWPOLYLINE
  5
238
100
AcDbEntity
  8
PART_PADS_SMD_TOP
100
AcDbPolyline
 90
        4
 70
         1
 10
5.6
 20
-13.39
 10
5.6
 20
-11.89
 10
5.9
 20
-11.89
 10
5.9
 20
-13.39
  0
LWPOLYLINE
  5
239
100
AcDbEntity
  8
PART_PADS_SMD_TOP
100
AcDbPolyline
 90
        4
 70
         1
 10
6.1
 20
-13.39
 10
6.1
 20
-11.89
 10
6.4
 20
-11.89
 10
6.4
 20
-13.39
  0
LWPOLYLINE
  5
23A
100
AcDbEntity
  8
PART_PADS_SMD_TOP
100
AcDbPolyline
 90
        4
 70
         1
 10
6.6
 20
-13.39
 10
6.6
 20
-11.89
 10
6.9
 20
-11.89
 10
6.9
 20
-13.39
  0
LWPOLYLINE
  5
23B
100
AcDbEntity
  8
PART_PADS_SMD_TOP
100
AcDbPolyline
 90
        4
 70
         1
 10
7.1
 20
-13.39
 10
7.1
 20
-11.89
 10
7.4
 20
-11.89
 10
7.4
 20
-13.39
  0
LWPOLYLINE
  5
23C
100
AcDbEntity
  8
PART_PADS_SMD_TOP
100
AcDbPolyline
 90
        4
 70
         1
 10
7.6
 20
-13.39
 10
7.6
 20
-11.89
 10
7.9
 20
-11.89
 10
7.9
 20
-13.39
  0
LWPOLYLINE
  5
23D
100
AcDbEntity
  8
PART_PADS_SMD_TOP
100
AcDbPolyline
 90
        4
 70
         1
 10
8.1
 20
-13.39
 10
8.1
 20
-11.89
 10
8.4
 20
-11.89
 10
8.4
 20
-13.39
  0
LWPOLYLINE
  5
23E
100
AcDbEntity
  8
PART_PADS_SMD_TOP
100
AcDbPolyline
 90
        4
 70
         1
 10
8.6
 20
-13.39
 10
8.6
 20
-11.89
 10
8.9
 20
-11.89
 10
8.9
 20
-13.39
  0
LWPOLYLINE
  5
23F
100
AcDbEntity
  8
PART_PADS_SMD_TOP
100
AcDbPolyline
 90
        4
 70
         1
 10
9.1
 20
-13.39
 10
9.1
 20
-11.89
 10
9.4
 20
-11.89
 10
9.4
 20
-13.39
  0
LWPOLYLINE
  5
240
100
AcDbEntity
  8
PART_PADS_SMD_TOP
100
AcDbPolyline
 90
        4
 70
         1
 10
9.6
 20
-13.39
 10
9.6
 20
-11.89
 10
9.9
 20
-11.89
 10
9.9
 20
-13.39
  0
LWPOLYLINE
  5
241
100
AcDbEntity
  8
PART_PADS_SMD_TOP
100
AcDbPolyline
 90
        4
 70
         1
 10
10.1
 20
-13.39
 10
10.1
 20
-11.89
 10
10.4
 20
-11.89
 10
10.4
 20
-13.39
  0
LWPOLYLINE
  5
242
100
AcDbEntity
  8
PART_PADS_SMD_TOP
100
AcDbPolyline
 90
        4
 70
         1
 10
10.6
 20
-13.39
 10
10.6
 20
-11.89
 10
10.9
 20
-11.89
 10
10.9
 20
-13.39
  0
LWPOLYLINE
  5
243
100
AcDbEntity
  8
PART_PADS_SMD_TOP
100
AcDbPolyline
 90
        4
 70
         1
 10
11.1
 20
-13.39
 10
11.1
 20
-11.89
 10
11.4
 20
-11.89
 10
11.4
 20
-13.39
  0
LWPOLYLINE
  5
244
100
AcDbEntity
  8
PART_PADS_SMD_TOP
100
AcDbPolyline
 90
        4
 70
         1
 10
11.6
 20
-13.39
 10
11.6
 20
-11.89
 10
11.9
 20
-11.89
 10
11.9
 20
-13.39
  0
LWPOLYLINE
  5
245
100
AcDbEntity
  8
PART_PADS_SMD_TOP
100
AcDbPolyline
 90
        4
 70
         1
 10
12.1
 20
-13.39
 10
12.1
 20
-11.89
 10
12.4
 20
-11.89
 10
12.4
 20
-13.39
  0
LWPOLYLINE
  5
246
100
AcDbEntity
  8
PART_PADS_SMD_TOP
100
AcDbPolyline
 90
        4
 70
         1
 10
12.6
 20
-13.39
 10
12.6
 20
-11.89
 10
12.9
 20
-11.89
 10
12.9
 20
-13.39
  0
LWPOLYLINE
  5
247
100
AcDbEntity
  8
PART_PADS_SMD_TOP
100
AcDbPolyline
 90
        4
 70
         1
 10
13.1
 20
-13.39
 10
13.1
 20
-11.89
 10
13.4
 20
-11.89
 10
13.4
 20
-13.39
  0
LWPOLYLINE
  5
248
100
AcDbEntity
  8
PART_PADS_SMD_TOP
100
AcDbPolyline
 90
        4
 70
         1
 10
13.6
 20
-13.39
 10
13.6
 20
-11.89
 10
13.9
 20
-11.89
 10
13.9
 20
-13.39
  0
LWPOLYLINE
  5
249
100
AcDbEntity
  8
PART_PADS_SMD_TOP
100
AcDbPolyline
 90
        4
 70
         1
 10
14.1
 20
-13.39
 10
14.1
 20
-11.89
 10
14.4
 20
-11.89
 10
14.4
 20
-13.39
  0
LWPOLYLINE
  5
24A
100
AcDbEntity
  8
PART_PADS_SMD_TOP
100
AcDbPolyline
 90
        4
 70
         1
 10
14.6
 20
-13.39
 10
14.6
 20
-11.89
 10
14.9
 20
-11.89
 10
14.9
 20
-13.39
  0
LWPOLYLINE
  5
24B
100
AcDbEntity
  8
PART_PADS_SMD_TOP
100
AcDbPolyline
 90
        4
 70
         1
 10
-14.9
 20
11.89
 10
-14.9
 20
13.39
 10
-14.6
 20
13.39
 10
-14.6
 20
11.89
  0
LWPOLYLINE
  5
24C
100
AcDbEntity
  8
PART_PADS_SMD_TOP
100
AcDbPolyline
 90
        4
 70
         1
 10
-14.4
 20
11.89
 10
-14.4
 20
13.39
 10
-14.1
 20
13.39
 10
-14.1
 20
11.89
  0
LWPOLYLINE
  5
24D
100
AcDbEntity
  8
PART_PADS_SMD_TOP
100
AcDbPolyline
 90
        4
 70
         1
 10
-13.9
 20
11.89
 10
-13.9
 20
13.39
 10
-13.6
 20
13.39
 10
-13.6
 20
11.89
  0
LWPOLYLINE
  5
24E
100
AcDbEntity
  8
PART_PADS_SMD_TOP
100
AcDbPolyline
 90
        4
 70
         1
 10
-13.4
 20
11.89
 10
-13.4
 20
13.39
 10
-13.1
 20
13.39
 10
-13.1
 20
11.89
  0
LWPOLYLINE
  5
24F
100
AcDbEntity
  8
PART_PADS_SMD_TOP
100
AcDbPolyline
 90
        4
 70
         1
 10
-12.9
 20
11.89
 10
-12.9
 20
13.39
 10
-12.6
 20
13.39
 10
-12.6
 20
11.89
  0
LWPOLYLINE
  5
250
100
AcDbEntity
  8
PART_PADS_SMD_TOP
100
AcDbPolyline
 90
        4
 70
         1
 10
-12.4
 20
11.89
 10
-12.4
 20
13.39
 10
-12.1
 20
13.39
 10
-12.1
 20
11.89
  0
LWPOLYLINE
  5
251
100
AcDbEntity
  8
PART_PADS_SMD_TOP
100
AcDbPolyline
 90
        4
 70
         1
 10
-11.9
 20
11.89
 10
-11.9
 20
13.39
 10
-11.6
 20
13.39
 10
-11.6
 20
11.89
  0
LWPOLYLINE
  5
252
100
AcDbEntity
  8
PART_PADS_SMD_TOP
100
AcDbPolyline
 90
        4
 70
         1
 10
-11.4
 20
11.89
 10
-11.4
 20
13.39
 10
-11.1
 20
13.39
 10
-11.1
 20
11.89
  0
LWPOLYLINE
  5
253
100
AcDbEntity
  8
PART_PADS_SMD_TOP
100
AcDbPolyline
 90
        4
 70
         1
 10
-10.9
 20
11.89
 10
-10.9
 20
13.39
 10
-10.6
 20
13.39
 10
-10.6
 20
11.89
  0
LWPOLYLINE
  5
254
100
AcDbEntity
  8
PART_PADS_SMD_TOP
100
AcDbPolyline
 90
        4
 70
         1
 10
-10.4
 20
11.89
 10
-10.4
 20
13.39
 10
-10.1
 20
13.39
 10
-10.1
 20
11.89
  0
LWPOLYLINE
  5
255
100
AcDbEntity
  8
PART_PADS_SMD_TOP
100
AcDbPolyline
 90
        4
 70
         1
 10
-9.9
 20
11.89
 10
-9.9
 20
13.39
 10
-9.6
 20
13.39
 10
-9.6
 20
11.89
  0
LWPOLYLINE
  5
256
100
AcDbEntity
  8
PART_PADS_SMD_TOP
100
AcDbPolyline
 90
        4
 70
         1
 10
-9.4
 20
11.89
 10
-9.4
 20
13.39
 10
-9.1
 20
13.39
 10
-9.1
 20
11.89
  0
LWPOLYLINE
  5
257
100
AcDbEntity
  8
PART_PADS_SMD_TOP
100
AcDbPolyline
 90
        4
 70
         1
 10
-8.9
 20
11.89
 10
-8.9
 20
13.39
 10
-8.6
 20
13.39
 10
-8.6
 20
11.89
  0
LWPOLYLINE
  5
258
100
AcDbEntity
  8
PART_PADS_SMD_TOP
100
AcDbPolyline
 90
        4
 70
         1
 10
-8.4
 20
11.89
 10
-8.4
 20
13.39
 10
-8.1
 20
13.39
 10
-8.1
 20
11.89
  0
LWPOLYLINE
  5
259
100
AcDbEntity
  8
PART_PADS_SMD_TOP
100
AcDbPolyline
 90
        4
 70
         1
 10
-7.9
 20
11.89
 10
-7.9
 20
13.39
 10
-7.6
 20
13.39
 10
-7.6
 20
11.89
  0
LWPOLYLINE
  5
25A
100
AcDbEntity
  8
PART_PADS_SMD_TOP
100
AcDbPolyline
 90
        4
 70
         1
 10
-7.4
 20
11.89
 10
-7.4
 20
13.39
 10
-7.1
 20
13.39
 10
-7.1
 20
11.89
  0
LWPOLYLINE
  5
25B
100
AcDbEntity
  8
PART_PADS_SMD_TOP
100
AcDbPolyline
 90
        4
 70
         1
 10
-6.9
 20
11.89
 10
-6.9
 20
13.39
 10
-6.6
 20
13.39
 10
-6.6
 20
11.89
  0
LWPOLYLINE
  5
25C
100
AcDbEntity
  8
PART_PADS_SMD_TOP
100
AcDbPolyline
 90
        4
 70
         1
 10
-6.4
 20
11.89
 10
-6.4
 20
13.39
 10
-6.1
 20
13.39
 10
-6.1
 20
11.89
  0
LWPOLYLINE
  5
25D
100
AcDbEntity
  8
PART_PADS_SMD_TOP
100
AcDbPolyline
 90
        4
 70
         1
 10
-5.9
 20
11.89
 10
-5.9
 20
13.39
 10
-5.6
 20
13.39
 10
-5.6
 20
11.89
  0
LWPOLYLINE
  5
25E
100
AcDbEntity
  8
PART_PADS_SMD_TOP
100
AcDbPolyline
 90
        4
 70
         1
 10
-5.4
 20
11.89
 10
-5.4
 20
13.39
 10
-5.1
 20
13.39
 10
-5.1
 20
11.89
  0
LWPOLYLINE
  5
25F
100
AcDbEntity
  8
PART_PADS_SMD_TOP
100
AcDbPolyline
 90
        4
 70
         1
 10
-4.9
 20
11.89
 10
-4.9
 20
13.39
 10
-4.6
 20
13.39
 10
-4.6
 20
11.89
  0
LWPOLYLINE
  5
260
100
AcDbEntity
  8
PART_PADS_SMD_TOP
100
AcDbPolyline
 90
        4
 70
         1
 10
-4.4
 20
11.89
 10
-4.4
 20
13.39
 10
-4.1
 20
13.39
 10
-4.1
 20
11.89
  0
LWPOLYLINE
  5
261
100
AcDbEntity
  8
PART_PADS_SMD_TOP
100
AcDbPolyline
 90
        4
 70
         1
 10
-3.9
 20
11.89
 10
-3.9
 20
13.39
 10
-3.6
 20
13.39
 10
-3.6
 20
11.89
  0
LWPOLYLINE
  5
262
100
AcDbEntity
  8
PART_PADS_SMD_TOP
100
AcDbPolyline
 90
        4
 70
         1
 10
-3.4
 20
11.89
 10
-3.4
 20
13.39
 10
-3.1
 20
13.39
 10
-3.1
 20
11.89
  0
LWPOLYLINE
  5
263
100
AcDbEntity
  8
PART_PADS_SMD_TOP
100
AcDbPolyline
 90
        4
 70
         1
 10
-2.9
 20
11.89
 10
-2.9
 20
13.39
 10
-2.6
 20
13.39
 10
-2.6
 20
11.89
  0
LWPOLYLINE
  5
264
100
AcDbEntity
  8
PART_PADS_SMD_TOP
100
AcDbPolyline
 90
        4
 70
         1
 10
-2.4
 20
11.89
 10
-2.4
 20
13.39
 10
-2.1
 20
13.39
 10
-2.1
 20
11.89
  0
LWPOLYLINE
  5
265
100
AcDbEntity
  8
PART_PADS_SMD_TOP
100
AcDbPolyline
 90
        4
 70
         1
 10
-1.9
 20
11.89
 10
-1.9
 20
13.39
 10
-1.6
 20
13.39
 10
-1.6
 20
11.89
  0
LWPOLYLINE
  5
266
100
AcDbEntity
  8
PART_PADS_SMD_TOP
100
AcDbPolyline
 90
        4
 70
         1
 10
-1.4
 20
11.89
 10
-1.4
 20
13.39
 10
-1.1
 20
13.39
 10
-1.1
 20
11.89
  0
LWPOLYLINE
  5
267
100
AcDbEntity
  8
PART_PADS_SMD_TOP
100
AcDbPolyline
 90
        4
 70
         1
 10
-0.9
 20
11.89
 10
-0.9
 20
13.39
 10
-0.6
 20
13.39
 10
-0.6
 20
11.89
  0
LWPOLYLINE
  5
268
100
AcDbEntity
  8
PART_PADS_SMD_TOP
100
AcDbPolyline
 90
        4
 70
         1
 10
-0.4
 20
11.89
 10
-0.4
 20
13.39
 10
-0.1
 20
13.39
 10
-0.1
 20
11.89
  0
LWPOLYLINE
  5
269
100
AcDbEntity
  8
PART_PADS_SMD_TOP
100
AcDbPolyline
 90
        4
 70
         1
 10
0.1
 20
11.89
 10
0.1
 20
13.39
 10
0.4
 20
13.39
 10
0.4
 20
11.89
  0
LWPOLYLINE
  5
26A
100
AcDbEntity
  8
PART_PADS_SMD_TOP
100
AcDbPolyline
 90
        4
 70
         1
 10
0.6
 20
11.89
 10
0.6
 20
13.39
 10
0.9
 20
13.39
 10
0.9
 20
11.89
  0
LWPOLYLINE
  5
26B
100
AcDbEntity
  8
PART_PADS_SMD_TOP
100
AcDbPolyline
 90
        4
 70
         1
 10
1.1
 20
11.89
 10
1.1
 20
13.39
 10
1.4
 20
13.39
 10
1.4
 20
11.89
  0
LWPOLYLINE
  5
26C
100
AcDbEntity
  8
PART_PADS_SMD_TOP
100
AcDbPolyline
 90
        4
 70
         1
 10
1.6
 20
11.89
 10
1.6
 20
13.39
 10
1.9
 20
13.39
 10
1.9
 20
11.89
  0
LWPOLYLINE
  5
26D
100
AcDbEntity
  8
PART_PADS_SMD_TOP
100
AcDbPolyline
 90
        4
 70
         1
 10
2.1
 20
11.89
 10
2.1
 20
13.39
 10
2.4
 20
13.39
 10
2.4
 20
11.89
  0
LWPOLYLINE
  5
26E
100
AcDbEntity
  8
PART_PADS_SMD_TOP
100
AcDbPolyline
 90
        4
 70
         1
 10
2.6
 20
11.89
 10
2.6
 20
13.39
 10
2.9
 20
13.39
 10
2.9
 20
11.89
  0
LWPOLYLINE
  5
26F
100
AcDbEntity
  8
PART_PADS_SMD_TOP
100
AcDbPolyline
 90
        4
 70
         1
 10
3.1
 20
11.89
 10
3.1
 20
13.39
 10
3.4
 20
13.39
 10
3.4
 20
11.89
  0
LWPOLYLINE
  5
270
100
AcDbEntity
  8
PART_PADS_SMD_TOP
100
AcDbPolyline
 90
        4
 70
         1
 10
3.6
 20
11.89
 10
3.6
 20
13.39
 10
3.9
 20
13.39
 10
3.9
 20
11.89
  0
LWPOLYLINE
  5
271
100
AcDbEntity
  8
PART_PADS_SMD_TOP
100
AcDbPolyline
 90
        4
 70
         1
 10
4.1
 20
11.89
 10
4.1
 20
13.39
 10
4.4
 20
13.39
 10
4.4
 20
11.89
  0
LWPOLYLINE
  5
272
100
AcDbEntity
  8
PART_PADS_SMD_TOP
100
AcDbPolyline
 90
        4
 70
         1
 10
4.6
 20
11.89
 10
4.6
 20
13.39
 10
4.9
 20
13.39
 10
4.9
 20
11.89
  0
LWPOLYLINE
  5
273
100
AcDbEntity
  8
PART_PADS_SMD_TOP
100
AcDbPolyline
 90
        4
 70
         1
 10
5.1
 20
11.89
 10
5.1
 20
13.39
 10
5.4
 20
13.39
 10
5.4
 20
11.89
  0
LWPOLYLINE
  5
274
100
AcDbEntity
  8
PART_PADS_SMD_TOP
100
AcDbPolyline
 90
        4
 70
         1
 10
5.6
 20
11.89
 10
5.6
 20
13.39
 10
5.9
 20
13.39
 10
5.9
 20
11.89
  0
LWPOLYLINE
  5
275
100
AcDbEntity
  8
PART_PADS_SMD_TOP
100
AcDbPolyline
 90
        4
 70
         1
 10
6.1
 20
11.89
 10
6.1
 20
13.39
 10
6.4
 20
13.39
 10
6.4
 20
11.89
  0
LWPOLYLINE
  5
276
100
AcDbEntity
  8
PART_PADS_SMD_TOP
100
AcDbPolyline
 90
        4
 70
         1
 10
6.6
 20
11.89
 10
6.6
 20
13.39
 10
6.9
 20
13.39
 10
6.9
 20
11.89
  0
LWPOLYLINE
  5
277
100
AcDbEntity
  8
PART_PADS_SMD_TOP
100
AcDbPolyline
 90
        4
 70
         1
 10
7.1
 20
11.89
 10
7.1
 20
13.39
 10
7.4
 20
13.39
 10
7.4
 20
11.89
  0
LWPOLYLINE
  5
278
100
AcDbEntity
  8
PART_PADS_SMD_TOP
100
AcDbPolyline
 90
        4
 70
         1
 10
7.6
 20
11.89
 10
7.6
 20
13.39
 10
7.9
 20
13.39
 10
7.9
 20
11.89
  0
LWPOLYLINE
  5
279
100
AcDbEntity
  8
PART_PADS_SMD_TOP
100
AcDbPolyline
 90
        4
 70
         1
 10
8.1
 20
11.89
 10
8.1
 20
13.39
 10
8.4
 20
13.39
 10
8.4
 20
11.89
  0
LWPOLYLINE
  5
27A
100
AcDbEntity
  8
PART_PADS_SMD_TOP
100
AcDbPolyline
 90
        4
 70
         1
 10
8.6
 20
11.89
 10
8.6
 20
13.39
 10
8.9
 20
13.39
 10
8.9
 20
11.89
  0
LWPOLYLINE
  5
27B
100
AcDbEntity
  8
PART_PADS_SMD_TOP
100
AcDbPolyline
 90
        4
 70
         1
 10
9.1
 20
11.89
 10
9.1
 20
13.39
 10
9.4
 20
13.39
 10
9.4
 20
11.89
  0
LWPOLYLINE
  5
27C
100
AcDbEntity
  8
PART_PADS_SMD_TOP
100
AcDbPolyline
 90
        4
 70
         1
 10
9.6
 20
11.89
 10
9.6
 20
13.39
 10
9.9
 20
13.39
 10
9.9
 20
11.89
  0
LWPOLYLINE
  5
27D
100
AcDbEntity
  8
PART_PADS_SMD_TOP
100
AcDbPolyline
 90
        4
 70
         1
 10
10.1
 20
11.89
 10
10.1
 20
13.39
 10
10.4
 20
13.39
 10
10.4
 20
11.89
  0
LWPOLYLINE
  5
27E
100
AcDbEntity
  8
PART_PADS_SMD_TOP
100
AcDbPolyline
 90
        4
 70
         1
 10
10.6
 20
11.89
 10
10.6
 20
13.39
 10
10.9
 20
13.39
 10
10.9
 20
11.89
  0
LWPOLYLINE
  5
27F
100
AcDbEntity
  8
PART_PADS_SMD_TOP
100
AcDbPolyline
 90
        4
 70
         1
 10
11.1
 20
11.89
 10
11.1
 20
13.39
 10
11.4
 20
13.39
 10
11.4
 20
11.89
  0
LWPOLYLINE
  5
280
100
AcDbEntity
  8
PART_PADS_SMD_TOP
100
AcDbPolyline
 90
        4
 70
         1
 10
11.6
 20
11.89
 10
11.6
 20
13.39
 10
11.9
 20
13.39
 10
11.9
 20
11.89
  0
LWPOLYLINE
  5
281
100
AcDbEntity
  8
PART_PADS_SMD_TOP
100
AcDbPolyline
 90
        4
 70
         1
 10
12.1
 20
11.89
 10
12.1
 20
13.39
 10
12.4
 20
13.39
 10
12.4
 20
11.89
  0
LWPOLYLINE
  5
282
100
AcDbEntity
  8
PART_PADS_SMD_TOP
100
AcDbPolyline
 90
        4
 70
         1
 10
12.6
 20
11.89
 10
12.6
 20
13.39
 10
12.9
 20
13.39
 10
12.9
 20
11.89
  0
LWPOLYLINE
  5
283
100
AcDbEntity
  8
PART_PADS_SMD_TOP
100
AcDbPolyline
 90
        4
 70
         1
 10
13.1
 20
11.89
 10
13.1
 20
13.39
 10
13.4
 20
13.39
 10
13.4
 20
11.89
  0
LWPOLYLINE
  5
284
100
AcDbEntity
  8
PART_PADS_SMD_TOP
100
AcDbPolyline
 90
        4
 70
         1
 10
13.6
 20
11.89
 10
13.6
 20
13.39
 10
13.9
 20
13.39
 10
13.9
 20
11.89
  0
LWPOLYLINE
  5
285
100
AcDbEntity
  8
PART_PADS_SMD_TOP
100
AcDbPolyline
 90
        4
 70
         1
 10
14.1
 20
11.89
 10
14.1
 20
13.39
 10
14.4
 20
13.39
 10
14.4
 20
11.89
  0
LWPOLYLINE
  5
286
100
AcDbEntity
  8
PART_PADS_SMD_TOP
100
AcDbPolyline
 90
        4
 70
         1
 10
14.6
 20
11.89
 10
14.6
 20
13.39
 10
14.9
 20
13.39
 10
14.9
 20
11.89
  0
LWPOLYLINE
  5
287
100
AcDbEntity
  8
PART_PADS_SMD_TOP
100
AcDbPolyline
 90
        4
 70
         1
 10
-14.9
 20
18.01
 10
-14.9
 20
19.51
 10
-14.6
 20
19.51
 10
-14.6
 20
18.01
  0
LWPOLYLINE
  5
288
100
AcDbEntity
  8
PART_PADS_SMD_TOP
100
AcDbPolyline
 90
        4
 70
         1
 10
-14.4
 20
18.01
 10
-14.4
 20
19.51
 10
-14.1
 20
19.51
 10
-14.1
 20
18.01
  0
LWPOLYLINE
  5
289
100
AcDbEntity
  8
PART_PADS_SMD_TOP
100
AcDbPolyline
 90
        4
 70
         1
 10
-13.9
 20
18.01
 10
-13.9
 20
19.51
 10
-13.6
 20
19.51
 10
-13.6
 20
18.01
  0
LWPOLYLINE
  5
28A
100
AcDbEntity
  8
PART_PADS_SMD_TOP
100
AcDbPolyline
 90
        4
 70
         1
 10
-13.4
 20
18.01
 10
-13.4
 20
19.51
 10
-13.1
 20
19.51
 10
-13.1
 20
18.01
  0
LWPOLYLINE
  5
28B
100
AcDbEntity
  8
PART_PADS_SMD_TOP
100
AcDbPolyline
 90
        4
 70
         1
 10
-12.9
 20
18.01
 10
-12.9
 20
19.51
 10
-12.6
 20
19.51
 10
-12.6
 20
18.01
  0
LWPOLYLINE
  5
28C
100
AcDbEntity
  8
PART_PADS_SMD_TOP
100
AcDbPolyline
 90
        4
 70
         1
 10
-12.4
 20
18.01
 10
-12.4
 20
19.51
 10
-12.1
 20
19.51
 10
-12.1
 20
18.01
  0
LWPOLYLINE
  5
28D
100
AcDbEntity
  8
PART_PADS_SMD_TOP
100
AcDbPolyline
 90
        4
 70
         1
 10
-11.9
 20
18.01
 10
-11.9
 20
19.51
 10
-11.6
 20
19.51
 10
-11.6
 20
18.01
  0
LWPOLYLINE
  5
28E
100
AcDbEntity
  8
PART_PADS_SMD_TOP
100
AcDbPolyline
 90
        4
 70
         1
 10
-11.4
 20
18.01
 10
-11.4
 20
19.51
 10
-11.1
 20
19.51
 10
-11.1
 20
18.01
  0
LWPOLYLINE
  5
28F
100
AcDbEntity
  8
PART_PADS_SMD_TOP
100
AcDbPolyline
 90
        4
 70
         1
 10
-10.9
 20
18.01
 10
-10.9
 20
19.51
 10
-10.6
 20
19.51
 10
-10.6
 20
18.01
  0
LWPOLYLINE
  5
290
100
AcDbEntity
  8
PART_PADS_SMD_TOP
100
AcDbPolyline
 90
        4
 70
         1
 10
-10.4
 20
18.01
 10
-10.4
 20
19.51
 10
-10.1
 20
19.51
 10
-10.1
 20
18.01
  0
LWPOLYLINE
  5
291
100
AcDbEntity
  8
PART_PADS_SMD_TOP
100
AcDbPolyline
 90
        4
 70
         1
 10
-9.9
 20
18.01
 10
-9.9
 20
19.51
 10
-9.6
 20
19.51
 10
-9.6
 20
18.01
  0
LWPOLYLINE
  5
292
100
AcDbEntity
  8
PART_PADS_SMD_TOP
100
AcDbPolyline
 90
        4
 70
         1
 10
-9.4
 20
18.01
 10
-9.4
 20
19.51
 10
-9.1
 20
19.51
 10
-9.1
 20
18.01
  0
LWPOLYLINE
  5
293
100
AcDbEntity
  8
PART_PADS_SMD_TOP
100
AcDbPolyline
 90
        4
 70
         1
 10
-8.9
 20
18.01
 10
-8.9
 20
19.51
 10
-8.6
 20
19.51
 10
-8.6
 20
18.01
  0
LWPOLYLINE
  5
294
100
AcDbEntity
  8
PART_PADS_SMD_TOP
100
AcDbPolyline
 90
        4
 70
         1
 10
-8.4
 20
18.01
 10
-8.4
 20
19.51
 10
-8.1
 20
19.51
 10
-8.1
 20
18.01
  0
LWPOLYLINE
  5
295
100
AcDbEntity
  8
PART_PADS_SMD_TOP
100
AcDbPolyline
 90
        4
 70
         1
 10
-7.9
 20
18.01
 10
-7.9
 20
19.51
 10
-7.6
 20
19.51
 10
-7.6
 20
18.01
  0
LWPOLYLINE
  5
296
100
AcDbEntity
  8
PART_PADS_SMD_TOP
100
AcDbPolyline
 90
        4
 70
         1
 10
-7.4
 20
18.01
 10
-7.4
 20
19.51
 10
-7.1
 20
19.51
 10
-7.1
 20
18.01
  0
LWPOLYLINE
  5
297
100
AcDbEntity
  8
PART_PADS_SMD_TOP
100
AcDbPolyline
 90
        4
 70
         1
 10
-6.9
 20
18.01
 10
-6.9
 20
19.51
 10
-6.6
 20
19.51
 10
-6.6
 20
18.01
  0
LWPOLYLINE
  5
298
100
AcDbEntity
  8
PART_PADS_SMD_TOP
100
AcDbPolyline
 90
        4
 70
         1
 10
-6.4
 20
18.01
 10
-6.4
 20
19.51
 10
-6.1
 20
19.51
 10
-6.1
 20
18.01
  0
LWPOLYLINE
  5
299
100
AcDbEntity
  8
PART_PADS_SMD_TOP
100
AcDbPolyline
 90
        4
 70
         1
 10
-5.9
 20
18.01
 10
-5.9
 20
19.51
 10
-5.6
 20
19.51
 10
-5.6
 20
18.01
  0
LWPOLYLINE
  5
29A
100
AcDbEntity
  8
PART_PADS_SMD_TOP
100
AcDbPolyline
 90
        4
 70
         1
 10
-5.4
 20
18.01
 10
-5.4
 20
19.51
 10
-5.1
 20
19.51
 10
-5.1
 20
18.01
  0
LWPOLYLINE
  5
29B
100
AcDbEntity
  8
PART_PADS_SMD_TOP
100
AcDbPolyline
 90
        4
 70
         1
 10
-4.9
 20
18.01
 10
-4.9
 20
19.51
 10
-4.6
 20
19.51
 10
-4.6
 20
18.01
  0
LWPOLYLINE
  5
29C
100
AcDbEntity
  8
PART_PADS_SMD_TOP
100
AcDbPolyline
 90
        4
 70
         1
 10
-4.4
 20
18.01
 10
-4.4
 20
19.51
 10
-4.1
 20
19.51
 10
-4.1
 20
18.01
  0
LWPOLYLINE
  5
29D
100
AcDbEntity
  8
PART_PADS_SMD_TOP
100
AcDbPolyline
 90
        4
 70
         1
 10
-3.9
 20
18.01
 10
-3.9
 20
19.51
 10
-3.6
 20
19.51
 10
-3.6
 20
18.01
  0
LWPOLYLINE
  5
29E
100
AcDbEntity
  8
PART_PADS_SMD_TOP
100
AcDbPolyline
 90
        4
 70
         1
 10
-3.4
 20
18.01
 10
-3.4
 20
19.51
 10
-3.1
 20
19.51
 10
-3.1
 20
18.01
  0
LWPOLYLINE
  5
29F
100
AcDbEntity
  8
PART_PADS_SMD_TOP
100
AcDbPolyline
 90
        4
 70
         1
 10
-2.9
 20
18.01
 10
-2.9
 20
19.51
 10
-2.6
 20
19.51
 10
-2.6
 20
18.01
  0
LWPOLYLINE
  5
2A0
100
AcDbEntity
  8
PART_PADS_SMD_TOP
100
AcDbPolyline
 90
        4
 70
         1
 10
-2.4
 20
18.01
 10
-2.4
 20
19.51
 10
-2.1
 20
19.51
 10
-2.1
 20
18.01
  0
LWPOLYLINE
  5
2A1
100
AcDbEntity
  8
PART_PADS_SMD_TOP
100
AcDbPolyline
 90
        4
 70
         1
 10
-1.9
 20
18.01
 10
-1.9
 20
19.51
 10
-1.6
 20
19.51
 10
-1.6
 20
18.01
  0
LWPOLYLINE
  5
2A2
100
AcDbEntity
  8
PART_PADS_SMD_TOP
100
AcDbPolyline
 90
        4
 70
         1
 10
-1.4
 20
18.01
 10
-1.4
 20
19.51
 10
-1.1
 20
19.51
 10
-1.1
 20
18.01
  0
LWPOLYLINE
  5
2A3
100
AcDbEntity
  8
PART_PADS_SMD_TOP
100
AcDbPolyline
 90
        4
 70
         1
 10
-0.9
 20
18.01
 10
-0.9
 20
19.51
 10
-0.6
 20
19.51
 10
-0.6
 20
18.01
  0
LWPOLYLINE
  5
2A4
100
AcDbEntity
  8
PART_PADS_SMD_TOP
100
AcDbPolyline
 90
        4
 70
         1
 10
-0.4
 20
18.01
 10
-0.4
 20
19.51
 10
-0.1
 20
19.51
 10
-0.1
 20
18.01
  0
LWPOLYLINE
  5
2A5
100
AcDbEntity
  8
PART_PADS_SMD_TOP
100
AcDbPolyline
 90
        4
 70
         1
 10
0.1
 20
18.01
 10
0.1
 20
19.51
 10
0.4
 20
19.51
 10
0.4
 20
18.01
  0
LWPOLYLINE
  5
2A6
100
AcDbEntity
  8
PART_PADS_SMD_TOP
100
AcDbPolyline
 90
        4
 70
         1
 10
0.6
 20
18.01
 10
0.6
 20
19.51
 10
0.9
 20
19.51
 10
0.9
 20
18.01
  0
LWPOLYLINE
  5
2A7
100
AcDbEntity
  8
PART_PADS_SMD_TOP
100
AcDbPolyline
 90
        4
 70
         1
 10
1.1
 20
18.01
 10
1.1
 20
19.51
 10
1.4
 20
19.51
 10
1.4
 20
18.01
  0
LWPOLYLINE
  5
2A8
100
AcDbEntity
  8
PART_PADS_SMD_TOP
100
AcDbPolyline
 90
        4
 70
         1
 10
1.6
 20
18.01
 10
1.6
 20
19.51
 10
1.9
 20
19.51
 10
1.9
 20
18.01
  0
LWPOLYLINE
  5
2A9
100
AcDbEntity
  8
PART_PADS_SMD_TOP
100
AcDbPolyline
 90
        4
 70
         1
 10
2.1
 20
18.01
 10
2.1
 20
19.51
 10
2.4
 20
19.51
 10
2.4
 20
18.01
  0
LWPOLYLINE
  5
2AA
100
AcDbEntity
  8
PART_PADS_SMD_TOP
100
AcDbPolyline
 90
        4
 70
         1
 10
2.6
 20
18.01
 10
2.6
 20
19.51
 10
2.9
 20
19.51
 10
2.9
 20
18.01
  0
LWPOLYLINE
  5
2AB
100
AcDbEntity
  8
PART_PADS_SMD_TOP
100
AcDbPolyline
 90
        4
 70
         1
 10
3.1
 20
18.01
 10
3.1
 20
19.51
 10
3.4
 20
19.51
 10
3.4
 20
18.01
  0
LWPOLYLINE
  5
2AC
100
AcDbEntity
  8
PART_PADS_SMD_TOP
100
AcDbPolyline
 90
        4
 70
         1
 10
3.6
 20
18.01
 10
3.6
 20
19.51
 10
3.9
 20
19.51
 10
3.9
 20
18.01
  0
LWPOLYLINE
  5
2AD
100
AcDbEntity
  8
PART_PADS_SMD_TOP
100
AcDbPolyline
 90
        4
 70
         1
 10
4.1
 20
18.01
 10
4.1
 20
19.51
 10
4.4
 20
19.51
 10
4.4
 20
18.01
  0
LWPOLYLINE
  5
2AE
100
AcDbEntity
  8
PART_PADS_SMD_TOP
100
AcDbPolyline
 90
        4
 70
         1
 10
4.6
 20
18.01
 10
4.6
 20
19.51
 10
4.9
 20
19.51
 10
4.9
 20
18.01
  0
LWPOLYLINE
  5
2AF
100
AcDbEntity
  8
PART_PADS_SMD_TOP
100
AcDbPolyline
 90
        4
 70
         1
 10
5.1
 20
18.01
 10
5.1
 20
19.51
 10
5.4
 20
19.51
 10
5.4
 20
18.01
  0
LWPOLYLINE
  5
2B0
100
AcDbEntity
  8
PART_PADS_SMD_TOP
100
AcDbPolyline
 90
        4
 70
         1
 10
5.6
 20
18.01
 10
5.6
 20
19.51
 10
5.9
 20
19.51
 10
5.9
 20
18.01
  0
LWPOLYLINE
  5
2B1
100
AcDbEntity
  8
PART_PADS_SMD_TOP
100
AcDbPolyline
 90
        4
 70
         1
 10
6.1
 20
18.01
 10
6.1
 20
19.51
 10
6.4
 20
19.51
 10
6.4
 20
18.01
  0
LWPOLYLINE
  5
2B2
100
AcDbEntity
  8
PART_PADS_SMD_TOP
100
AcDbPolyline
 90
        4
 70
         1
 10
6.6
 20
18.01
 10
6.6
 20
19.51
 10
6.9
 20
19.51
 10
6.9
 20
18.01
  0
LWPOLYLINE
  5
2B3
100
AcDbEntity
  8
PART_PADS_SMD_TOP
100
AcDbPolyline
 90
        4
 70
         1
 10
7.1
 20
18.01
 10
7.1
 20
19.51
 10
7.4
 20
19.51
 10
7.4
 20
18.01
  0
LWPOLYLINE
  5
2B4
100
AcDbEntity
  8
PART_PADS_SMD_TOP
100
AcDbPolyline
 90
        4
 70
         1
 10
7.6
 20
18.01
 10
7.6
 20
19.51
 10
7.9
 20
19.51
 10
7.9
 20
18.01
  0
LWPOLYLINE
  5
2B5
100
AcDbEntity
  8
PART_PADS_SMD_TOP
100
AcDbPolyline
 90
        4
 70
         1
 10
8.1
 20
18.01
 10
8.1
 20
19.51
 10
8.4
 20
19.51
 10
8.4
 20
18.01
  0
LWPOLYLINE
  5
2B6
100
AcDbEntity
  8
PART_PADS_SMD_TOP
100
AcDbPolyline
 90
        4
 70
         1
 10
8.6
 20
18.01
 10
8.6
 20
19.51
 10
8.9
 20
19.51
 10
8.9
 20
18.01
  0
LWPOLYLINE
  5
2B7
100
AcDbEntity
  8
PART_PADS_SMD_TOP
100
AcDbPolyline
 90
        4
 70
         1
 10
9.1
 20
18.01
 10
9.1
 20
19.51
 10
9.4
 20
19.51
 10
9.4
 20
18.01
  0
LWPOLYLINE
  5
2B8
100
AcDbEntity
  8
PART_PADS_SMD_TOP
100
AcDbPolyline
 90
        4
 70
         1
 10
9.6
 20
18.01
 10
9.6
 20
19.51
 10
9.9
 20
19.51
 10
9.9
 20
18.01
  0
LWPOLYLINE
  5
2B9
100
AcDbEntity
  8
PART_PADS_SMD_TOP
100
AcDbPolyline
 90
        4
 70
         1
 10
10.1
 20
18.01
 10
10.1
 20
19.51
 10
10.4
 20
19.51
 10
10.4
 20
18.01
  0
LWPOLYLINE
  5
2BA
100
AcDbEntity
  8
PART_PADS_SMD_TOP
100
AcDbPolyline
 90
        4
 70
         1
 10
10.6
 20
18.01
 10
10.6
 20
19.51
 10
10.9
 20
19.51
 10
10.9
 20
18.01
  0
LWPOLYLINE
  5
2BB
100
AcDbEntity
  8
PART_PADS_SMD_TOP
100
AcDbPolyline
 90
        4
 70
         1
 10
11.1
 20
18.01
 10
11.1
 20
19.51
 10
11.4
 20
19.51
 10
11.4
 20
18.01
  0
LWPOLYLINE
  5
2BC
100
AcDbEntity
  8
PART_PADS_SMD_TOP
100
AcDbPolyline
 90
        4
 70
         1
 10
11.6
 20
18.01
 10
11.6
 20
19.51
 10
11.9
 20
19.51
 10
11.9
 20
18.01
  0
LWPOLYLINE
  5
2BD
100
AcDbEntity
  8
PART_PADS_SMD_TOP
100
AcDbPolyline
 90
        4
 70
         1
 10
12.1
 20
18.01
 10
12.1
 20
19.51
 10
12.4
 20
19.51
 10
12.4
 20
18.01
  0
LWPOLYLINE
  5
2BE
100
AcDbEntity
  8
PART_PADS_SMD_TOP
100
AcDbPolyline
 90
        4
 70
         1
 10
12.6
 20
18.01
 10
12.6
 20
19.51
 10
12.9
 20
19.51
 10
12.9
 20
18.01
  0
LWPOLYLINE
  5
2BF
100
AcDbEntity
  8
PART_PADS_SMD_TOP
100
AcDbPolyline
 90
        4
 70
         1
 10
13.1
 20
18.01
 10
13.1
 20
19.51
 10
13.4
 20
19.51
 10
13.4
 20
18.01
  0
LWPOLYLINE
  5
2C0
100
AcDbEntity
  8
PART_PADS_SMD_TOP
100
AcDbPolyline
 90
        4
 70
         1
 10
13.6
 20
18.01
 10
13.6
 20
19.51
 10
13.9
 20
19.51
 10
13.9
 20
18.01
  0
LWPOLYLINE
  5
2C1
100
AcDbEntity
  8
PART_PADS_SMD_TOP
100
AcDbPolyline
 90
        4
 70
         1
 10
14.1
 20
18.01
 10
14.1
 20
19.51
 10
14.4
 20
19.51
 10
14.4
 20
18.01
  0
LWPOLYLINE
  5
2C2
100
AcDbEntity
  8
PART_PADS_SMD_TOP
100
AcDbPolyline
 90
        4
 70
         1
 10
14.6
 20
18.01
 10
14.6
 20
19.51
 10
14.9
 20
19.51
 10
14.9
 20
18.01
  0
TEXT
  5
2C4
100
AcDbEntity
  8
PIN_NUMBERS_TOP
100
AcDbText
 10
-15.185864
 20
-18.982504
 30
0.0
 40
0.508
  1
1A
  7
COURIER_NEW
 72
         1
 11
-14.75
 21
-18.76
 31
0.0
100
AcDbText
 73
         2
  0
TEXT
  5
2C5
100
AcDbEntity
  8
PIN_NUMBERS_TOP
100
AcDbText
 10
-14.685864
 20
-18.982504
 30
0.0
 40
0.508
  1
2A
  7
COURIER_NEW
 72
         1
 11
-14.25
 21
-18.76
 31
0.0
100
AcDbText
 73
         2
  0
TEXT
  5
2C6
100
AcDbEntity
  8
PIN_NUMBERS_TOP
100
AcDbText
 10
-14.185864
 20
-18.982504
 30
0.0
 40
0.508
  1
3A
  7
COURIER_NEW
 72
         1
 11
-13.75
 21
-18.76
 31
0.0
100
AcDbText
 73
         2
  0
TEXT
  5
2C7
100
AcDbEntity
  8
PIN_NUMBERS_TOP
100
AcDbText
 10
-13.685864
 20
-18.982504
 30
0.0
 40
0.508
  1
4A
  7
COURIER_NEW
 72
         1
 11
-13.25
 21
-18.76
 31
0.0
100
AcDbText
 73
         2
  0
TEXT
  5
2C8
100
AcDbEntity
  8
PIN_NUMBERS_TOP
100
AcDbText
 10
-13.185864
 20
-18.982504
 30
0.0
 40
0.508
  1
5A
  7
COURIER_NEW
 72
         1
 11
-12.75
 21
-18.76
 31
0.0
100
AcDbText
 73
         2
  0
TEXT
  5
2C9
100
AcDbEntity
  8
PIN_NUMBERS_TOP
100
AcDbText
 10
-12.685864
 20
-18.982504
 30
0.0
 40
0.508
  1
6A
  7
COURIER_NEW
 72
         1
 11
-12.25
 21
-18.76
 31
0.0
100
AcDbText
 73
         2
  0
TEXT
  5
2CA
100
AcDbEntity
  8
PIN_NUMBERS_TOP
100
AcDbText
 10
-12.185864
 20
-18.982504
 30
0.0
 40
0.508
  1
7A
  7
COURIER_NEW
 72
         1
 11
-11.75
 21
-18.76
 31
0.0
100
AcDbText
 73
         2
  0
TEXT
  5
2CB
100
AcDbEntity
  8
PIN_NUMBERS_TOP
100
AcDbText
 10
-11.685864
 20
-18.982504
 30
0.0
 40
0.508
  1
8A
  7
COURIER_NEW
 72
         1
 11
-11.25
 21
-18.76
 31
0.0
100
AcDbText
 73
         2
  0
TEXT
  5
2CC
100
AcDbEntity
  8
PIN_NUMBERS_TOP
100
AcDbText
 10
-11.185864
 20
-18.982504
 30
0.0
 40
0.508
  1
9A
  7
COURIER_NEW
 72
         1
 11
-10.75
 21
-18.76
 31
0.0
100
AcDbText
 73
         2
  0
TEXT
  5
2CD
100
AcDbEntity
  8
PIN_NUMBERS_TOP
100
AcDbText
 10
-10.903796
 20
-18.982504
 30
0.0
 40
0.508
  1
10A
  7
COURIER_NEW
 72
         1
 11
-10.25
 21
-18.76
 31
0.0
100
AcDbText
 73
         2
  0
TEXT
  5
2CE
100
AcDbEntity
  8
PIN_NUMBERS_TOP
100
AcDbText
 10
-10.403796
 20
-18.982504
 30
0.0
 40
0.508
  1
11A
  7
COURIER_NEW
 72
         1
 11
-9.75
 21
-18.76
 31
0.0
100
AcDbText
 73
         2
  0
TEXT
  5
2CF
100
AcDbEntity
  8
PIN_NUMBERS_TOP
100
AcDbText
 10
-9.903796
 20
-18.982504
 30
0.0
 40
0.508
  1
12A
  7
COURIER_NEW
 72
         1
 11
-9.25
 21
-18.76
 31
0.0
100
AcDbText
 73
         2
  0
TEXT
  5
2D0
100
AcDbEntity
  8
PIN_NUMBERS_TOP
100
AcDbText
 10
-9.403796
 20
-18.982504
 30
0.0
 40
0.508
  1
13A
  7
COURIER_NEW
 72
         1
 11
-8.75
 21
-18.76
 31
0.0
100
AcDbText
 73
         2
  0
TEXT
  5
2D1
100
AcDbEntity
  8
PIN_NUMBERS_TOP
100
AcDbText
 10
-8.903796
 20
-18.982504
 30
0.0
 40
0.508
  1
14A
  7
COURIER_NEW
 72
         1
 11
-8.25
 21
-18.76
 31
0.0
100
AcDbText
 73
         2
  0
TEXT
  5
2D2
100
AcDbEntity
  8
PIN_NUMBERS_TOP
100
AcDbText
 10
-8.403796
 20
-18.982504
 30
0.0
 40
0.508
  1
15A
  7
COURIER_NEW
 72
         1
 11
-7.75
 21
-18.76
 31
0.0
100
AcDbText
 73
         2
  0
TEXT
  5
2D3
100
AcDbEntity
  8
PIN_NUMBERS_TOP
100
AcDbText
 10
-7.903796
 20
-18.982504
 30
0.0
 40
0.508
  1
16A
  7
COURIER_NEW
 72
         1
 11
-7.25
 21
-18.76
 31
0.0
100
AcDbText
 73
         2
  0
TEXT
  5
2D4
100
AcDbEntity
  8
PIN_NUMBERS_TOP
100
AcDbText
 10
-7.403796
 20
-18.982504
 30
0.0
 40
0.508
  1
17A
  7
COURIER_NEW
 72
         1
 11
-6.75
 21
-18.76
 31
0.0
100
AcDbText
 73
         2
  0
TEXT
  5
2D5
100
AcDbEntity
  8
PIN_NUMBERS_TOP
100
AcDbText
 10
-6.903796
 20
-18.982504
 30
0.0
 40
0.508
  1
18A
  7
COURIER_NEW
 72
         1
 11
-6.25
 21
-18.76
 31
0.0
100
AcDbText
 73
         2
  0
TEXT
  5
2D6
100
AcDbEntity
  8
PIN_NUMBERS_TOP
100
AcDbText
 10
-6.403796
 20
-18.982504
 30
0.0
 40
0.508
  1
19A
  7
COURIER_NEW
 72
         1
 11
-5.75
 21
-18.76
 31
0.0
100
AcDbText
 73
         2
  0
TEXT
  5
2D7
100
AcDbEntity
  8
PIN_NUMBERS_TOP
100
AcDbText
 10
-5.903796
 20
-18.982504
 30
0.0
 40
0.508
  1
20A
  7
COURIER_NEW
 72
         1
 11
-5.25
 21
-18.76
 31
0.0
100
AcDbText
 73
         2
  0
TEXT
  5
2D8
100
AcDbEntity
  8
PIN_NUMBERS_TOP
100
AcDbText
 10
-5.403796
 20
-18.982504
 30
0.0
 40
0.508
  1
21A
  7
COURIER_NEW
 72
         1
 11
-4.75
 21
-18.76
 31
0.0
100
AcDbText
 73
         2
  0
TEXT
  5
2D9
100
AcDbEntity
  8
PIN_NUMBERS_TOP
100
AcDbText
 10
-4.903796
 20
-18.982504
 30
0.0
 40
0.508
  1
22A
  7
COURIER_NEW
 72
         1
 11
-4.25
 21
-18.76
 31
0.0
100
AcDbText
 73
         2
  0
TEXT
  5
2DA
100
AcDbEntity
  8
PIN_NUMBERS_TOP
100
AcDbText
 10
-4.403796
 20
-18.982504
 30
0.0
 40
0.508
  1
23A
  7
COURIER_NEW
 72
         1
 11
-3.75
 21
-18.76
 31
0.0
100
AcDbText
 73
         2
  0
TEXT
  5
2DB
100
AcDbEntity
  8
PIN_NUMBERS_TOP
100
AcDbText
 10
-3.903796
 20
-18.982504
 30
0.0
 40
0.508
  1
24A
  7
COURIER_NEW
 72
         1
 11
-3.25
 21
-18.76
 31
0.0
100
AcDbText
 73
         2
  0
TEXT
  5
2DC
100
AcDbEntity
  8
PIN_NUMBERS_TOP
100
AcDbText
 10
-3.403796
 20
-18.982504
 30
0.0
 40
0.508
  1
25A
  7
COURIER_NEW
 72
         1
 11
-2.75
 21
-18.76
 31
0.0
100
AcDbText
 73
         2
  0
TEXT
  5
2DD
100
AcDbEntity
  8
PIN_NUMBERS_TOP
100
AcDbText
 10
-2.903796
 20
-18.982504
 30
0.0
 40
0.508
  1
26A
  7
COURIER_NEW
 72
         1
 11
-2.25
 21
-18.76
 31
0.0
100
AcDbText
 73
         2
  0
TEXT
  5
2DE
100
AcDbEntity
  8
PIN_NUMBERS_TOP
100
AcDbText
 10
-2.403796
 20
-18.982504
 30
0.0
 40
0.508
  1
27A
  7
COURIER_NEW
 72
         1
 11
-1.75
 21
-18.76
 31
0.0
100
AcDbText
 73
         2
  0
TEXT
  5
2DF
100
AcDbEntity
  8
PIN_NUMBERS_TOP
100
AcDbText
 10
-1.903796
 20
-18.982504
 30
0.0
 40
0.508
  1
28A
  7
COURIER_NEW
 72
         1
 11
-1.25
 21
-18.76
 31
0.0
100
AcDbText
 73
         2
  0
TEXT
  5
2E0
100
AcDbEntity
  8
PIN_NUMBERS_TOP
100
AcDbText
 10
-1.403796
 20
-18.982504
 30
0.0
 40
0.508
  1
29A
  7
COURIER_NEW
 72
         1
 11
-0.75
 21
-18.76
 31
0.0
100
AcDbText
 73
         2
  0
TEXT
  5
2E1
100
AcDbEntity
  8
PIN_NUMBERS_TOP
100
AcDbText
 10
-0.903796
 20
-18.982504
 30
0.0
 40
0.508
  1
30A
  7
COURIER_NEW
 72
         1
 11
-0.25
 21
-18.76
 31
0.0
100
AcDbText
 73
         2
  0
TEXT
  5
2E2
100
AcDbEntity
  8
PIN_NUMBERS_TOP
100
AcDbText
 10
-0.403796
 20
-18.982504
 30
0.0
 40
0.508
  1
31A
  7
COURIER_NEW
 72
         1
 11
0.25
 21
-18.76
 31
0.0
100
AcDbText
 73
         2
  0
TEXT
  5
2E3
100
AcDbEntity
  8
PIN_NUMBERS_TOP
100
AcDbText
 10
0.096204
 20
-18.982504
 30
0.0
 40
0.508
  1
32A
  7
COURIER_NEW
 72
         1
 11
0.75
 21
-18.76
 31
0.0
100
AcDbText
 73
         2
  0
TEXT
  5
2E4
100
AcDbEntity
  8
PIN_NUMBERS_TOP
100
AcDbText
 10
0.596204
 20
-18.982504
 30
0.0
 40
0.508
  1
33A
  7
COURIER_NEW
 72
         1
 11
1.25
 21
-18.76
 31
0.0
100
AcDbText
 73
         2
  0
TEXT
  5
2E5
100
AcDbEntity
  8
PIN_NUMBERS_TOP
100
AcDbText
 10
1.096204
 20
-18.982504
 30
0.0
 40
0.508
  1
34A
  7
COURIER_NEW
 72
         1
 11
1.75
 21
-18.76
 31
0.0
100
AcDbText
 73
         2
  0
TEXT
  5
2E6
100
AcDbEntity
  8
PIN_NUMBERS_TOP
100
AcDbText
 10
1.596204
 20
-18.982504
 30
0.0
 40
0.508
  1
35A
  7
COURIER_NEW
 72
         1
 11
2.25
 21
-18.76
 31
0.0
100
AcDbText
 73
         2
  0
TEXT
  5
2E7
100
AcDbEntity
  8
PIN_NUMBERS_TOP
100
AcDbText
 10
2.096204
 20
-18.982504
 30
0.0
 40
0.508
  1
36A
  7
COURIER_NEW
 72
         1
 11
2.75
 21
-18.76
 31
0.0
100
AcDbText
 73
         2
  0
TEXT
  5
2E8
100
AcDbEntity
  8
PIN_NUMBERS_TOP
100
AcDbText
 10
2.596204
 20
-18.982504
 30
0.0
 40
0.508
  1
37A
  7
COURIER_NEW
 72
         1
 11
3.25
 21
-18.76
 31
0.0
100
AcDbText
 73
         2
  0
TEXT
  5
2E9
100
AcDbEntity
  8
PIN_NUMBERS_TOP
100
AcDbText
 10
3.096204
 20
-18.982504
 30
0.0
 40
0.508
  1
38A
  7
COURIER_NEW
 72
         1
 11
3.75
 21
-18.76
 31
0.0
100
AcDbText
 73
         2
  0
TEXT
  5
2EA
100
AcDbEntity
  8
PIN_NUMBERS_TOP
100
AcDbText
 10
3.596204
 20
-18.982504
 30
0.0
 40
0.508
  1
39A
  7
COURIER_NEW
 72
         1
 11
4.25
 21
-18.76
 31
0.0
100
AcDbText
 73
         2
  0
TEXT
  5
2EB
100
AcDbEntity
  8
PIN_NUMBERS_TOP
100
AcDbText
 10
4.096204
 20
-18.982504
 30
0.0
 40
0.508
  1
40A
  7
COURIER_NEW
 72
         1
 11
4.75
 21
-18.76
 31
0.0
100
AcDbText
 73
         2
  0
TEXT
  5
2EC
100
AcDbEntity
  8
PIN_NUMBERS_TOP
100
AcDbText
 10
4.596204
 20
-18.982504
 30
0.0
 40
0.508
  1
41A
  7
COURIER_NEW
 72
         1
 11
5.25
 21
-18.76
 31
0.0
100
AcDbText
 73
         2
  0
TEXT
  5
2ED
100
AcDbEntity
  8
PIN_NUMBERS_TOP
100
AcDbText
 10
5.096204
 20
-18.982504
 30
0.0
 40
0.508
  1
42A
  7
COURIER_NEW
 72
         1
 11
5.75
 21
-18.76
 31
0.0
100
AcDbText
 73
         2
  0
TEXT
  5
2EE
100
AcDbEntity
  8
PIN_NUMBERS_TOP
100
AcDbText
 10
5.596204
 20
-18.982504
 30
0.0
 40
0.508
  1
43A
  7
COURIER_NEW
 72
         1
 11
6.25
 21
-18.76
 31
0.0
100
AcDbText
 73
         2
  0
TEXT
  5
2EF
100
AcDbEntity
  8
PIN_NUMBERS_TOP
100
AcDbText
 10
6.096204
 20
-18.982504
 30
0.0
 40
0.508
  1
44A
  7
COURIER_NEW
 72
         1
 11
6.75
 21
-18.76
 31
0.0
100
AcDbText
 73
         2
  0
TEXT
  5
2F0
100
AcDbEntity
  8
PIN_NUMBERS_TOP
100
AcDbText
 10
6.596204
 20
-18.982504
 30
0.0
 40
0.508
  1
45A
  7
COURIER_NEW
 72
         1
 11
7.25
 21
-18.76
 31
0.0
100
AcDbText
 73
         2
  0
TEXT
  5
2F1
100
AcDbEntity
  8
PIN_NUMBERS_TOP
100
AcDbText
 10
7.096204
 20
-18.982504
 30
0.0
 40
0.508
  1
46A
  7
COURIER_NEW
 72
         1
 11
7.75
 21
-18.76
 31
0.0
100
AcDbText
 73
         2
  0
TEXT
  5
2F2
100
AcDbEntity
  8
PIN_NUMBERS_TOP
100
AcDbText
 10
7.596204
 20
-18.982504
 30
0.0
 40
0.508
  1
47A
  7
COURIER_NEW
 72
         1
 11
8.25
 21
-18.76
 31
0.0
100
AcDbText
 73
         2
  0
TEXT
  5
2F3
100
AcDbEntity
  8
PIN_NUMBERS_TOP
100
AcDbText
 10
8.096204
 20
-18.982504
 30
0.0
 40
0.508
  1
48A
  7
COURIER_NEW
 72
         1
 11
8.75
 21
-18.76
 31
0.0
100
AcDbText
 73
         2
  0
TEXT
  5
2F4
100
AcDbEntity
  8
PIN_NUMBERS_TOP
100
AcDbText
 10
8.596204
 20
-18.982504
 30
0.0
 40
0.508
  1
49A
  7
COURIER_NEW
 72
         1
 11
9.25
 21
-18.76
 31
0.0
100
AcDbText
 73
         2
  0
TEXT
  5
2F5
100
AcDbEntity
  8
PIN_NUMBERS_TOP
100
AcDbText
 10
9.096204
 20
-18.982504
 30
0.0
 40
0.508
  1
50A
  7
COURIER_NEW
 72
         1
 11
9.75
 21
-18.76
 31
0.0
100
AcDbText
 73
         2
  0
TEXT
  5
2F6
100
AcDbEntity
  8
PIN_NUMBERS_TOP
100
AcDbText
 10
9.596204
 20
-18.982504
 30
0.0
 40
0.508
  1
51A
  7
COURIER_NEW
 72
         1
 11
10.25
 21
-18.76
 31
0.0
100
AcDbText
 73
         2
  0
TEXT
  5
2F7
100
AcDbEntity
  8
PIN_NUMBERS_TOP
100
AcDbText
 10
10.096204
 20
-18.982504
 30
0.0
 40
0.508
  1
52A
  7
COURIER_NEW
 72
         1
 11
10.75
 21
-18.76
 31
0.0
100
AcDbText
 73
         2
  0
TEXT
  5
2F8
100
AcDbEntity
  8
PIN_NUMBERS_TOP
100
AcDbText
 10
10.596204
 20
-18.982504
 30
0.0
 40
0.508
  1
53A
  7
COURIER_NEW
 72
         1
 11
11.25
 21
-18.76
 31
0.0
100
AcDbText
 73
         2
  0
TEXT
  5
2F9
100
AcDbEntity
  8
PIN_NUMBERS_TOP
100
AcDbText
 10
11.096204
 20
-18.982504
 30
0.0
 40
0.508
  1
54A
  7
COURIER_NEW
 72
         1
 11
11.75
 21
-18.76
 31
0.0
100
AcDbText
 73
         2
  0
TEXT
  5
2FA
100
AcDbEntity
  8
PIN_NUMBERS_TOP
100
AcDbText
 10
11.596204
 20
-18.982504
 30
0.0
 40
0.508
  1
55A
  7
COURIER_NEW
 72
         1
 11
12.25
 21
-18.76
 31
0.0
100
AcDbText
 73
         2
  0
TEXT
  5
2FB
100
AcDbEntity
  8
PIN_NUMBERS_TOP
100
AcDbText
 10
12.096204
 20
-18.982504
 30
0.0
 40
0.508
  1
56A
  7
COURIER_NEW
 72
         1
 11
12.75
 21
-18.76
 31
0.0
100
AcDbText
 73
         2
  0
TEXT
  5
2FC
100
AcDbEntity
  8
PIN_NUMBERS_TOP
100
AcDbText
 10
12.596204
 20
-18.982504
 30
0.0
 40
0.508
  1
57A
  7
COURIER_NEW
 72
         1
 11
13.25
 21
-18.76
 31
0.0
100
AcDbText
 73
         2
  0
TEXT
  5
2FD
100
AcDbEntity
  8
PIN_NUMBERS_TOP
100
AcDbText
 10
13.096204
 20
-18.982504
 30
0.0
 40
0.508
  1
58A
  7
COURIER_NEW
 72
         1
 11
13.75
 21
-18.76
 31
0.0
100
AcDbText
 73
         2
  0
TEXT
  5
2FE
100
AcDbEntity
  8
PIN_NUMBERS_TOP
100
AcDbText
 10
13.596204
 20
-18.982504
 30
0.0
 40
0.508
  1
59A
  7
COURIER_NEW
 72
         1
 11
14.25
 21
-18.76
 31
0.0
100
AcDbText
 73
         2
  0
TEXT
  5
2FF
100
AcDbEntity
  8
PIN_NUMBERS_TOP
100
AcDbText
 10
14.096204
 20
-18.982504
 30
0.0
 40
0.508
  1
60A
  7
COURIER_NEW
 72
         1
 11
14.75
 21
-18.76
 31
0.0
100
AcDbText
 73
         2
  0
TEXT
  5
300
100
AcDbEntity
  8
PIN_NUMBERS_TOP
100
AcDbText
 10
-15.185864
 20
-12.862504
 30
0.0
 40
0.508
  1
1B
  7
COURIER_NEW
 72
         1
 11
-14.75
 21
-12.64
 31
0.0
100
AcDbText
 73
         2
  0
TEXT
  5
301
100
AcDbEntity
  8
PIN_NUMBERS_TOP
100
AcDbText
 10
-14.685864
 20
-12.862504
 30
0.0
 40
0.508
  1
2B
  7
COURIER_NEW
 72
         1
 11
-14.25
 21
-12.64
 31
0.0
100
AcDbText
 73
         2
  0
TEXT
  5
302
100
AcDbEntity
  8
PIN_NUMBERS_TOP
100
AcDbText
 10
-14.185864
 20
-12.862504
 30
0.0
 40
0.508
  1
3B
  7
COURIER_NEW
 72
         1
 11
-13.75
 21
-12.64
 31
0.0
100
AcDbText
 73
         2
  0
TEXT
  5
303
100
AcDbEntity
  8
PIN_NUMBERS_TOP
100
AcDbText
 10
-13.685864
 20
-12.862504
 30
0.0
 40
0.508
  1
4B
  7
COURIER_NEW
 72
         1
 11
-13.25
 21
-12.64
 31
0.0
100
AcDbText
 73
         2
  0
TEXT
  5
304
100
AcDbEntity
  8
PIN_NUMBERS_TOP
100
AcDbText
 10
-13.185864
 20
-12.862504
 30
0.0
 40
0.508
  1
5B
  7
COURIER_NEW
 72
         1
 11
-12.75
 21
-12.64
 31
0.0
100
AcDbText
 73
         2
  0
TEXT
  5
305
100
AcDbEntity
  8
PIN_NUMBERS_TOP
100
AcDbText
 10
-12.685864
 20
-12.862504
 30
0.0
 40
0.508
  1
6B
  7
COURIER_NEW
 72
         1
 11
-12.25
 21
-12.64
 31
0.0
100
AcDbText
 73
         2
  0
TEXT
  5
306
100
AcDbEntity
  8
PIN_NUMBERS_TOP
100
AcDbText
 10
-12.185864
 20
-12.862504
 30
0.0
 40
0.508
  1
7B
  7
COURIER_NEW
 72
         1
 11
-11.75
 21
-12.64
 31
0.0
100
AcDbText
 73
         2
  0
TEXT
  5
307
100
AcDbEntity
  8
PIN_NUMBERS_TOP
100
AcDbText
 10
-11.685864
 20
-12.862504
 30
0.0
 40
0.508
  1
8B
  7
COURIER_NEW
 72
         1
 11
-11.25
 21
-12.64
 31
0.0
100
AcDbText
 73
         2
  0
TEXT
  5
308
100
AcDbEntity
  8
PIN_NUMBERS_TOP
100
AcDbText
 10
-11.185864
 20
-12.862504
 30
0.0
 40
0.508
  1
9B
  7
COURIER_NEW
 72
         1
 11
-10.75
 21
-12.64
 31
0.0
100
AcDbText
 73
         2
  0
TEXT
  5
309
100
AcDbEntity
  8
PIN_NUMBERS_TOP
100
AcDbText
 10
-10.903796
 20
-12.862504
 30
0.0
 40
0.508
  1
10B
  7
COURIER_NEW
 72
         1
 11
-10.25
 21
-12.64
 31
0.0
100
AcDbText
 73
         2
  0
TEXT
  5
30A
100
AcDbEntity
  8
PIN_NUMBERS_TOP
100
AcDbText
 10
-10.403796
 20
-12.862504
 30
0.0
 40
0.508
  1
11B
  7
COURIER_NEW
 72
         1
 11
-9.75
 21
-12.64
 31
0.0
100
AcDbText
 73
         2
  0
TEXT
  5
30B
100
AcDbEntity
  8
PIN_NUMBERS_TOP
100
AcDbText
 10
-9.903796
 20
-12.862504
 30
0.0
 40
0.508
  1
12B
  7
COURIER_NEW
 72
         1
 11
-9.25
 21
-12.64
 31
0.0
100
AcDbText
 73
         2
  0
TEXT
  5
30C
100
AcDbEntity
  8
PIN_NUMBERS_TOP
100
AcDbText
 10
-9.403796
 20
-12.862504
 30
0.0
 40
0.508
  1
13B
  7
COURIER_NEW
 72
         1
 11
-8.75
 21
-12.64
 31
0.0
100
AcDbText
 73
         2
  0
TEXT
  5
30D
100
AcDbEntity
  8
PIN_NUMBERS_TOP
100
AcDbText
 10
-8.903796
 20
-12.862504
 30
0.0
 40
0.508
  1
14B
  7
COURIER_NEW
 72
         1
 11
-8.25
 21
-12.64
 31
0.0
100
AcDbText
 73
         2
  0
TEXT
  5
30E
100
AcDbEntity
  8
PIN_NUMBERS_TOP
100
AcDbText
 10
-8.403796
 20
-12.862504
 30
0.0
 40
0.508
  1
15B
  7
COURIER_NEW
 72
         1
 11
-7.75
 21
-12.64
 31
0.0
100
AcDbText
 73
         2
  0
TEXT
  5
30F
100
AcDbEntity
  8
PIN_NUMBERS_TOP
100
AcDbText
 10
-7.903796
 20
-12.862504
 30
0.0
 40
0.508
  1
16B
  7
COURIER_NEW
 72
         1
 11
-7.25
 21
-12.64
 31
0.0
100
AcDbText
 73
         2
  0
TEXT
  5
310
100
AcDbEntity
  8
PIN_NUMBERS_TOP
100
AcDbText
 10
-7.403796
 20
-12.862504
 30
0.0
 40
0.508
  1
17B
  7
COURIER_NEW
 72
         1
 11
-6.75
 21
-12.64
 31
0.0
100
AcDbText
 73
         2
  0
TEXT
  5
311
100
AcDbEntity
  8
PIN_NUMBERS_TOP
100
AcDbText
 10
-6.903796
 20
-12.862504
 30
0.0
 40
0.508
  1
18B
  7
COURIER_NEW
 72
         1
 11
-6.25
 21
-12.64
 31
0.0
100
AcDbText
 73
         2
  0
TEXT
  5
312
100
AcDbEntity
  8
PIN_NUMBERS_TOP
100
AcDbText
 10
-6.403796
 20
-12.862504
 30
0.0
 40
0.508
  1
19B
  7
COURIER_NEW
 72
         1
 11
-5.75
 21
-12.64
 31
0.0
100
AcDbText
 73
         2
  0
TEXT
  5
313
100
AcDbEntity
  8
PIN_NUMBERS_TOP
100
AcDbText
 10
-5.903796
 20
-12.862504
 30
0.0
 40
0.508
  1
20B
  7
COURIER_NEW
 72
         1
 11
-5.25
 21
-12.64
 31
0.0
100
AcDbText
 73
         2
  0
TEXT
  5
314
100
AcDbEntity
  8
PIN_NUMBERS_TOP
100
AcDbText
 10
-5.403796
 20
-12.862504
 30
0.0
 40
0.508
  1
21B
  7
COURIER_NEW
 72
         1
 11
-4.75
 21
-12.64
 31
0.0
100
AcDbText
 73
         2
  0
TEXT
  5
315
100
AcDbEntity
  8
PIN_NUMBERS_TOP
100
AcDbText
 10
-4.903796
 20
-12.862504
 30
0.0
 40
0.508
  1
22B
  7
COURIER_NEW
 72
         1
 11
-4.25
 21
-12.64
 31
0.0
100
AcDbText
 73
         2
  0
TEXT
  5
316
100
AcDbEntity
  8
PIN_NUMBERS_TOP
100
AcDbText
 10
-4.403796
 20
-12.862504
 30
0.0
 40
0.508
  1
23B
  7
COURIER_NEW
 72
         1
 11
-3.75
 21
-12.64
 31
0.0
100
AcDbText
 73
         2
  0
TEXT
  5
317
100
AcDbEntity
  8
PIN_NUMBERS_TOP
100
AcDbText
 10
-3.903796
 20
-12.862504
 30
0.0
 40
0.508
  1
24B
  7
COURIER_NEW
 72
         1
 11
-3.25
 21
-12.64
 31
0.0
100
AcDbText
 73
         2
  0
TEXT
  5
318
100
AcDbEntity
  8
PIN_NUMBERS_TOP
100
AcDbText
 10
-3.403796
 20
-12.862504
 30
0.0
 40
0.508
  1
25B
  7
COURIER_NEW
 72
         1
 11
-2.75
 21
-12.64
 31
0.0
100
AcDbText
 73
         2
  0
TEXT
  5
319
100
AcDbEntity
  8
PIN_NUMBERS_TOP
100
AcDbText
 10
-2.903796
 20
-12.862504
 30
0.0
 40
0.508
  1
26B
  7
COURIER_NEW
 72
         1
 11
-2.25
 21
-12.64
 31
0.0
100
AcDbText
 73
         2
  0
TEXT
  5
31A
100
AcDbEntity
  8
PIN_NUMBERS_TOP
100
AcDbText
 10
-2.403796
 20
-12.862504
 30
0.0
 40
0.508
  1
27B
  7
COURIER_NEW
 72
         1
 11
-1.75
 21
-12.64
 31
0.0
100
AcDbText
 73
         2
  0
TEXT
  5
31B
100
AcDbEntity
  8
PIN_NUMBERS_TOP
100
AcDbText
 10
-1.903796
 20
-12.862504
 30
0.0
 40
0.508
  1
28B
  7
COURIER_NEW
 72
         1
 11
-1.25
 21
-12.64
 31
0.0
100
AcDbText
 73
         2
  0
TEXT
  5
31C
100
AcDbEntity
  8
PIN_NUMBERS_TOP
100
AcDbText
 10
-1.403796
 20
-12.862504
 30
0.0
 40
0.508
  1
29B
  7
COURIER_NEW
 72
         1
 11
-0.75
 21
-12.64
 31
0.0
100
AcDbText
 73
         2
  0
TEXT
  5
31D
100
AcDbEntity
  8
PIN_NUMBERS_TOP
100
AcDbText
 10
-0.903796
 20
-12.862504
 30
0.0
 40
0.508
  1
30B
  7
COURIER_NEW
 72
         1
 11
-0.25
 21
-12.64
 31
0.0
100
AcDbText
 73
         2
  0
TEXT
  5
31E
100
AcDbEntity
  8
PIN_NUMBERS_TOP
100
AcDbText
 10
-0.403796
 20
-12.862504
 30
0.0
 40
0.508
  1
31B
  7
COURIER_NEW
 72
         1
 11
0.25
 21
-12.64
 31
0.0
100
AcDbText
 73
         2
  0
TEXT
  5
31F
100
AcDbEntity
  8
PIN_NUMBERS_TOP
100
AcDbText
 10
0.096204
 20
-12.862504
 30
0.0
 40
0.508
  1
32B
  7
COURIER_NEW
 72
         1
 11
0.75
 21
-12.64
 31
0.0
100
AcDbText
 73
         2
  0
TEXT
  5
320
100
AcDbEntity
  8
PIN_NUMBERS_TOP
100
AcDbText
 10
0.596204
 20
-12.862504
 30
0.0
 40
0.508
  1
33B
  7
COURIER_NEW
 72
         1
 11
1.25
 21
-12.64
 31
0.0
100
AcDbText
 73
         2
  0
TEXT
  5
321
100
AcDbEntity
  8
PIN_NUMBERS_TOP
100
AcDbText
 10
1.096204
 20
-12.862504
 30
0.0
 40
0.508
  1
34B
  7
COURIER_NEW
 72
         1
 11
1.75
 21
-12.64
 31
0.0
100
AcDbText
 73
         2
  0
TEXT
  5
322
100
AcDbEntity
  8
PIN_NUMBERS_TOP
100
AcDbText
 10
1.596204
 20
-12.862504
 30
0.0
 40
0.508
  1
35B
  7
COURIER_NEW
 72
         1
 11
2.25
 21
-12.64
 31
0.0
100
AcDbText
 73
         2
  0
TEXT
  5
323
100
AcDbEntity
  8
PIN_NUMBERS_TOP
100
AcDbText
 10
2.096204
 20
-12.862504
 30
0.0
 40
0.508
  1
36B
  7
COURIER_NEW
 72
         1
 11
2.75
 21
-12.64
 31
0.0
100
AcDbText
 73
         2
  0
TEXT
  5
324
100
AcDbEntity
  8
PIN_NUMBERS_TOP
100
AcDbText
 10
2.596204
 20
-12.862504
 30
0.0
 40
0.508
  1
37B
  7
COURIER_NEW
 72
         1
 11
3.25
 21
-12.64
 31
0.0
100
AcDbText
 73
         2
  0
TEXT
  5
325
100
AcDbEntity
  8
PIN_NUMBERS_TOP
100
AcDbText
 10
3.096204
 20
-12.862504
 30
0.0
 40
0.508
  1
38B
  7
COURIER_NEW
 72
         1
 11
3.75
 21
-12.64
 31
0.0
100
AcDbText
 73
         2
  0
TEXT
  5
326
100
AcDbEntity
  8
PIN_NUMBERS_TOP
100
AcDbText
 10
3.596204
 20
-12.862504
 30
0.0
 40
0.508
  1
39B
  7
COURIER_NEW
 72
         1
 11
4.25
 21
-12.64
 31
0.0
100
AcDbText
 73
         2
  0
TEXT
  5
327
100
AcDbEntity
  8
PIN_NUMBERS_TOP
100
AcDbText
 10
4.096204
 20
-12.862504
 30
0.0
 40
0.508
  1
40B
  7
COURIER_NEW
 72
         1
 11
4.75
 21
-12.64
 31
0.0
100
AcDbText
 73
         2
  0
TEXT
  5
328
100
AcDbEntity
  8
PIN_NUMBERS_TOP
100
AcDbText
 10
4.596204
 20
-12.862504
 30
0.0
 40
0.508
  1
41B
  7
COURIER_NEW
 72
         1
 11
5.25
 21
-12.64
 31
0.0
100
AcDbText
 73
         2
  0
TEXT
  5
329
100
AcDbEntity
  8
PIN_NUMBERS_TOP
100
AcDbText
 10
5.096204
 20
-12.862504
 30
0.0
 40
0.508
  1
42B
  7
COURIER_NEW
 72
         1
 11
5.75
 21
-12.64
 31
0.0
100
AcDbText
 73
         2
  0
TEXT
  5
32A
100
AcDbEntity
  8
PIN_NUMBERS_TOP
100
AcDbText
 10
5.596204
 20
-12.862504
 30
0.0
 40
0.508
  1
43B
  7
COURIER_NEW
 72
         1
 11
6.25
 21
-12.64
 31
0.0
100
AcDbText
 73
         2
  0
TEXT
  5
32B
100
AcDbEntity
  8
PIN_NUMBERS_TOP
100
AcDbText
 10
6.096204
 20
-12.862504
 30
0.0
 40
0.508
  1
44B
  7
COURIER_NEW
 72
         1
 11
6.75
 21
-12.64
 31
0.0
100
AcDbText
 73
         2
  0
TEXT
  5
32C
100
AcDbEntity
  8
PIN_NUMBERS_TOP
100
AcDbText
 10
6.596204
 20
-12.862504
 30
0.0
 40
0.508
  1
45B
  7
COURIER_NEW
 72
         1
 11
7.25
 21
-12.64
 31
0.0
100
AcDbText
 73
         2
  0
TEXT
  5
32D
100
AcDbEntity
  8
PIN_NUMBERS_TOP
100
AcDbText
 10
7.096204
 20
-12.862504
 30
0.0
 40
0.508
  1
46B
  7
COURIER_NEW
 72
         1
 11
7.75
 21
-12.64
 31
0.0
100
AcDbText
 73
         2
  0
TEXT
  5
32E
100
AcDbEntity
  8
PIN_NUMBERS_TOP
100
AcDbText
 10
7.596204
 20
-12.862504
 30
0.0
 40
0.508
  1
47B
  7
COURIER_NEW
 72
         1
 11
8.25
 21
-12.64
 31
0.0
100
AcDbText
 73
         2
  0
TEXT
  5
32F
100
AcDbEntity
  8
PIN_NUMBERS_TOP
100
AcDbText
 10
8.096204
 20
-12.862504
 30
0.0
 40
0.508
  1
48B
  7
COURIER_NEW
 72
         1
 11
8.75
 21
-12.64
 31
0.0
100
AcDbText
 73
         2
  0
TEXT
  5
330
100
AcDbEntity
  8
PIN_NUMBERS_TOP
100
AcDbText
 10
8.596204
 20
-12.862504
 30
0.0
 40
0.508
  1
49B
  7
COURIER_NEW
 72
         1
 11
9.25
 21
-12.64
 31
0.0
100
AcDbText
 73
         2
  0
TEXT
  5
331
100
AcDbEntity
  8
PIN_NUMBERS_TOP
100
AcDbText
 10
9.096204
 20
-12.862504
 30
0.0
 40
0.508
  1
50B
  7
COURIER_NEW
 72
         1
 11
9.75
 21
-12.64
 31
0.0
100
AcDbText
 73
         2
  0
TEXT
  5
332
100
AcDbEntity
  8
PIN_NUMBERS_TOP
100
AcDbText
 10
9.596204
 20
-12.862504
 30
0.0
 40
0.508
  1
51B
  7
COURIER_NEW
 72
         1
 11
10.25
 21
-12.64
 31
0.0
100
AcDbText
 73
         2
  0
TEXT
  5
333
100
AcDbEntity
  8
PIN_NUMBERS_TOP
100
AcDbText
 10
10.096204
 20
-12.862504
 30
0.0
 40
0.508
  1
52B
  7
COURIER_NEW
 72
         1
 11
10.75
 21
-12.64
 31
0.0
100
AcDbText
 73
         2
  0
TEXT
  5
334
100
AcDbEntity
  8
PIN_NUMBERS_TOP
100
AcDbText
 10
10.596204
 20
-12.862504
 30
0.0
 40
0.508
  1
53B
  7
COURIER_NEW
 72
         1
 11
11.25
 21
-12.64
 31
0.0
100
AcDbText
 73
         2
  0
TEXT
  5
335
100
AcDbEntity
  8
PIN_NUMBERS_TOP
100
AcDbText
 10
11.096204
 20
-12.862504
 30
0.0
 40
0.508
  1
54B
  7
COURIER_NEW
 72
         1
 11
11.75
 21
-12.64
 31
0.0
100
AcDbText
 73
         2
  0
TEXT
  5
336
100
AcDbEntity
  8
PIN_NUMBERS_TOP
100
AcDbText
 10
11.596204
 20
-12.862504
 30
0.0
 40
0.508
  1
55B
  7
COURIER_NEW
 72
         1
 11
12.25
 21
-12.64
 31
0.0
100
AcDbText
 73
         2
  0
TEXT
  5
337
100
AcDbEntity
  8
PIN_NUMBERS_TOP
100
AcDbText
 10
12.096204
 20
-12.862504
 30
0.0
 40
0.508
  1
56B
  7
COURIER_NEW
 72
         1
 11
12.75
 21
-12.64
 31
0.0
100
AcDbText
 73
         2
  0
TEXT
  5
338
100
AcDbEntity
  8
PIN_NUMBERS_TOP
100
AcDbText
 10
12.596204
 20
-12.862504
 30
0.0
 40
0.508
  1
57B
  7
COURIER_NEW
 72
         1
 11
13.25
 21
-12.64
 31
0.0
100
AcDbText
 73
         2
  0
TEXT
  5
339
100
AcDbEntity
  8
PIN_NUMBERS_TOP
100
AcDbText
 10
13.096204
 20
-12.862504
 30
0.0
 40
0.508
  1
58B
  7
COURIER_NEW
 72
         1
 11
13.75
 21
-12.64
 31
0.0
100
AcDbText
 73
         2
  0
TEXT
  5
33A
100
AcDbEntity
  8
PIN_NUMBERS_TOP
100
AcDbText
 10
13.596204
 20
-12.862504
 30
0.0
 40
0.508
  1
59B
  7
COURIER_NEW
 72
         1
 11
14.25
 21
-12.64
 31
0.0
100
AcDbText
 73
         2
  0
TEXT
  5
33B
100
AcDbEntity
  8
PIN_NUMBERS_TOP
100
AcDbText
 10
14.096204
 20
-12.862504
 30
0.0
 40
0.508
  1
60B
  7
COURIER_NEW
 72
         1
 11
14.75
 21
-12.64
 31
0.0
100
AcDbText
 73
         2
  0
TEXT
  5
33C
100
AcDbEntity
  8
PIN_NUMBERS_TOP
100
AcDbText
 10
-15.185864
 20
12.417496
 30
0.0
 40
0.508
  1
1C
  7
COURIER_NEW
 72
         1
 11
-14.75
 21
12.64
 31
0.0
100
AcDbText
 73
         2
  0
TEXT
  5
33D
100
AcDbEntity
  8
PIN_NUMBERS_TOP
100
AcDbText
 10
-14.685864
 20
12.417496
 30
0.0
 40
0.508
  1
2C
  7
COURIER_NEW
 72
         1
 11
-14.25
 21
12.64
 31
0.0
100
AcDbText
 73
         2
  0
TEXT
  5
33E
100
AcDbEntity
  8
PIN_NUMBERS_TOP
100
AcDbText
 10
-14.185864
 20
12.417496
 30
0.0
 40
0.508
  1
3C
  7
COURIER_NEW
 72
         1
 11
-13.75
 21
12.64
 31
0.0
100
AcDbText
 73
         2
  0
TEXT
  5
33F
100
AcDbEntity
  8
PIN_NUMBERS_TOP
100
AcDbText
 10
-13.685864
 20
12.417496
 30
0.0
 40
0.508
  1
4C
  7
COURIER_NEW
 72
         1
 11
-13.25
 21
12.64
 31
0.0
100
AcDbText
 73
         2
  0
TEXT
  5
340
100
AcDbEntity
  8
PIN_NUMBERS_TOP
100
AcDbText
 10
-13.185864
 20
12.417496
 30
0.0
 40
0.508
  1
5C
  7
COURIER_NEW
 72
         1
 11
-12.75
 21
12.64
 31
0.0
100
AcDbText
 73
         2
  0
TEXT
  5
341
100
AcDbEntity
  8
PIN_NUMBERS_TOP
100
AcDbText
 10
-12.685864
 20
12.417496
 30
0.0
 40
0.508
  1
6C
  7
COURIER_NEW
 72
         1
 11
-12.25
 21
12.64
 31
0.0
100
AcDbText
 73
         2
  0
TEXT
  5
342
100
AcDbEntity
  8
PIN_NUMBERS_TOP
100
AcDbText
 10
-12.185864
 20
12.417496
 30
0.0
 40
0.508
  1
7C
  7
COURIER_NEW
 72
         1
 11
-11.75
 21
12.64
 31
0.0
100
AcDbText
 73
         2
  0
TEXT
  5
343
100
AcDbEntity
  8
PIN_NUMBERS_TOP
100
AcDbText
 10
-11.685864
 20
12.417496
 30
0.0
 40
0.508
  1
8C
  7
COURIER_NEW
 72
         1
 11
-11.25
 21
12.64
 31
0.0
100
AcDbText
 73
         2
  0
TEXT
  5
344
100
AcDbEntity
  8
PIN_NUMBERS_TOP
100
AcDbText
 10
-11.185864
 20
12.417496
 30
0.0
 40
0.508
  1
9C
  7
COURIER_NEW
 72
         1
 11
-10.75
 21
12.64
 31
0.0
100
AcDbText
 73
         2
  0
TEXT
  5
345
100
AcDbEntity
  8
PIN_NUMBERS_TOP
100
AcDbText
 10
-10.903796
 20
12.417496
 30
0.0
 40
0.508
  1
10C
  7
COURIER_NEW
 72
         1
 11
-10.25
 21
12.64
 31
0.0
100
AcDbText
 73
         2
  0
TEXT
  5
346
100
AcDbEntity
  8
PIN_NUMBERS_TOP
100
AcDbText
 10
-10.403796
 20
12.417496
 30
0.0
 40
0.508
  1
11C
  7
COURIER_NEW
 72
         1
 11
-9.75
 21
12.64
 31
0.0
100
AcDbText
 73
         2
  0
TEXT
  5
347
100
AcDbEntity
  8
PIN_NUMBERS_TOP
100
AcDbText
 10
-9.903796
 20
12.417496
 30
0.0
 40
0.508
  1
12C
  7
COURIER_NEW
 72
         1
 11
-9.25
 21
12.64
 31
0.0
100
AcDbText
 73
         2
  0
TEXT
  5
348
100
AcDbEntity
  8
PIN_NUMBERS_TOP
100
AcDbText
 10
-9.403796
 20
12.417496
 30
0.0
 40
0.508
  1
13C
  7
COURIER_NEW
 72
         1
 11
-8.75
 21
12.64
 31
0.0
100
AcDbText
 73
         2
  0
TEXT
  5
349
100
AcDbEntity
  8
PIN_NUMBERS_TOP
100
AcDbText
 10
-8.903796
 20
12.417496
 30
0.0
 40
0.508
  1
14C
  7
COURIER_NEW
 72
         1
 11
-8.25
 21
12.64
 31
0.0
100
AcDbText
 73
         2
  0
TEXT
  5
34A
100
AcDbEntity
  8
PIN_NUMBERS_TOP
100
AcDbText
 10
-8.403796
 20
12.417496
 30
0.0
 40
0.508
  1
15C
  7
COURIER_NEW
 72
         1
 11
-7.75
 21
12.64
 31
0.0
100
AcDbText
 73
         2
  0
TEXT
  5
34B
100
AcDbEntity
  8
PIN_NUMBERS_TOP
100
AcDbText
 10
-7.903796
 20
12.417496
 30
0.0
 40
0.508
  1
16C
  7
COURIER_NEW
 72
         1
 11
-7.25
 21
12.64
 31
0.0
100
AcDbText
 73
         2
  0
TEXT
  5
34C
100
AcDbEntity
  8
PIN_NUMBERS_TOP
100
AcDbText
 10
-7.403796
 20
12.417496
 30
0.0
 40
0.508
  1
17C
  7
COURIER_NEW
 72
         1
 11
-6.75
 21
12.64
 31
0.0
100
AcDbText
 73
         2
  0
TEXT
  5
34D
100
AcDbEntity
  8
PIN_NUMBERS_TOP
100
AcDbText
 10
-6.903796
 20
12.417496
 30
0.0
 40
0.508
  1
18C
  7
COURIER_NEW
 72
         1
 11
-6.25
 21
12.64
 31
0.0
100
AcDbText
 73
         2
  0
TEXT
  5
34E
100
AcDbEntity
  8
PIN_NUMBERS_TOP
100
AcDbText
 10
-6.403796
 20
12.417496
 30
0.0
 40
0.508
  1
19C
  7
COURIER_NEW
 72
         1
 11
-5.75
 21
12.64
 31
0.0
100
AcDbText
 73
         2
  0
TEXT
  5
34F
100
AcDbEntity
  8
PIN_NUMBERS_TOP
100
AcDbText
 10
-5.903796
 20
12.417496
 30
0.0
 40
0.508
  1
20C
  7
COURIER_NEW
 72
         1
 11
-5.25
 21
12.64
 31
0.0
100
AcDbText
 73
         2
  0
TEXT
  5
350
100
AcDbEntity
  8
PIN_NUMBERS_TOP
100
AcDbText
 10
-5.403796
 20
12.417496
 30
0.0
 40
0.508
  1
21C
  7
COURIER_NEW
 72
         1
 11
-4.75
 21
12.64
 31
0.0
100
AcDbText
 73
         2
  0
TEXT
  5
351
100
AcDbEntity
  8
PIN_NUMBERS_TOP
100
AcDbText
 10
-4.903796
 20
12.417496
 30
0.0
 40
0.508
  1
22C
  7
COURIER_NEW
 72
         1
 11
-4.25
 21
12.64
 31
0.0
100
AcDbText
 73
         2
  0
TEXT
  5
352
100
AcDbEntity
  8
PIN_NUMBERS_TOP
100
AcDbText
 10
-4.403796
 20
12.417496
 30
0.0
 40
0.508
  1
23C
  7
COURIER_NEW
 72
         1
 11
-3.75
 21
12.64
 31
0.0
100
AcDbText
 73
         2
  0
TEXT
  5
353
100
AcDbEntity
  8
PIN_NUMBERS_TOP
100
AcDbText
 10
-3.903796
 20
12.417496
 30
0.0
 40
0.508
  1
24C
  7
COURIER_NEW
 72
         1
 11
-3.25
 21
12.64
 31
0.0
100
AcDbText
 73
         2
  0
TEXT
  5
354
100
AcDbEntity
  8
PIN_NUMBERS_TOP
100
AcDbText
 10
-3.403796
 20
12.417496
 30
0.0
 40
0.508
  1
25C
  7
COURIER_NEW
 72
         1
 11
-2.75
 21
12.64
 31
0.0
100
AcDbText
 73
         2
  0
TEXT
  5
355
100
AcDbEntity
  8
PIN_NUMBERS_TOP
100
AcDbText
 10
-2.903796
 20
12.417496
 30
0.0
 40
0.508
  1
26C
  7
COURIER_NEW
 72
         1
 11
-2.25
 21
12.64
 31
0.0
100
AcDbText
 73
         2
  0
TEXT
  5
356
100
AcDbEntity
  8
PIN_NUMBERS_TOP
100
AcDbText
 10
-2.403796
 20
12.417496
 30
0.0
 40
0.508
  1
27C
  7
COURIER_NEW
 72
         1
 11
-1.75
 21
12.64
 31
0.0
100
AcDbText
 73
         2
  0
TEXT
  5
357
100
AcDbEntity
  8
PIN_NUMBERS_TOP
100
AcDbText
 10
-1.903796
 20
12.417496
 30
0.0
 40
0.508
  1
28C
  7
COURIER_NEW
 72
         1
 11
-1.25
 21
12.64
 31
0.0
100
AcDbText
 73
         2
  0
TEXT
  5
358
100
AcDbEntity
  8
PIN_NUMBERS_TOP
100
AcDbText
 10
-1.403796
 20
12.417496
 30
0.0
 40
0.508
  1
29C
  7
COURIER_NEW
 72
         1
 11
-0.75
 21
12.64
 31
0.0
100
AcDbText
 73
         2
  0
TEXT
  5
359
100
AcDbEntity
  8
PIN_NUMBERS_TOP
100
AcDbText
 10
-0.903796
 20
12.417496
 30
0.0
 40
0.508
  1
30C
  7
COURIER_NEW
 72
         1
 11
-0.25
 21
12.64
 31
0.0
100
AcDbText
 73
         2
  0
TEXT
  5
35A
100
AcDbEntity
  8
PIN_NUMBERS_TOP
100
AcDbText
 10
-0.403796
 20
12.417496
 30
0.0
 40
0.508
  1
31C
  7
COURIER_NEW
 72
         1
 11
0.25
 21
12.64
 31
0.0
100
AcDbText
 73
         2
  0
TEXT
  5
35B
100
AcDbEntity
  8
PIN_NUMBERS_TOP
100
AcDbText
 10
0.096204
 20
12.417496
 30
0.0
 40
0.508
  1
32C
  7
COURIER_NEW
 72
         1
 11
0.75
 21
12.64
 31
0.0
100
AcDbText
 73
         2
  0
TEXT
  5
35C
100
AcDbEntity
  8
PIN_NUMBERS_TOP
100
AcDbText
 10
0.596204
 20
12.417496
 30
0.0
 40
0.508
  1
33C
  7
COURIER_NEW
 72
         1
 11
1.25
 21
12.64
 31
0.0
100
AcDbText
 73
         2
  0
TEXT
  5
35D
100
AcDbEntity
  8
PIN_NUMBERS_TOP
100
AcDbText
 10
1.096204
 20
12.417496
 30
0.0
 40
0.508
  1
34C
  7
COURIER_NEW
 72
         1
 11
1.75
 21
12.64
 31
0.0
100
AcDbText
 73
         2
  0
TEXT
  5
35E
100
AcDbEntity
  8
PIN_NUMBERS_TOP
100
AcDbText
 10
1.596204
 20
12.417496
 30
0.0
 40
0.508
  1
35C
  7
COURIER_NEW
 72
         1
 11
2.25
 21
12.64
 31
0.0
100
AcDbText
 73
         2
  0
TEXT
  5
35F
100
AcDbEntity
  8
PIN_NUMBERS_TOP
100
AcDbText
 10
2.096204
 20
12.417496
 30
0.0
 40
0.508
  1
36C
  7
COURIER_NEW
 72
         1
 11
2.75
 21
12.64
 31
0.0
100
AcDbText
 73
         2
  0
TEXT
  5
360
100
AcDbEntity
  8
PIN_NUMBERS_TOP
100
AcDbText
 10
2.596204
 20
12.417496
 30
0.0
 40
0.508
  1
37C
  7
COURIER_NEW
 72
         1
 11
3.25
 21
12.64
 31
0.0
100
AcDbText
 73
         2
  0
TEXT
  5
361
100
AcDbEntity
  8
PIN_NUMBERS_TOP
100
AcDbText
 10
3.096204
 20
12.417496
 30
0.0
 40
0.508
  1
38C
  7
COURIER_NEW
 72
         1
 11
3.75
 21
12.64
 31
0.0
100
AcDbText
 73
         2
  0
TEXT
  5
362
100
AcDbEntity
  8
PIN_NUMBERS_TOP
100
AcDbText
 10
3.596204
 20
12.417496
 30
0.0
 40
0.508
  1
39C
  7
COURIER_NEW
 72
         1
 11
4.25
 21
12.64
 31
0.0
100
AcDbText
 73
         2
  0
TEXT
  5
363
100
AcDbEntity
  8
PIN_NUMBERS_TOP
100
AcDbText
 10
4.096204
 20
12.417496
 30
0.0
 40
0.508
  1
40C
  7
COURIER_NEW
 72
         1
 11
4.75
 21
12.64
 31
0.0
100
AcDbText
 73
         2
  0
TEXT
  5
364
100
AcDbEntity
  8
PIN_NUMBERS_TOP
100
AcDbText
 10
4.596204
 20
12.417496
 30
0.0
 40
0.508
  1
41C
  7
COURIER_NEW
 72
         1
 11
5.25
 21
12.64
 31
0.0
100
AcDbText
 73
         2
  0
TEXT
  5
365
100
AcDbEntity
  8
PIN_NUMBERS_TOP
100
AcDbText
 10
5.096204
 20
12.417496
 30
0.0
 40
0.508
  1
42C
  7
COURIER_NEW
 72
         1
 11
5.75
 21
12.64
 31
0.0
100
AcDbText
 73
         2
  0
TEXT
  5
366
100
AcDbEntity
  8
PIN_NUMBERS_TOP
100
AcDbText
 10
5.596204
 20
12.417496
 30
0.0
 40
0.508
  1
43C
  7
COURIER_NEW
 72
         1
 11
6.25
 21
12.64
 31
0.0
100
AcDbText
 73
         2
  0
TEXT
  5
367
100
AcDbEntity
  8
PIN_NUMBERS_TOP
100
AcDbText
 10
6.096204
 20
12.417496
 30
0.0
 40
0.508
  1
44C
  7
COURIER_NEW
 72
         1
 11
6.75
 21
12.64
 31
0.0
100
AcDbText
 73
         2
  0
TEXT
  5
368
100
AcDbEntity
  8
PIN_NUMBERS_TOP
100
AcDbText
 10
6.596204
 20
12.417496
 30
0.0
 40
0.508
  1
45C
  7
COURIER_NEW
 72
         1
 11
7.25
 21
12.64
 31
0.0
100
AcDbText
 73
         2
  0
TEXT
  5
369
100
AcDbEntity
  8
PIN_NUMBERS_TOP
100
AcDbText
 10
7.096204
 20
12.417496
 30
0.0
 40
0.508
  1
46C
  7
COURIER_NEW
 72
         1
 11
7.75
 21
12.64
 31
0.0
100
AcDbText
 73
         2
  0
TEXT
  5
36A
100
AcDbEntity
  8
PIN_NUMBERS_TOP
100
AcDbText
 10
7.596204
 20
12.417496
 30
0.0
 40
0.508
  1
47C
  7
COURIER_NEW
 72
         1
 11
8.25
 21
12.64
 31
0.0
100
AcDbText
 73
         2
  0
TEXT
  5
36B
100
AcDbEntity
  8
PIN_NUMBERS_TOP
100
AcDbText
 10
8.096204
 20
12.417496
 30
0.0
 40
0.508
  1
48C
  7
COURIER_NEW
 72
         1
 11
8.75
 21
12.64
 31
0.0
100
AcDbText
 73
         2
  0
TEXT
  5
36C
100
AcDbEntity
  8
PIN_NUMBERS_TOP
100
AcDbText
 10
8.596204
 20
12.417496
 30
0.0
 40
0.508
  1
49C
  7
COURIER_NEW
 72
         1
 11
9.25
 21
12.64
 31
0.0
100
AcDbText
 73
         2
  0
TEXT
  5
36D
100
AcDbEntity
  8
PIN_NUMBERS_TOP
100
AcDbText
 10
9.096204
 20
12.417496
 30
0.0
 40
0.508
  1
50C
  7
COURIER_NEW
 72
         1
 11
9.75
 21
12.64
 31
0.0
100
AcDbText
 73
         2
  0
TEXT
  5
36E
100
AcDbEntity
  8
PIN_NUMBERS_TOP
100
AcDbText
 10
9.596204
 20
12.417496
 30
0.0
 40
0.508
  1
51C
  7
COURIER_NEW
 72
         1
 11
10.25
 21
12.64
 31
0.0
100
AcDbText
 73
         2
  0
TEXT
  5
36F
100
AcDbEntity
  8
PIN_NUMBERS_TOP
100
AcDbText
 10
10.096204
 20
12.417496
 30
0.0
 40
0.508
  1
52C
  7
COURIER_NEW
 72
         1
 11
10.75
 21
12.64
 31
0.0
100
AcDbText
 73
         2
  0
TEXT
  5
370
100
AcDbEntity
  8
PIN_NUMBERS_TOP
100
AcDbText
 10
10.596204
 20
12.417496
 30
0.0
 40
0.508
  1
53C
  7
COURIER_NEW
 72
         1
 11
11.25
 21
12.64
 31
0.0
100
AcDbText
 73
         2
  0
TEXT
  5
371
100
AcDbEntity
  8
PIN_NUMBERS_TOP
100
AcDbText
 10
11.096204
 20
12.417496
 30
0.0
 40
0.508
  1
54C
  7
COURIER_NEW
 72
         1
 11
11.75
 21
12.64
 31
0.0
100
AcDbText
 73
         2
  0
TEXT
  5
372
100
AcDbEntity
  8
PIN_NUMBERS_TOP
100
AcDbText
 10
11.596204
 20
12.417496
 30
0.0
 40
0.508
  1
55C
  7
COURIER_NEW
 72
         1
 11
12.25
 21
12.64
 31
0.0
100
AcDbText
 73
         2
  0
TEXT
  5
373
100
AcDbEntity
  8
PIN_NUMBERS_TOP
100
AcDbText
 10
12.096204
 20
12.417496
 30
0.0
 40
0.508
  1
56C
  7
COURIER_NEW
 72
         1
 11
12.75
 21
12.64
 31
0.0
100
AcDbText
 73
         2
  0
TEXT
  5
374
100
AcDbEntity
  8
PIN_NUMBERS_TOP
100
AcDbText
 10
12.596204
 20
12.417496
 30
0.0
 40
0.508
  1
57C
  7
COURIER_NEW
 72
         1
 11
13.25
 21
12.64
 31
0.0
100
AcDbText
 73
         2
  0
TEXT
  5
375
100
AcDbEntity
  8
PIN_NUMBERS_TOP
100
AcDbText
 10
13.096204
 20
12.417496
 30
0.0
 40
0.508
  1
58C
  7
COURIER_NEW
 72
         1
 11
13.75
 21
12.64
 31
0.0
100
AcDbText
 73
         2
  0
TEXT
  5
376
100
AcDbEntity
  8
PIN_NUMBERS_TOP
100
AcDbText
 10
13.596204
 20
12.417496
 30
0.0
 40
0.508
  1
59C
  7
COURIER_NEW
 72
         1
 11
14.25
 21
12.64
 31
0.0
100
AcDbText
 73
         2
  0
TEXT
  5
377
100
AcDbEntity
  8
PIN_NUMBERS_TOP
100
AcDbText
 10
14.096204
 20
12.417496
 30
0.0
 40
0.508
  1
60C
  7
COURIER_NEW
 72
         1
 11
14.75
 21
12.64
 31
0.0
100
AcDbText
 73
         2
  0
TEXT
  5
378
100
AcDbEntity
  8
PIN_NUMBERS_TOP
100
AcDbText
 10
-15.185864
 20
18.537496
 30
0.0
 40
0.508
  1
1D
  7
COURIER_NEW
 72
         1
 11
-14.75
 21
18.76
 31
0.0
100
AcDbText
 73
         2
  0
TEXT
  5
379
100
AcDbEntity
  8
PIN_NUMBERS_TOP
100
AcDbText
 10
-14.685864
 20
18.537496
 30
0.0
 40
0.508
  1
2D
  7
COURIER_NEW
 72
         1
 11
-14.25
 21
18.76
 31
0.0
100
AcDbText
 73
         2
  0
TEXT
  5
37A
100
AcDbEntity
  8
PIN_NUMBERS_TOP
100
AcDbText
 10
-14.185864
 20
18.537496
 30
0.0
 40
0.508
  1
3D
  7
COURIER_NEW
 72
         1
 11
-13.75
 21
18.76
 31
0.0
100
AcDbText
 73
         2
  0
TEXT
  5
37B
100
AcDbEntity
  8
PIN_NUMBERS_TOP
100
AcDbText
 10
-13.685864
 20
18.537496
 30
0.0
 40
0.508
  1
4D
  7
COURIER_NEW
 72
         1
 11
-13.25
 21
18.76
 31
0.0
100
AcDbText
 73
         2
  0
TEXT
  5
37C
100
AcDbEntity
  8
PIN_NUMBERS_TOP
100
AcDbText
 10
-13.185864
 20
18.537496
 30
0.0
 40
0.508
  1
5D
  7
COURIER_NEW
 72
         1
 11
-12.75
 21
18.76
 31
0.0
100
AcDbText
 73
         2
  0
TEXT
  5
37D
100
AcDbEntity
  8
PIN_NUMBERS_TOP
100
AcDbText
 10
-12.685864
 20
18.537496
 30
0.0
 40
0.508
  1
6D
  7
COURIER_NEW
 72
         1
 11
-12.25
 21
18.76
 31
0.0
100
AcDbText
 73
         2
  0
TEXT
  5
37E
100
AcDbEntity
  8
PIN_NUMBERS_TOP
100
AcDbText
 10
-12.185864
 20
18.537496
 30
0.0
 40
0.508
  1
7D
  7
COURIER_NEW
 72
         1
 11
-11.75
 21
18.76
 31
0.0
100
AcDbText
 73
         2
  0
TEXT
  5
37F
100
AcDbEntity
  8
PIN_NUMBERS_TOP
100
AcDbText
 10
-11.685864
 20
18.537496
 30
0.0
 40
0.508
  1
8D
  7
COURIER_NEW
 72
         1
 11
-11.25
 21
18.76
 31
0.0
100
AcDbText
 73
         2
  0
TEXT
  5
380
100
AcDbEntity
  8
PIN_NUMBERS_TOP
100
AcDbText
 10
-11.185864
 20
18.537496
 30
0.0
 40
0.508
  1
9D
  7
COURIER_NEW
 72
         1
 11
-10.75
 21
18.76
 31
0.0
100
AcDbText
 73
         2
  0
TEXT
  5
381
100
AcDbEntity
  8
PIN_NUMBERS_TOP
100
AcDbText
 10
-10.903796
 20
18.537496
 30
0.0
 40
0.508
  1
10D
  7
COURIER_NEW
 72
         1
 11
-10.25
 21
18.76
 31
0.0
100
AcDbText
 73
         2
  0
TEXT
  5
382
100
AcDbEntity
  8
PIN_NUMBERS_TOP
100
AcDbText
 10
-10.403796
 20
18.537496
 30
0.0
 40
0.508
  1
11D
  7
COURIER_NEW
 72
         1
 11
-9.75
 21
18.76
 31
0.0
100
AcDbText
 73
         2
  0
TEXT
  5
383
100
AcDbEntity
  8
PIN_NUMBERS_TOP
100
AcDbText
 10
-9.903796
 20
18.537496
 30
0.0
 40
0.508
  1
12D
  7
COURIER_NEW
 72
         1
 11
-9.25
 21
18.76
 31
0.0
100
AcDbText
 73
         2
  0
TEXT
  5
384
100
AcDbEntity
  8
PIN_NUMBERS_TOP
100
AcDbText
 10
-9.403796
 20
18.537496
 30
0.0
 40
0.508
  1
13D
  7
COURIER_NEW
 72
         1
 11
-8.75
 21
18.76
 31
0.0
100
AcDbText
 73
         2
  0
TEXT
  5
385
100
AcDbEntity
  8
PIN_NUMBERS_TOP
100
AcDbText
 10
-8.903796
 20
18.537496
 30
0.0
 40
0.508
  1
14D
  7
COURIER_NEW
 72
         1
 11
-8.25
 21
18.76
 31
0.0
100
AcDbText
 73
         2
  0
TEXT
  5
386
100
AcDbEntity
  8
PIN_NUMBERS_TOP
100
AcDbText
 10
-8.403796
 20
18.537496
 30
0.0
 40
0.508
  1
15D
  7
COURIER_NEW
 72
         1
 11
-7.75
 21
18.76
 31
0.0
100
AcDbText
 73
         2
  0
TEXT
  5
387
100
AcDbEntity
  8
PIN_NUMBERS_TOP
100
AcDbText
 10
-7.903796
 20
18.537496
 30
0.0
 40
0.508
  1
16D
  7
COURIER_NEW
 72
         1
 11
-7.25
 21
18.76
 31
0.0
100
AcDbText
 73
         2
  0
TEXT
  5
388
100
AcDbEntity
  8
PIN_NUMBERS_TOP
100
AcDbText
 10
-7.403796
 20
18.537496
 30
0.0
 40
0.508
  1
17D
  7
COURIER_NEW
 72
         1
 11
-6.75
 21
18.76
 31
0.0
100
AcDbText
 73
         2
  0
TEXT
  5
389
100
AcDbEntity
  8
PIN_NUMBERS_TOP
100
AcDbText
 10
-6.903796
 20
18.537496
 30
0.0
 40
0.508
  1
18D
  7
COURIER_NEW
 72
         1
 11
-6.25
 21
18.76
 31
0.0
100
AcDbText
 73
         2
  0
TEXT
  5
38A
100
AcDbEntity
  8
PIN_NUMBERS_TOP
100
AcDbText
 10
-6.403796
 20
18.537496
 30
0.0
 40
0.508
  1
19D
  7
COURIER_NEW
 72
         1
 11
-5.75
 21
18.76
 31
0.0
100
AcDbText
 73
         2
  0
TEXT
  5
38B
100
AcDbEntity
  8
PIN_NUMBERS_TOP
100
AcDbText
 10
-5.903796
 20
18.537496
 30
0.0
 40
0.508
  1
20D
  7
COURIER_NEW
 72
         1
 11
-5.25
 21
18.76
 31
0.0
100
AcDbText
 73
         2
  0
TEXT
  5
38C
100
AcDbEntity
  8
PIN_NUMBERS_TOP
100
AcDbText
 10
-5.403796
 20
18.537496
 30
0.0
 40
0.508
  1
21D
  7
COURIER_NEW
 72
         1
 11
-4.75
 21
18.76
 31
0.0
100
AcDbText
 73
         2
  0
TEXT
  5
38D
100
AcDbEntity
  8
PIN_NUMBERS_TOP
100
AcDbText
 10
-4.903796
 20
18.537496
 30
0.0
 40
0.508
  1
22D
  7
COURIER_NEW
 72
         1
 11
-4.25
 21
18.76
 31
0.0
100
AcDbText
 73
         2
  0
TEXT
  5
38E
100
AcDbEntity
  8
PIN_NUMBERS_TOP
100
AcDbText
 10
-4.403796
 20
18.537496
 30
0.0
 40
0.508
  1
23D
  7
COURIER_NEW
 72
         1
 11
-3.75
 21
18.76
 31
0.0
100
AcDbText
 73
         2
  0
TEXT
  5
38F
100
AcDbEntity
  8
PIN_NUMBERS_TOP
100
AcDbText
 10
-3.903796
 20
18.537496
 30
0.0
 40
0.508
  1
24D
  7
COURIER_NEW
 72
         1
 11
-3.25
 21
18.76
 31
0.0
100
AcDbText
 73
         2
  0
TEXT
  5
390
100
AcDbEntity
  8
PIN_NUMBERS_TOP
100
AcDbText
 10
-3.403796
 20
18.537496
 30
0.0
 40
0.508
  1
25D
  7
COURIER_NEW
 72
         1
 11
-2.75
 21
18.76
 31
0.0
100
AcDbText
 73
         2
  0
TEXT
  5
391
100
AcDbEntity
  8
PIN_NUMBERS_TOP
100
AcDbText
 10
-2.903796
 20
18.537496
 30
0.0
 40
0.508
  1
26D
  7
COURIER_NEW
 72
         1
 11
-2.25
 21
18.76
 31
0.0
100
AcDbText
 73
         2
  0
TEXT
  5
392
100
AcDbEntity
  8
PIN_NUMBERS_TOP
100
AcDbText
 10
-2.403796
 20
18.537496
 30
0.0
 40
0.508
  1
27D
  7
COURIER_NEW
 72
         1
 11
-1.75
 21
18.76
 31
0.0
100
AcDbText
 73
         2
  0
TEXT
  5
393
100
AcDbEntity
  8
PIN_NUMBERS_TOP
100
AcDbText
 10
-1.903796
 20
18.537496
 30
0.0
 40
0.508
  1
28D
  7
COURIER_NEW
 72
         1
 11
-1.25
 21
18.76
 31
0.0
100
AcDbText
 73
         2
  0
TEXT
  5
394
100
AcDbEntity
  8
PIN_NUMBERS_TOP
100
AcDbText
 10
-1.403796
 20
18.537496
 30
0.0
 40
0.508
  1
29D
  7
COURIER_NEW
 72
         1
 11
-0.75
 21
18.76
 31
0.0
100
AcDbText
 73
         2
  0
TEXT
  5
395
100
AcDbEntity
  8
PIN_NUMBERS_TOP
100
AcDbText
 10
-0.903796
 20
18.537496
 30
0.0
 40
0.508
  1
30D
  7
COURIER_NEW
 72
         1
 11
-0.25
 21
18.76
 31
0.0
100
AcDbText
 73
         2
  0
TEXT
  5
396
100
AcDbEntity
  8
PIN_NUMBERS_TOP
100
AcDbText
 10
-0.403796
 20
18.537496
 30
0.0
 40
0.508
  1
31D
  7
COURIER_NEW
 72
         1
 11
0.25
 21
18.76
 31
0.0
100
AcDbText
 73
         2
  0
TEXT
  5
397
100
AcDbEntity
  8
PIN_NUMBERS_TOP
100
AcDbText
 10
0.096204
 20
18.537496
 30
0.0
 40
0.508
  1
32D
  7
COURIER_NEW
 72
         1
 11
0.75
 21
18.76
 31
0.0
100
AcDbText
 73
         2
  0
TEXT
  5
398
100
AcDbEntity
  8
PIN_NUMBERS_TOP
100
AcDbText
 10
0.596204
 20
18.537496
 30
0.0
 40
0.508
  1
33D
  7
COURIER_NEW
 72
         1
 11
1.25
 21
18.76
 31
0.0
100
AcDbText
 73
         2
  0
TEXT
  5
399
100
AcDbEntity
  8
PIN_NUMBERS_TOP
100
AcDbText
 10
1.096204
 20
18.537496
 30
0.0
 40
0.508
  1
34D
  7
COURIER_NEW
 72
         1
 11
1.75
 21
18.76
 31
0.0
100
AcDbText
 73
         2
  0
TEXT
  5
39A
100
AcDbEntity
  8
PIN_NUMBERS_TOP
100
AcDbText
 10
1.596204
 20
18.537496
 30
0.0
 40
0.508
  1
35D
  7
COURIER_NEW
 72
         1
 11
2.25
 21
18.76
 31
0.0
100
AcDbText
 73
         2
  0
TEXT
  5
39B
100
AcDbEntity
  8
PIN_NUMBERS_TOP
100
AcDbText
 10
2.096204
 20
18.537496
 30
0.0
 40
0.508
  1
36D
  7
COURIER_NEW
 72
         1
 11
2.75
 21
18.76
 31
0.0
100
AcDbText
 73
         2
  0
TEXT
  5
39C
100
AcDbEntity
  8
PIN_NUMBERS_TOP
100
AcDbText
 10
2.596204
 20
18.537496
 30
0.0
 40
0.508
  1
37D
  7
COURIER_NEW
 72
         1
 11
3.25
 21
18.76
 31
0.0
100
AcDbText
 73
         2
  0
TEXT
  5
39D
100
AcDbEntity
  8
PIN_NUMBERS_TOP
100
AcDbText
 10
3.096204
 20
18.537496
 30
0.0
 40
0.508
  1
38D
  7
COURIER_NEW
 72
         1
 11
3.75
 21
18.76
 31
0.0
100
AcDbText
 73
         2
  0
TEXT
  5
39E
100
AcDbEntity
  8
PIN_NUMBERS_TOP
100
AcDbText
 10
3.596204
 20
18.537496
 30
0.0
 40
0.508
  1
39D
  7
COURIER_NEW
 72
         1
 11
4.25
 21
18.76
 31
0.0
100
AcDbText
 73
         2
  0
TEXT
  5
39F
100
AcDbEntity
  8
PIN_NUMBERS_TOP
100
AcDbText
 10
4.096204
 20
18.537496
 30
0.0
 40
0.508
  1
40D
  7
COURIER_NEW
 72
         1
 11
4.75
 21
18.76
 31
0.0
100
AcDbText
 73
         2
  0
TEXT
  5
3A0
100
AcDbEntity
  8
PIN_NUMBERS_TOP
100
AcDbText
 10
4.596204
 20
18.537496
 30
0.0
 40
0.508
  1
41D
  7
COURIER_NEW
 72
         1
 11
5.25
 21
18.76
 31
0.0
100
AcDbText
 73
         2
  0
TEXT
  5
3A1
100
AcDbEntity
  8
PIN_NUMBERS_TOP
100
AcDbText
 10
5.096204
 20
18.537496
 30
0.0
 40
0.508
  1
42D
  7
COURIER_NEW
 72
         1
 11
5.75
 21
18.76
 31
0.0
100
AcDbText
 73
         2
  0
TEXT
  5
3A2
100
AcDbEntity
  8
PIN_NUMBERS_TOP
100
AcDbText
 10
5.596204
 20
18.537496
 30
0.0
 40
0.508
  1
43D
  7
COURIER_NEW
 72
         1
 11
6.25
 21
18.76
 31
0.0
100
AcDbText
 73
         2
  0
TEXT
  5
3A3
100
AcDbEntity
  8
PIN_NUMBERS_TOP
100
AcDbText
 10
6.096204
 20
18.537496
 30
0.0
 40
0.508
  1
44D
  7
COURIER_NEW
 72
         1
 11
6.75
 21
18.76
 31
0.0
100
AcDbText
 73
         2
  0
TEXT
  5
3A4
100
AcDbEntity
  8
PIN_NUMBERS_TOP
100
AcDbText
 10
6.596204
 20
18.537496
 30
0.0
 40
0.508
  1
45D
  7
COURIER_NEW
 72
         1
 11
7.25
 21
18.76
 31
0.0
100
AcDbText
 73
         2
  0
TEXT
  5
3A5
100
AcDbEntity
  8
PIN_NUMBERS_TOP
100
AcDbText
 10
7.096204
 20
18.537496
 30
0.0
 40
0.508
  1
46D
  7
COURIER_NEW
 72
         1
 11
7.75
 21
18.76
 31
0.0
100
AcDbText
 73
         2
  0
TEXT
  5
3A6
100
AcDbEntity
  8
PIN_NUMBERS_TOP
100
AcDbText
 10
7.596204
 20
18.537496
 30
0.0
 40
0.508
  1
47D
  7
COURIER_NEW
 72
         1
 11
8.25
 21
18.76
 31
0.0
100
AcDbText
 73
         2
  0
TEXT
  5
3A7
100
AcDbEntity
  8
PIN_NUMBERS_TOP
100
AcDbText
 10
8.096204
 20
18.537496
 30
0.0
 40
0.508
  1
48D
  7
COURIER_NEW
 72
         1
 11
8.75
 21
18.76
 31
0.0
100
AcDbText
 73
         2
  0
TEXT
  5
3A8
100
AcDbEntity
  8
PIN_NUMBERS_TOP
100
AcDbText
 10
8.596204
 20
18.537496
 30
0.0
 40
0.508
  1
49D
  7
COURIER_NEW
 72
         1
 11
9.25
 21
18.76
 31
0.0
100
AcDbText
 73
         2
  0
TEXT
  5
3A9
100
AcDbEntity
  8
PIN_NUMBERS_TOP
100
AcDbText
 10
9.096204
 20
18.537496
 30
0.0
 40
0.508
  1
50D
  7
COURIER_NEW
 72
         1
 11
9.75
 21
18.76
 31
0.0
100
AcDbText
 73
         2
  0
TEXT
  5
3AA
100
AcDbEntity
  8
PIN_NUMBERS_TOP
100
AcDbText
 10
9.596204
 20
18.537496
 30
0.0
 40
0.508
  1
51D
  7
COURIER_NEW
 72
         1
 11
10.25
 21
18.76
 31
0.0
100
AcDbText
 73
         2
  0
TEXT
  5
3AB
100
AcDbEntity
  8
PIN_NUMBERS_TOP
100
AcDbText
 10
10.096204
 20
18.537496
 30
0.0
 40
0.508
  1
52D
  7
COURIER_NEW
 72
         1
 11
10.75
 21
18.76
 31
0.0
100
AcDbText
 73
         2
  0
TEXT
  5
3AC
100
AcDbEntity
  8
PIN_NUMBERS_TOP
100
AcDbText
 10
10.596204
 20
18.537496
 30
0.0
 40
0.508
  1
53D
  7
COURIER_NEW
 72
         1
 11
11.25
 21
18.76
 31
0.0
100
AcDbText
 73
         2
  0
TEXT
  5
3AD
100
AcDbEntity
  8
PIN_NUMBERS_TOP
100
AcDbText
 10
11.096204
 20
18.537496
 30
0.0
 40
0.508
  1
54D
  7
COURIER_NEW
 72
         1
 11
11.75
 21
18.76
 31
0.0
100
AcDbText
 73
         2
  0
TEXT
  5
3AE
100
AcDbEntity
  8
PIN_NUMBERS_TOP
100
AcDbText
 10
11.596204
 20
18.537496
 30
0.0
 40
0.508
  1
55D
  7
COURIER_NEW
 72
         1
 11
12.25
 21
18.76
 31
0.0
100
AcDbText
 73
         2
  0
TEXT
  5
3AF
100
AcDbEntity
  8
PIN_NUMBERS_TOP
100
AcDbText
 10
12.096204
 20
18.537496
 30
0.0
 40
0.508
  1
56D
  7
COURIER_NEW
 72
         1
 11
12.75
 21
18.76
 31
0.0
100
AcDbText
 73
         2
  0
TEXT
  5
3B0
100
AcDbEntity
  8
PIN_NUMBERS_TOP
100
AcDbText
 10
12.596204
 20
18.537496
 30
0.0
 40
0.508
  1
57D
  7
COURIER_NEW
 72
         1
 11
13.25
 21
18.76
 31
0.0
100
AcDbText
 73
         2
  0
TEXT
  5
3B1
100
AcDbEntity
  8
PIN_NUMBERS_TOP
100
AcDbText
 10
13.096204
 20
18.537496
 30
0.0
 40
0.508
  1
58D
  7
COURIER_NEW
 72
         1
 11
13.75
 21
18.76
 31
0.0
100
AcDbText
 73
         2
  0
TEXT
  5
3B2
100
AcDbEntity
  8
PIN_NUMBERS_TOP
100
AcDbText
 10
13.596204
 20
18.537496
 30
0.0
 40
0.508
  1
59D
  7
COURIER_NEW
 72
         1
 11
14.25
 21
18.76
 31
0.0
100
AcDbText
 73
         2
  0
TEXT
  5
3B3
100
AcDbEntity
  8
PIN_NUMBERS_TOP
100
AcDbText
 10
14.096204
 20
18.537496
 30
0.0
 40
0.508
  1
60D
  7
COURIER_NEW
 72
         1
 11
14.75
 21
18.76
 31
0.0
100
AcDbText
 73
         2
  0
TEXT
  5
3B4
100
AcDbEntity
  8
PIN_NUMBERS_TOP
100
AcDbText
 10
-22.217932
 20
-16.722504
 30
0.0
 40
0.508
  1
1
  7
COURIER_NEW
 72
         1
 11
-22.0
 21
-16.5
 31
0.0
100
AcDbText
 73
         2
  0
TEXT
  5
3B5
100
AcDbEntity
  8
PIN_NUMBERS_TOP
100
AcDbText
 10
21.782068
 20
-16.722504
 30
0.0
 40
0.508
  1
2
  7
COURIER_NEW
 72
         1
 11
22.0
 21
-16.5
 31
0.0
100
AcDbText
 73
         2
  0
TEXT
  5
3B6
100
AcDbEntity
  8
PIN_NUMBERS_TOP
100
AcDbText
 10
-22.217932
 20
16.277496
 30
0.0
 40
0.508
  1
4
  7
COURIER_NEW
 72
         1
 11
-22.0
 21
16.5
 31
0.0
100
AcDbText
 73
         2
  0
TEXT
  5
3B7
100
AcDbEntity
  8
PIN_NUMBERS_TOP
100
AcDbText
 10
21.782068
 20
16.277496
 30
0.0
 40
0.508
  1
3
  7
COURIER_NEW
 72
         1
 11
22.0
 21
16.5
 31
0.0
100
AcDbText
 73
         2
  0
LWPOLYLINE
  5
3B8
100
AcDbEntity
  8
SILKSCREEN_OUTLINES_TOP
100
AcDbPolyline
 90
        6
 70
         1
 10
-16.0
 20
-18.6845
 10
-17.5
 20
-17.1845
 10
-17.5
 20
-12.7155
 10
17.507454
 20
-12.7155
 10
17.507454
 20
-18.020536
 10
16.84349
 20
-18.6845
  0
LWPOLYLINE
  5
3B9
100
AcDbEntity
  8
SILKSCREEN_OUTLINES_TOP
100
AcDbPolyline
 90
        6
 70
         1
 10
-16.0
 20
12.7155
 10
-17.5
 20
14.2155
 10
-17.5
 20
18.6845
 10
17.507454
 20
18.6845
 10
17.507454
 20
13.379464
 10
16.84349
 20
12.7155
  0
LWPOLYLINE
  5
3BA
100
AcDbEntity
  8
SILKSCREEN_OUTLINES_TOP
100
AcDbPolyline
 90
        4
 70
         1
 43
0.15
 10
-27.504
 20
-22.5
 10
-27.504
 20
22.5
 10
27.496
 20
22.5
 10
27.496
 20
-22.5
  0
LWPOLYLINE
  5
3BB
100
AcDbEntity
  8
SILKSCREEN_OUTLINES_TOP
100
AcDbPolyline
 90
        2
 70
         0
 43
0.15
 10
-25.504
 20
20.5
 10
-22.3036
 20
20.5
  0
LWPOLYLINE
  5
3BC
100
AcDbEntity
  8
SILKSCREEN_OUTLINES_TOP
100
AcDbPolyline
 90
        2
 70
         0
 43
0.15
 10
-21.3535
 20
20.5
 10
-18.1531
 20
20.5
  0
LWPOLYLINE
  5
3BD
100
AcDbEntity
  8
SILKSCREEN_OUTLINES_TOP
100
AcDbPolyline
 90
        2
 70
         0
 43
0.15
 10
-17.203
 20
20.5
 10
-14.0026
 20
20.5
  0
LWPOLYLINE
  5
3BE
100
AcDbEntity
  8
SILKSCREEN_OUTLINES_TOP
100
AcDbPolyline
 90
        2
 70
         0
 43
0.15
 10
-13.0525
 20
20.5
 10
-9.8521
 20
20.5
  0
LWPOLYLINE
  5
3BF
100
AcDbEntity
  8
SILKSCREEN_OUTLINES_TOP
100
AcDbPolyline
 90
        2
 70
         0
 43
0.15
 10
-8.902
 20
20.5
 10
-5.7016
 20
20.5
  0
LWPOLYLINE
  5
3C0
100
AcDbEntity
  8
SILKSCREEN_OUTLINES_TOP
100
AcDbPolyline
 90
        2
 70
         0
 43
0.15
 10
-4.7515
 20
20.5
 10
-1.5511
 20
20.5
  0
LWPOLYLINE
  5
3C1
100
AcDbEntity
  8
SILKSCREEN_OUTLINES_TOP
100
AcDbPolyline
 90
        2
 70
         0
 43
0.15
 10
-0.601
 20
20.5
 10
2.5994
 20
20.5
  0
LWPOLYLINE
  5
3C2
100
AcDbEntity
  8
SILKSCREEN_OUTLINES_TOP
100
AcDbPolyline
 90
        2
 70
         0
 43
0.15
 10
3.5495
 20
20.5
 10
6.7499
 20
20.5
  0
LWPOLYLINE
  5
3C3
100
AcDbEntity
  8
SILKSCREEN_OUTLINES_TOP
100
AcDbPolyline
 90
        2
 70
         0
 43
0.15
 10
7.7
 20
20.5
 10
10.9004
 20
20.5
  0
LWPOLYLINE
  5
3C4
100
AcDbEntity
  8
SILKSCREEN_OUTLINES_TOP
100
AcDbPolyline
 90
        2
 70
         0
 43
0.15
 10
11.8505
 20
20.5
 10
15.0509
 20
20.5
  0
LWPOLYLINE
  5
3C5
100
AcDbEntity
  8
SILKSCREEN_OUTLINES_TOP
100
AcDbPolyline
 90
        2
 70
         0
 43
0.15
 10
16.001
 20
20.5
 10
19.2014
 20
20.5
  0
LWPOLYLINE
  5
3C6
100
AcDbEntity
  8
SILKSCREEN_OUTLINES_TOP
100
AcDbPolyline
 90
        2
 70
         0
 43
0.15
 10
20.1515
 20
20.5
 10
23.3519
 20
20.5
  0
LWPOLYLINE
  5
3C7
100
AcDbEntity
  8
SILKSCREEN_OUTLINES_TOP
100
AcDbPolyline
 90
        2
 70
         0
 43
0.15
 10
24.302
 20
20.5
 10
25.496
 20
20.5
  0
LWPOLYLINE
  5
3C8
100
AcDbEntity
  8
SILKSCREEN_OUTLINES_TOP
100
AcDbPolyline
 90
        2
 70
         0
 43
0.15
 10
25.496
 20
20.5
 10
25.496
 20
17.2996
  0
LWPOLYLINE
  5
3C9
100
AcDbEntity
  8
SILKSCREEN_OUTLINES_TOP
100
AcDbPolyline
 90
        2
 70
         0
 43
0.15
 10
25.496
 20
16.3495
 10
25.496
 20
13.1491
  0
LWPOLYLINE
  5
3CA
100
AcDbEntity
  8
SILKSCREEN_OUTLINES_TOP
100
AcDbPolyline
 90
        2
 70
         0
 43
0.15
 10
25.496
 20
12.199
 10
25.496
 20
8.9986
  0
LWPOLYLINE
  5
3CB
100
AcDbEntity
  8
SILKSCREEN_OUTLINES_TOP
100
AcDbPolyline
 90
        2
 70
         0
 43
0.15
 10
25.496
 20
8.0485
 10
25.496
 20
4.8481
  0
LWPOLYLINE
  5
3CC
100
AcDbEntity
  8
SILKSCREEN_OUTLINES_TOP
100
AcDbPolyline
 90
        2
 70
         0
 43
0.15
 10
25.496
 20
3.898
 10
25.496
 20
0.6976
  0
LWPOLYLINE
  5
3CD
100
AcDbEntity
  8
SILKSCREEN_OUTLINES_TOP
100
AcDbPolyline
 90
        2
 70
         0
 43
0.15
 10
25.496
 20
-0.2525
 10
25.496
 20
-3.4529
  0
LWPOLYLINE
  5
3CE
100
AcDbEntity
  8
SILKSCREEN_OUTLINES_TOP
100
AcDbPolyline
 90
        2
 70
         0
 43
0.15
 10
25.496
 20
-4.403
 10
25.496
 20
-7.6034
  0
LWPOLYLINE
  5
3CF
100
AcDbEntity
  8
SILKSCREEN_OUTLINES_TOP
100
AcDbPolyline
 90
        2
 70
         0
 43
0.15
 10
25.496
 20
-8.5535
 10
25.496
 20
-11.7539
  0
LWPOLYLINE
  5
3D0
100
AcDbEntity
  8
SILKSCREEN_OUTLINES_TOP
100
AcDbPolyline
 90
        2
 70
         0
 43
0.15
 10
25.496
 20
-12.704
 10
25.496
 20
-15.9044
  0
LWPOLYLINE
  5
3D1
100
AcDbEntity
  8
SILKSCREEN_OUTLINES_TOP
100
AcDbPolyline
 90
        2
 70
         0
 43
0.15
 10
25.496
 20
-16.8545
 10
25.496
 20
-20.0549
  0
LWPOLYLINE
  5
3D2
100
AcDbEntity
  8
SILKSCREEN_OUTLINES_TOP
100
AcDbPolyline
 90
        2
 70
         0
 43
0.15
 10
-25.504
 20
-20.5
 10
-22.3036
 20
-20.5
  0
LWPOLYLINE
  5
3D3
100
AcDbEntity
  8
SILKSCREEN_OUTLINES_TOP
100
AcDbPolyline
 90
        2
 70
         0
 43
0.15
 10
-21.3535
 20
-20.5
 10
-18.1531
 20
-20.5
  0
LWPOLYLINE
  5
3D4
100
AcDbEntity
  8
SILKSCREEN_OUTLINES_TOP
100
AcDbPolyline
 90
        2
 70
         0
 43
0.15
 10
-17.203
 20
-20.5
 10
-14.0026
 20
-20.5
  0
LWPOLYLINE
  5
3D5
100
AcDbEntity
  8
SILKSCREEN_OUTLINES_TOP
100
AcDbPolyline
 90
        2
 70
         0
 43
0.15
 10
-13.0525
 20
-20.5
 10
-9.8521
 20
-20.5
  0
LWPOLYLINE
  5
3D6
100
AcDbEntity
  8
SILKSCREEN_OUTLINES_TOP
100
AcDbPolyline
 90
        2
 70
         0
 43
0.15
 10
-8.902
 20
-20.5
 10
-5.7016
 20
-20.5
  0
LWPOLYLINE
  5
3D7
100
AcDbEntity
  8
SILKSCREEN_OUTLINES_TOP
100
AcDbPolyline
 90
        2
 70
         0
 43
0.15
 10
-4.7515
 20
-20.5
 10
-1.5511
 20
-20.5
  0
LWPOLYLINE
  5
3D8
100
AcDbEntity
  8
SILKSCREEN_OUTLINES_TOP
100
AcDbPolyline
 90
        2
 70
         0
 43
0.15
 10
-0.601
 20
-20.5
 10
2.5994
 20
-20.5
  0
LWPOLYLINE
  5
3D9
100
AcDbEntity
  8
SILKSCREEN_OUTLINES_TOP
100
AcDbPolyline
 90
        2
 70
         0
 43
0.15
 10
3.5495
 20
-20.5
 10
6.7499
 20
-20.5
  0
LWPOLYLINE
  5
3DA
100
AcDbEntity
  8
SILKSCREEN_OUTLINES_TOP
100
AcDbPolyline
 90
        2
 70
         0
 43
0.15
 10
7.7
 20
-20.5
 10
10.9004
 20
-20.5
  0
LWPOLYLINE
  5
3DB
100
AcDbEntity
  8
SILKSCREEN_OUTLINES_TOP
100
AcDbPolyline
 90
        2
 70
         0
 43
0.15
 10
11.8505
 20
-20.5
 10
15.0509
 20
-20.5
  0
LWPOLYLINE
  5
3DC
100
AcDbEntity
  8
SILKSCREEN_OUTLINES_TOP
100
AcDbPolyline
 90
        2
 70
         0
 43
0.15
 10
16.001
 20
-20.5
 10
19.2014
 20
-20.5
  0
LWPOLYLINE
  5
3DD
100
AcDbEntity
  8
SILKSCREEN_OUTLINES_TOP
100
AcDbPolyline
 90
        2
 70
         0
 43
0.15
 10
20.1515
 20
-20.5
 10
23.3519
 20
-20.5
  0
LWPOLYLINE
  5
3DE
100
AcDbEntity
  8
SILKSCREEN_OUTLINES_TOP
100
AcDbPolyline
 90
        2
 70
         0
 43
0.15
 10
24.302
 20
-20.5
 10
25.496
 20
-20.5
  0
LWPOLYLINE
  5
3DF
100
AcDbEntity
  8
SILKSCREEN_OUTLINES_TOP
100
AcDbPolyline
 90
        2
 70
         0
 43
0.15
 10
-25.504
 20
-20.5
 10
-25.504
 20
-17.2996
  0
LWPOLYLINE
  5
3E0
100
AcDbEntity
  8
SILKSCREEN_OUTLINES_TOP
100
AcDbPolyline
 90
        2
 70
         0
 43
0.15
 10
-25.504
 20
-16.3495
 10
-25.504
 20
-13.1491
  0
LWPOLYLINE
  5
3E1
100
AcDbEntity
  8
SILKSCREEN_OUTLINES_TOP
100
AcDbPolyline
 90
        2
 70
         0
 43
0.15
 10
-25.504
 20
-12.199
 10
-25.504
 20
-8.9986
  0
LWPOLYLINE
  5
3E2
100
AcDbEntity
  8
SILKSCREEN_OUTLINES_TOP
100
AcDbPolyline
 90
        2
 70
         0
 43
0.15
 10
-25.504
 20
-8.0485
 10
-25.504
 20
-4.8481
  0
LWPOLYLINE
  5
3E3
100
AcDbEntity
  8
SILKSCREEN_OUTLINES_TOP
100
AcDbPolyline
 90
        2
 70
         0
 43
0.15
 10
-25.504
 20
-3.898
 10
-25.504
 20
-0.6976
  0
LWPOLYLINE
  5
3E4
100
AcDbEntity
  8
SILKSCREEN_OUTLINES_TOP
100
AcDbPolyline
 90
        2
 70
         0
 43
0.15
 10
-25.504
 20
0.2525
 10
-25.504
 20
3.4529
  0
LWPOLYLINE
  5
3E5
100
AcDbEntity
  8
SILKSCREEN_OUTLINES_TOP
100
AcDbPolyline
 90
        2
 70
         0
 43
0.15
 10
-25.504
 20
4.403
 10
-25.504
 20
7.6034
  0
LWPOLYLINE
  5
3E6
100
AcDbEntity
  8
SILKSCREEN_OUTLINES_TOP
100
AcDbPolyline
 90
        2
 70
         0
 43
0.15
 10
-25.504
 20
8.5535
 10
-25.504
 20
11.7539
  0
LWPOLYLINE
  5
3E7
100
AcDbEntity
  8
SILKSCREEN_OUTLINES_TOP
100
AcDbPolyline
 90
        2
 70
         0
 43
0.15
 10
-25.504
 20
12.704
 10
-25.504
 20
15.9044
  0
LWPOLYLINE
  5
3E8
100
AcDbEntity
  8
SILKSCREEN_OUTLINES_TOP
100
AcDbPolyline
 90
        2
 70
         0
 43
0.15
 10
-25.504
 20
16.8545
 10
-25.504
 20
20.0549
  0
LWPOLYLINE
  5
3E9
100
AcDbEntity
  8
SOLDERMASK_PADS_TOP
100
AcDbPolyline
 90
        4
 70
         1
 10
-14.9
 20
-19.51
 10
-14.9
 20
-18.01
 10
-14.6
 20
-18.01
 10
-14.6
 20
-19.51
  0
LWPOLYLINE
  5
3EA
100
AcDbEntity
  8
SOLDERMASK_PADS_TOP
100
AcDbPolyline
 90
        4
 70
         1
 10
-14.4
 20
-19.51
 10
-14.4
 20
-18.01
 10
-14.1
 20
-18.01
 10
-14.1
 20
-19.51
  0
LWPOLYLINE
  5
3EB
100
AcDbEntity
  8
SOLDERMASK_PADS_TOP
100
AcDbPolyline
 90
        4
 70
         1
 10
-13.9
 20
-19.51
 10
-13.9
 20
-18.01
 10
-13.6
 20
-18.01
 10
-13.6
 20
-19.51
  0
LWPOLYLINE
  5
3EC
100
AcDbEntity
  8
SOLDERMASK_PADS_TOP
100
AcDbPolyline
 90
        4
 70
         1
 10
-13.4
 20
-19.51
 10
-13.4
 20
-18.01
 10
-13.1
 20
-18.01
 10
-13.1
 20
-19.51
  0
LWPOLYLINE
  5
3ED
100
AcDbEntity
  8
SOLDERMASK_PADS_TOP
100
AcDbPolyline
 90
        4
 70
         1
 10
-12.9
 20
-19.51
 10
-12.9
 20
-18.01
 10
-12.6
 20
-18.01
 10
-12.6
 20
-19.51
  0
LWPOLYLINE
  5
3EE
100
AcDbEntity
  8
SOLDERMASK_PADS_TOP
100
AcDbPolyline
 90
        4
 70
         1
 10
-12.4
 20
-19.51
 10
-12.4
 20
-18.01
 10
-12.1
 20
-18.01
 10
-12.1
 20
-19.51
  0
LWPOLYLINE
  5
3EF
100
AcDbEntity
  8
SOLDERMASK_PADS_TOP
100
AcDbPolyline
 90
        4
 70
         1
 10
-11.9
 20
-19.51
 10
-11.9
 20
-18.01
 10
-11.6
 20
-18.01
 10
-11.6
 20
-19.51
  0
LWPOLYLINE
  5
3F0
100
AcDbEntity
  8
SOLDERMASK_PADS_TOP
100
AcDbPolyline
 90
        4
 70
         1
 10
-11.4
 20
-19.51
 10
-11.4
 20
-18.01
 10
-11.1
 20
-18.01
 10
-11.1
 20
-19.51
  0
LWPOLYLINE
  5
3F1
100
AcDbEntity
  8
SOLDERMASK_PADS_TOP
100
AcDbPolyline
 90
        4
 70
         1
 10
-10.9
 20
-19.51
 10
-10.9
 20
-18.01
 10
-10.6
 20
-18.01
 10
-10.6
 20
-19.51
  0
LWPOLYLINE
  5
3F2
100
AcDbEntity
  8
SOLDERMASK_PADS_TOP
100
AcDbPolyline
 90
        4
 70
         1
 10
-10.4
 20
-19.51
 10
-10.4
 20
-18.01
 10
-10.1
 20
-18.01
 10
-10.1
 20
-19.51
  0
LWPOLYLINE
  5
3F3
100
AcDbEntity
  8
SOLDERMASK_PADS_TOP
100
AcDbPolyline
 90
        4
 70
         1
 10
-9.9
 20
-19.51
 10
-9.9
 20
-18.01
 10
-9.6
 20
-18.01
 10
-9.6
 20
-19.51
  0
LWPOLYLINE
  5
3F4
100
AcDbEntity
  8
SOLDERMASK_PADS_TOP
100
AcDbPolyline
 90
        4
 70
         1
 10
-9.4
 20
-19.51
 10
-9.4
 20
-18.01
 10
-9.1
 20
-18.01
 10
-9.1
 20
-19.51
  0
LWPOLYLINE
  5
3F5
100
AcDbEntity
  8
SOLDERMASK_PADS_TOP
100
AcDbPolyline
 90
        4
 70
         1
 10
-8.9
 20
-19.51
 10
-8.9
 20
-18.01
 10
-8.6
 20
-18.01
 10
-8.6
 20
-19.51
  0
LWPOLYLINE
  5
3F6
100
AcDbEntity
  8
SOLDERMASK_PADS_TOP
100
AcDbPolyline
 90
        4
 70
         1
 10
-8.4
 20
-19.51
 10
-8.4
 20
-18.01
 10
-8.1
 20
-18.01
 10
-8.1
 20
-19.51
  0
LWPOLYLINE
  5
3F7
100
AcDbEntity
  8
SOLDERMASK_PADS_TOP
100
AcDbPolyline
 90
        4
 70
         1
 10
-7.9
 20
-19.51
 10
-7.9
 20
-18.01
 10
-7.6
 20
-18.01
 10
-7.6
 20
-19.51
  0
LWPOLYLINE
  5
3F8
100
AcDbEntity
  8
SOLDERMASK_PADS_TOP
100
AcDbPolyline
 90
        4
 70
         1
 10
-7.4
 20
-19.51
 10
-7.4
 20
-18.01
 10
-7.1
 20
-18.01
 10
-7.1
 20
-19.51
  0
LWPOLYLINE
  5
3F9
100
AcDbEntity
  8
SOLDERMASK_PADS_TOP
100
AcDbPolyline
 90
        4
 70
         1
 10
-6.9
 20
-19.51
 10
-6.9
 20
-18.01
 10
-6.6
 20
-18.01
 10
-6.6
 20
-19.51
  0
LWPOLYLINE
  5
3FA
100
AcDbEntity
  8
SOLDERMASK_PADS_TOP
100
AcDbPolyline
 90
        4
 70
         1
 10
-6.4
 20
-19.51
 10
-6.4
 20
-18.01
 10
-6.1
 20
-18.01
 10
-6.1
 20
-19.51
  0
LWPOLYLINE
  5
3FB
100
AcDbEntity
  8
SOLDERMASK_PADS_TOP
100
AcDbPolyline
 90
        4
 70
         1
 10
-5.9
 20
-19.51
 10
-5.9
 20
-18.01
 10
-5.6
 20
-18.01
 10
-5.6
 20
-19.51
  0
LWPOLYLINE
  5
3FC
100
AcDbEntity
  8
SOLDERMASK_PADS_TOP
100
AcDbPolyline
 90
        4
 70
         1
 10
-5.4
 20
-19.51
 10
-5.4
 20
-18.01
 10
-5.1
 20
-18.01
 10
-5.1
 20
-19.51
  0
LWPOLYLINE
  5
3FD
100
AcDbEntity
  8
SOLDERMASK_PADS_TOP
100
AcDbPolyline
 90
        4
 70
         1
 10
-4.9
 20
-19.51
 10
-4.9
 20
-18.01
 10
-4.6
 20
-18.01
 10
-4.6
 20
-19.51
  0
LWPOLYLINE
  5
3FE
100
AcDbEntity
  8
SOLDERMASK_PADS_TOP
100
AcDbPolyline
 90
        4
 70
         1
 10
-4.4
 20
-19.51
 10
-4.4
 20
-18.01
 10
-4.1
 20
-18.01
 10
-4.1
 20
-19.51
  0
LWPOLYLINE
  5
3FF
100
AcDbEntity
  8
SOLDERMASK_PADS_TOP
100
AcDbPolyline
 90
        4
 70
         1
 10
-3.9
 20
-19.51
 10
-3.9
 20
-18.01
 10
-3.6
 20
-18.01
 10
-3.6
 20
-19.51
  0
LWPOLYLINE
  5
400
100
AcDbEntity
  8
SOLDERMASK_PADS_TOP
100
AcDbPolyline
 90
        4
 70
         1
 10
-3.4
 20
-19.51
 10
-3.4
 20
-18.01
 10
-3.1
 20
-18.01
 10
-3.1
 20
-19.51
  0
LWPOLYLINE
  5
401
100
AcDbEntity
  8
SOLDERMASK_PADS_TOP
100
AcDbPolyline
 90
        4
 70
         1
 10
-2.9
 20
-19.51
 10
-2.9
 20
-18.01
 10
-2.6
 20
-18.01
 10
-2.6
 20
-19.51
  0
LWPOLYLINE
  5
402
100
AcDbEntity
  8
SOLDERMASK_PADS_TOP
100
AcDbPolyline
 90
        4
 70
         1
 10
-2.4
 20
-19.51
 10
-2.4
 20
-18.01
 10
-2.1
 20
-18.01
 10
-2.1
 20
-19.51
  0
LWPOLYLINE
  5
403
100
AcDbEntity
  8
SOLDERMASK_PADS_TOP
100
AcDbPolyline
 90
        4
 70
         1
 10
-1.9
 20
-19.51
 10
-1.9
 20
-18.01
 10
-1.6
 20
-18.01
 10
-1.6
 20
-19.51
  0
LWPOLYLINE
  5
404
100
AcDbEntity
  8
SOLDERMASK_PADS_TOP
100
AcDbPolyline
 90
        4
 70
         1
 10
-1.4
 20
-19.51
 10
-1.4
 20
-18.01
 10
-1.1
 20
-18.01
 10
-1.1
 20
-19.51
  0
LWPOLYLINE
  5
405
100
AcDbEntity
  8
SOLDERMASK_PADS_TOP
100
AcDbPolyline
 90
        4
 70
         1
 10
-0.9
 20
-19.51
 10
-0.9
 20
-18.01
 10
-0.6
 20
-18.01
 10
-0.6
 20
-19.51
  0
LWPOLYLINE
  5
406
100
AcDbEntity
  8
SOLDERMASK_PADS_TOP
100
AcDbPolyline
 90
        4
 70
         1
 10
-0.4
 20
-19.51
 10
-0.4
 20
-18.01
 10
-0.1
 20
-18.01
 10
-0.1
 20
-19.51
  0
LWPOLYLINE
  5
407
100
AcDbEntity
  8
SOLDERMASK_PADS_TOP
100
AcDbPolyline
 90
        4
 70
         1
 10
0.1
 20
-19.51
 10
0.1
 20
-18.01
 10
0.4
 20
-18.01
 10
0.4
 20
-19.51
  0
LWPOLYLINE
  5
408
100
AcDbEntity
  8
SOLDERMASK_PADS_TOP
100
AcDbPolyline
 90
        4
 70
         1
 10
0.6
 20
-19.51
 10
0.6
 20
-18.01
 10
0.9
 20
-18.01
 10
0.9
 20
-19.51
  0
LWPOLYLINE
  5
409
100
AcDbEntity
  8
SOLDERMASK_PADS_TOP
100
AcDbPolyline
 90
        4
 70
         1
 10
1.1
 20
-19.51
 10
1.1
 20
-18.01
 10
1.4
 20
-18.01
 10
1.4
 20
-19.51
  0
LWPOLYLINE
  5
40A
100
AcDbEntity
  8
SOLDERMASK_PADS_TOP
100
AcDbPolyline
 90
        4
 70
         1
 10
1.6
 20
-19.51
 10
1.6
 20
-18.01
 10
1.9
 20
-18.01
 10
1.9
 20
-19.51
  0
LWPOLYLINE
  5
40B
100
AcDbEntity
  8
SOLDERMASK_PADS_TOP
100
AcDbPolyline
 90
        4
 70
         1
 10
2.1
 20
-19.51
 10
2.1
 20
-18.01
 10
2.4
 20
-18.01
 10
2.4
 20
-19.51
  0
LWPOLYLINE
  5
40C
100
AcDbEntity
  8
SOLDERMASK_PADS_TOP
100
AcDbPolyline
 90
        4
 70
         1
 10
2.6
 20
-19.51
 10
2.6
 20
-18.01
 10
2.9
 20
-18.01
 10
2.9
 20
-19.51
  0
LWPOLYLINE
  5
40D
100
AcDbEntity
  8
SOLDERMASK_PADS_TOP
100
AcDbPolyline
 90
        4
 70
         1
 10
3.1
 20
-19.51
 10
3.1
 20
-18.01
 10
3.4
 20
-18.01
 10
3.4
 20
-19.51
  0
LWPOLYLINE
  5
40E
100
AcDbEntity
  8
SOLDERMASK_PADS_TOP
100
AcDbPolyline
 90
        4
 70
         1
 10
3.6
 20
-19.51
 10
3.6
 20
-18.01
 10
3.9
 20
-18.01
 10
3.9
 20
-19.51
  0
LWPOLYLINE
  5
40F
100
AcDbEntity
  8
SOLDERMASK_PADS_TOP
100
AcDbPolyline
 90
        4
 70
         1
 10
4.1
 20
-19.51
 10
4.1
 20
-18.01
 10
4.4
 20
-18.01
 10
4.4
 20
-19.51
  0
LWPOLYLINE
  5
410
100
AcDbEntity
  8
SOLDERMASK_PADS_TOP
100
AcDbPolyline
 90
        4
 70
         1
 10
4.6
 20
-19.51
 10
4.6
 20
-18.01
 10
4.9
 20
-18.01
 10
4.9
 20
-19.51
  0
LWPOLYLINE
  5
411
100
AcDbEntity
  8
SOLDERMASK_PADS_TOP
100
AcDbPolyline
 90
        4
 70
         1
 10
5.1
 20
-19.51
 10
5.1
 20
-18.01
 10
5.4
 20
-18.01
 10
5.4
 20
-19.51
  0
LWPOLYLINE
  5
412
100
AcDbEntity
  8
SOLDERMASK_PADS_TOP
100
AcDbPolyline
 90
        4
 70
         1
 10
5.6
 20
-19.51
 10
5.6
 20
-18.01
 10
5.9
 20
-18.01
 10
5.9
 20
-19.51
  0
LWPOLYLINE
  5
413
100
AcDbEntity
  8
SOLDERMASK_PADS_TOP
100
AcDbPolyline
 90
        4
 70
         1
 10
6.1
 20
-19.51
 10
6.1
 20
-18.01
 10
6.4
 20
-18.01
 10
6.4
 20
-19.51
  0
LWPOLYLINE
  5
414
100
AcDbEntity
  8
SOLDERMASK_PADS_TOP
100
AcDbPolyline
 90
        4
 70
         1
 10
6.6
 20
-19.51
 10
6.6
 20
-18.01
 10
6.9
 20
-18.01
 10
6.9
 20
-19.51
  0
LWPOLYLINE
  5
415
100
AcDbEntity
  8
SOLDERMASK_PADS_TOP
100
AcDbPolyline
 90
        4
 70
         1
 10
7.1
 20
-19.51
 10
7.1
 20
-18.01
 10
7.4
 20
-18.01
 10
7.4
 20
-19.51
  0
LWPOLYLINE
  5
416
100
AcDbEntity
  8
SOLDERMASK_PADS_TOP
100
AcDbPolyline
 90
        4
 70
         1
 10
7.6
 20
-19.51
 10
7.6
 20
-18.01
 10
7.9
 20
-18.01
 10
7.9
 20
-19.51
  0
LWPOLYLINE
  5
417
100
AcDbEntity
  8
SOLDERMASK_PADS_TOP
100
AcDbPolyline
 90
        4
 70
         1
 10
8.1
 20
-19.51
 10
8.1
 20
-18.01
 10
8.4
 20
-18.01
 10
8.4
 20
-19.51
  0
LWPOLYLINE
  5
418
100
AcDbEntity
  8
SOLDERMASK_PADS_TOP
100
AcDbPolyline
 90
        4
 70
         1
 10
8.6
 20
-19.51
 10
8.6
 20
-18.01
 10
8.9
 20
-18.01
 10
8.9
 20
-19.51
  0
LWPOLYLINE
  5
419
100
AcDbEntity
  8
SOLDERMASK_PADS_TOP
100
AcDbPolyline
 90
        4
 70
         1
 10
9.1
 20
-19.51
 10
9.1
 20
-18.01
 10
9.4
 20
-18.01
 10
9.4
 20
-19.51
  0
LWPOLYLINE
  5
41A
100
AcDbEntity
  8
SOLDERMASK_PADS_TOP
100
AcDbPolyline
 90
        4
 70
         1
 10
9.6
 20
-19.51
 10
9.6
 20
-18.01
 10
9.9
 20
-18.01
 10
9.9
 20
-19.51
  0
LWPOLYLINE
  5
41B
100
AcDbEntity
  8
SOLDERMASK_PADS_TOP
100
AcDbPolyline
 90
        4
 70
         1
 10
10.1
 20
-19.51
 10
10.1
 20
-18.01
 10
10.4
 20
-18.01
 10
10.4
 20
-19.51
  0
LWPOLYLINE
  5
41C
100
AcDbEntity
  8
SOLDERMASK_PADS_TOP
100
AcDbPolyline
 90
        4
 70
         1
 10
10.6
 20
-19.51
 10
10.6
 20
-18.01
 10
10.9
 20
-18.01
 10
10.9
 20
-19.51
  0
LWPOLYLINE
  5
41D
100
AcDbEntity
  8
SOLDERMASK_PADS_TOP
100
AcDbPolyline
 90
        4
 70
         1
 10
11.1
 20
-19.51
 10
11.1
 20
-18.01
 10
11.4
 20
-18.01
 10
11.4
 20
-19.51
  0
LWPOLYLINE
  5
41E
100
AcDbEntity
  8
SOLDERMASK_PADS_TOP
100
AcDbPolyline
 90
        4
 70
         1
 10
11.6
 20
-19.51
 10
11.6
 20
-18.01
 10
11.9
 20
-18.01
 10
11.9
 20
-19.51
  0
LWPOLYLINE
  5
41F
100
AcDbEntity
  8
SOLDERMASK_PADS_TOP
100
AcDbPolyline
 90
        4
 70
         1
 10
12.1
 20
-19.51
 10
12.1
 20
-18.01
 10
12.4
 20
-18.01
 10
12.4
 20
-19.51
  0
LWPOLYLINE
  5
420
100
AcDbEntity
  8
SOLDERMASK_PADS_TOP
100
AcDbPolyline
 90
        4
 70
         1
 10
12.6
 20
-19.51
 10
12.6
 20
-18.01
 10
12.9
 20
-18.01
 10
12.9
 20
-19.51
  0
LWPOLYLINE
  5
421
100
AcDbEntity
  8
SOLDERMASK_PADS_TOP
100
AcDbPolyline
 90
        4
 70
         1
 10
13.1
 20
-19.51
 10
13.1
 20
-18.01
 10
13.4
 20
-18.01
 10
13.4
 20
-19.51
  0
LWPOLYLINE
  5
422
100
AcDbEntity
  8
SOLDERMASK_PADS_TOP
100
AcDbPolyline
 90
        4
 70
         1
 10
13.6
 20
-19.51
 10
13.6
 20
-18.01
 10
13.9
 20
-18.01
 10
13.9
 20
-19.51
  0
LWPOLYLINE
  5
423
100
AcDbEntity
  8
SOLDERMASK_PADS_TOP
100
AcDbPolyline
 90
        4
 70
         1
 10
14.1
 20
-19.51
 10
14.1
 20
-18.01
 10
14.4
 20
-18.01
 10
14.4
 20
-19.51
  0
LWPOLYLINE
  5
424
100
AcDbEntity
  8
SOLDERMASK_PADS_TOP
100
AcDbPolyline
 90
        4
 70
         1
 10
14.6
 20
-19.51
 10
14.6
 20
-18.01
 10
14.9
 20
-18.01
 10
14.9
 20
-19.51
  0
LWPOLYLINE
  5
425
100
AcDbEntity
  8
SOLDERMASK_PADS_TOP
100
AcDbPolyline
 90
        4
 70
         1
 10
-14.9
 20
-13.39
 10
-14.9
 20
-11.89
 10
-14.6
 20
-11.89
 10
-14.6
 20
-13.39
  0
LWPOLYLINE
  5
426
100
AcDbEntity
  8
SOLDERMASK_PADS_TOP
100
AcDbPolyline
 90
        4
 70
         1
 10
-14.4
 20
-13.39
 10
-14.4
 20
-11.89
 10
-14.1
 20
-11.89
 10
-14.1
 20
-13.39
  0
LWPOLYLINE
  5
427
100
AcDbEntity
  8
SOLDERMASK_PADS_TOP
100
AcDbPolyline
 90
        4
 70
         1
 10
-13.9
 20
-13.39
 10
-13.9
 20
-11.89
 10
-13.6
 20
-11.89
 10
-13.6
 20
-13.39
  0
LWPOLYLINE
  5
428
100
AcDbEntity
  8
SOLDERMASK_PADS_TOP
100
AcDbPolyline
 90
        4
 70
         1
 10
-13.4
 20
-13.39
 10
-13.4
 20
-11.89
 10
-13.1
 20
-11.89
 10
-13.1
 20
-13.39
  0
LWPOLYLINE
  5
429
100
AcDbEntity
  8
SOLDERMASK_PADS_TOP
100
AcDbPolyline
 90
        4
 70
         1
 10
-12.9
 20
-13.39
 10
-12.9
 20
-11.89
 10
-12.6
 20
-11.89
 10
-12.6
 20
-13.39
  0
LWPOLYLINE
  5
42A
100
AcDbEntity
  8
SOLDERMASK_PADS_TOP
100
AcDbPolyline
 90
        4
 70
         1
 10
-12.4
 20
-13.39
 10
-12.4
 20
-11.89
 10
-12.1
 20
-11.89
 10
-12.1
 20
-13.39
  0
LWPOLYLINE
  5
42B
100
AcDbEntity
  8
SOLDERMASK_PADS_TOP
100
AcDbPolyline
 90
        4
 70
         1
 10
-11.9
 20
-13.39
 10
-11.9
 20
-11.89
 10
-11.6
 20
-11.89
 10
-11.6
 20
-13.39
  0
LWPOLYLINE
  5
42C
100
AcDbEntity
  8
SOLDERMASK_PADS_TOP
100
AcDbPolyline
 90
        4
 70
         1
 10
-11.4
 20
-13.39
 10
-11.4
 20
-11.89
 10
-11.1
 20
-11.89
 10
-11.1
 20
-13.39
  0
LWPOLYLINE
  5
42D
100
AcDbEntity
  8
SOLDERMASK_PADS_TOP
100
AcDbPolyline
 90
        4
 70
         1
 10
-10.9
 20
-13.39
 10
-10.9
 20
-11.89
 10
-10.6
 20
-11.89
 10
-10.6
 20
-13.39
  0
LWPOLYLINE
  5
42E
100
AcDbEntity
  8
SOLDERMASK_PADS_TOP
100
AcDbPolyline
 90
        4
 70
         1
 10
-10.4
 20
-13.39
 10
-10.4
 20
-11.89
 10
-10.1
 20
-11.89
 10
-10.1
 20
-13.39
  0
LWPOLYLINE
  5
42F
100
AcDbEntity
  8
SOLDERMASK_PADS_TOP
100
AcDbPolyline
 90
        4
 70
         1
 10
-9.9
 20
-13.39
 10
-9.9
 20
-11.89
 10
-9.6
 20
-11.89
 10
-9.6
 20
-13.39
  0
LWPOLYLINE
  5
430
100
AcDbEntity
  8
SOLDERMASK_PADS_TOP
100
AcDbPolyline
 90
        4
 70
         1
 10
-9.4
 20
-13.39
 10
-9.4
 20
-11.89
 10
-9.1
 20
-11.89
 10
-9.1
 20
-13.39
  0
LWPOLYLINE
  5
431
100
AcDbEntity
  8
SOLDERMASK_PADS_TOP
100
AcDbPolyline
 90
        4
 70
         1
 10
-8.9
 20
-13.39
 10
-8.9
 20
-11.89
 10
-8.6
 20
-11.89
 10
-8.6
 20
-13.39
  0
LWPOLYLINE
  5
432
100
AcDbEntity
  8
SOLDERMASK_PADS_TOP
100
AcDbPolyline
 90
        4
 70
         1
 10
-8.4
 20
-13.39
 10
-8.4
 20
-11.89
 10
-8.1
 20
-11.89
 10
-8.1
 20
-13.39
  0
LWPOLYLINE
  5
433
100
AcDbEntity
  8
SOLDERMASK_PADS_TOP
100
AcDbPolyline
 90
        4
 70
         1
 10
-7.9
 20
-13.39
 10
-7.9
 20
-11.89
 10
-7.6
 20
-11.89
 10
-7.6
 20
-13.39
  0
LWPOLYLINE
  5
434
100
AcDbEntity
  8
SOLDERMASK_PADS_TOP
100
AcDbPolyline
 90
        4
 70
         1
 10
-7.4
 20
-13.39
 10
-7.4
 20
-11.89
 10
-7.1
 20
-11.89
 10
-7.1
 20
-13.39
  0
LWPOLYLINE
  5
435
100
AcDbEntity
  8
SOLDERMASK_PADS_TOP
100
AcDbPolyline
 90
        4
 70
         1
 10
-6.9
 20
-13.39
 10
-6.9
 20
-11.89
 10
-6.6
 20
-11.89
 10
-6.6
 20
-13.39
  0
LWPOLYLINE
  5
436
100
AcDbEntity
  8
SOLDERMASK_PADS_TOP
100
AcDbPolyline
 90
        4
 70
         1
 10
-6.4
 20
-13.39
 10
-6.4
 20
-11.89
 10
-6.1
 20
-11.89
 10
-6.1
 20
-13.39
  0
LWPOLYLINE
  5
437
100
AcDbEntity
  8
SOLDERMASK_PADS_TOP
100
AcDbPolyline
 90
        4
 70
         1
 10
-5.9
 20
-13.39
 10
-5.9
 20
-11.89
 10
-5.6
 20
-11.89
 10
-5.6
 20
-13.39
  0
LWPOLYLINE
  5
438
100
AcDbEntity
  8
SOLDERMASK_PADS_TOP
100
AcDbPolyline
 90
        4
 70
         1
 10
-5.4
 20
-13.39
 10
-5.4
 20
-11.89
 10
-5.1
 20
-11.89
 10
-5.1
 20
-13.39
  0
LWPOLYLINE
  5
439
100
AcDbEntity
  8
SOLDERMASK_PADS_TOP
100
AcDbPolyline
 90
        4
 70
         1
 10
-4.9
 20
-13.39
 10
-4.9
 20
-11.89
 10
-4.6
 20
-11.89
 10
-4.6
 20
-13.39
  0
LWPOLYLINE
  5
43A
100
AcDbEntity
  8
SOLDERMASK_PADS_TOP
100
AcDbPolyline
 90
        4
 70
         1
 10
-4.4
 20
-13.39
 10
-4.4
 20
-11.89
 10
-4.1
 20
-11.89
 10
-4.1
 20
-13.39
  0
LWPOLYLINE
  5
43B
100
AcDbEntity
  8
SOLDERMASK_PADS_TOP
100
AcDbPolyline
 90
        4
 70
         1
 10
-3.9
 20
-13.39
 10
-3.9
 20
-11.89
 10
-3.6
 20
-11.89
 10
-3.6
 20
-13.39
  0
LWPOLYLINE
  5
43C
100
AcDbEntity
  8
SOLDERMASK_PADS_TOP
100
AcDbPolyline
 90
        4
 70
         1
 10
-3.4
 20
-13.39
 10
-3.4
 20
-11.89
 10
-3.1
 20
-11.89
 10
-3.1
 20
-13.39
  0
LWPOLYLINE
  5
43D
100
AcDbEntity
  8
SOLDERMASK_PADS_TOP
100
AcDbPolyline
 90
        4
 70
         1
 10
-2.9
 20
-13.39
 10
-2.9
 20
-11.89
 10
-2.6
 20
-11.89
 10
-2.6
 20
-13.39
  0
LWPOLYLINE
  5
43E
100
AcDbEntity
  8
SOLDERMASK_PADS_TOP
100
AcDbPolyline
 90
        4
 70
         1
 10
-2.4
 20
-13.39
 10
-2.4
 20
-11.89
 10
-2.1
 20
-11.89
 10
-2.1
 20
-13.39
  0
LWPOLYLINE
  5
43F
100
AcDbEntity
  8
SOLDERMASK_PADS_TOP
100
AcDbPolyline
 90
        4
 70
         1
 10
-1.9
 20
-13.39
 10
-1.9
 20
-11.89
 10
-1.6
 20
-11.89
 10
-1.6
 20
-13.39
  0
LWPOLYLINE
  5
440
100
AcDbEntity
  8
SOLDERMASK_PADS_TOP
100
AcDbPolyline
 90
        4
 70
         1
 10
-1.4
 20
-13.39
 10
-1.4
 20
-11.89
 10
-1.1
 20
-11.89
 10
-1.1
 20
-13.39
  0
LWPOLYLINE
  5
441
100
AcDbEntity
  8
SOLDERMASK_PADS_TOP
100
AcDbPolyline
 90
        4
 70
         1
 10
-0.9
 20
-13.39
 10
-0.9
 20
-11.89
 10
-0.6
 20
-11.89
 10
-0.6
 20
-13.39
  0
LWPOLYLINE
  5
442
100
AcDbEntity
  8
SOLDERMASK_PADS_TOP
100
AcDbPolyline
 90
        4
 70
         1
 10
-0.4
 20
-13.39
 10
-0.4
 20
-11.89
 10
-0.1
 20
-11.89
 10
-0.1
 20
-13.39
  0
LWPOLYLINE
  5
443
100
AcDbEntity
  8
SOLDERMASK_PADS_TOP
100
AcDbPolyline
 90
        4
 70
         1
 10
0.1
 20
-13.39
 10
0.1
 20
-11.89
 10
0.4
 20
-11.89
 10
0.4
 20
-13.39
  0
LWPOLYLINE
  5
444
100
AcDbEntity
  8
SOLDERMASK_PADS_TOP
100
AcDbPolyline
 90
        4
 70
         1
 10
0.6
 20
-13.39
 10
0.6
 20
-11.89
 10
0.9
 20
-11.89
 10
0.9
 20
-13.39
  0
LWPOLYLINE
  5
445
100
AcDbEntity
  8
SOLDERMASK_PADS_TOP
100
AcDbPolyline
 90
        4
 70
         1
 10
1.1
 20
-13.39
 10
1.1
 20
-11.89
 10
1.4
 20
-11.89
 10
1.4
 20
-13.39
  0
LWPOLYLINE
  5
446
100
AcDbEntity
  8
SOLDERMASK_PADS_TOP
100
AcDbPolyline
 90
        4
 70
         1
 10
1.6
 20
-13.39
 10
1.6
 20
-11.89
 10
1.9
 20
-11.89
 10
1.9
 20
-13.39
  0
LWPOLYLINE
  5
447
100
AcDbEntity
  8
SOLDERMASK_PADS_TOP
100
AcDbPolyline
 90
        4
 70
         1
 10
2.1
 20
-13.39
 10
2.1
 20
-11.89
 10
2.4
 20
-11.89
 10
2.4
 20
-13.39
  0
LWPOLYLINE
  5
448
100
AcDbEntity
  8
SOLDERMASK_PADS_TOP
100
AcDbPolyline
 90
        4
 70
         1
 10
2.6
 20
-13.39
 10
2.6
 20
-11.89
 10
2.9
 20
-11.89
 10
2.9
 20
-13.39
  0
LWPOLYLINE
  5
449
100
AcDbEntity
  8
SOLDERMASK_PADS_TOP
100
AcDbPolyline
 90
        4
 70
         1
 10
3.1
 20
-13.39
 10
3.1
 20
-11.89
 10
3.4
 20
-11.89
 10
3.4
 20
-13.39
  0
LWPOLYLINE
  5
44A
100
AcDbEntity
  8
SOLDERMASK_PADS_TOP
100
AcDbPolyline
 90
        4
 70
         1
 10
3.6
 20
-13.39
 10
3.6
 20
-11.89
 10
3.9
 20
-11.89
 10
3.9
 20
-13.39
  0
LWPOLYLINE
  5
44B
100
AcDbEntity
  8
SOLDERMASK_PADS_TOP
100
AcDbPolyline
 90
        4
 70
         1
 10
4.1
 20
-13.39
 10
4.1
 20
-11.89
 10
4.4
 20
-11.89
 10
4.4
 20
-13.39
  0
LWPOLYLINE
  5
44C
100
AcDbEntity
  8
SOLDERMASK_PADS_TOP
100
AcDbPolyline
 90
        4
 70
         1
 10
4.6
 20
-13.39
 10
4.6
 20
-11.89
 10
4.9
 20
-11.89
 10
4.9
 20
-13.39
  0
LWPOLYLINE
  5
44D
100
AcDbEntity
  8
SOLDERMASK_PADS_TOP
100
AcDbPolyline
 90
        4
 70
         1
 10
5.1
 20
-13.39
 10
5.1
 20
-11.89
 10
5.4
 20
-11.89
 10
5.4
 20
-13.39
  0
LWPOLYLINE
  5
44E
100
AcDbEntity
  8
SOLDERMASK_PADS_TOP
100
AcDbPolyline
 90
        4
 70
         1
 10
5.6
 20
-13.39
 10
5.6
 20
-11.89
 10
5.9
 20
-11.89
 10
5.9
 20
-13.39
  0
LWPOLYLINE
  5
44F
100
AcDbEntity
  8
SOLDERMASK_PADS_TOP
100
AcDbPolyline
 90
        4
 70
         1
 10
6.1
 20
-13.39
 10
6.1
 20
-11.89
 10
6.4
 20
-11.89
 10
6.4
 20
-13.39
  0
LWPOLYLINE
  5
450
100
AcDbEntity
  8
SOLDERMASK_PADS_TOP
100
AcDbPolyline
 90
        4
 70
         1
 10
6.6
 20
-13.39
 10
6.6
 20
-11.89
 10
6.9
 20
-11.89
 10
6.9
 20
-13.39
  0
LWPOLYLINE
  5
451
100
AcDbEntity
  8
SOLDERMASK_PADS_TOP
100
AcDbPolyline
 90
        4
 70
         1
 10
7.1
 20
-13.39
 10
7.1
 20
-11.89
 10
7.4
 20
-11.89
 10
7.4
 20
-13.39
  0
LWPOLYLINE
  5
452
100
AcDbEntity
  8
SOLDERMASK_PADS_TOP
100
AcDbPolyline
 90
        4
 70
         1
 10
7.6
 20
-13.39
 10
7.6
 20
-11.89
 10
7.9
 20
-11.89
 10
7.9
 20
-13.39
  0
LWPOLYLINE
  5
453
100
AcDbEntity
  8
SOLDERMASK_PADS_TOP
100
AcDbPolyline
 90
        4
 70
         1
 10
8.1
 20
-13.39
 10
8.1
 20
-11.89
 10
8.4
 20
-11.89
 10
8.4
 20
-13.39
  0
LWPOLYLINE
  5
454
100
AcDbEntity
  8
SOLDERMASK_PADS_TOP
100
AcDbPolyline
 90
        4
 70
         1
 10
8.6
 20
-13.39
 10
8.6
 20
-11.89
 10
8.9
 20
-11.89
 10
8.9
 20
-13.39
  0
LWPOLYLINE
  5
455
100
AcDbEntity
  8
SOLDERMASK_PADS_TOP
100
AcDbPolyline
 90
        4
 70
         1
 10
9.1
 20
-13.39
 10
9.1
 20
-11.89
 10
9.4
 20
-11.89
 10
9.4
 20
-13.39
  0
LWPOLYLINE
  5
456
100
AcDbEntity
  8
SOLDERMASK_PADS_TOP
100
AcDbPolyline
 90
        4
 70
         1
 10
9.6
 20
-13.39
 10
9.6
 20
-11.89
 10
9.9
 20
-11.89
 10
9.9
 20
-13.39
  0
LWPOLYLINE
  5
457
100
AcDbEntity
  8
SOLDERMASK_PADS_TOP
100
AcDbPolyline
 90
        4
 70
         1
 10
10.1
 20
-13.39
 10
10.1
 20
-11.89
 10
10.4
 20
-11.89
 10
10.4
 20
-13.39
  0
LWPOLYLINE
  5
458
100
AcDbEntity
  8
SOLDERMASK_PADS_TOP
100
AcDbPolyline
 90
        4
 70
         1
 10
10.6
 20
-13.39
 10
10.6
 20
-11.89
 10
10.9
 20
-11.89
 10
10.9
 20
-13.39
  0
LWPOLYLINE
  5
459
100
AcDbEntity
  8
SOLDERMASK_PADS_TOP
100
AcDbPolyline
 90
        4
 70
         1
 10
11.1
 20
-13.39
 10
11.1
 20
-11.89
 10
11.4
 20
-11.89
 10
11.4
 20
-13.39
  0
LWPOLYLINE
  5
45A
100
AcDbEntity
  8
SOLDERMASK_PADS_TOP
100
AcDbPolyline
 90
        4
 70
         1
 10
11.6
 20
-13.39
 10
11.6
 20
-11.89
 10
11.9
 20
-11.89
 10
11.9
 20
-13.39
  0
LWPOLYLINE
  5
45B
100
AcDbEntity
  8
SOLDERMASK_PADS_TOP
100
AcDbPolyline
 90
        4
 70
         1
 10
12.1
 20
-13.39
 10
12.1
 20
-11.89
 10
12.4
 20
-11.89
 10
12.4
 20
-13.39
  0
LWPOLYLINE
  5
45C
100
AcDbEntity
  8
SOLDERMASK_PADS_TOP
100
AcDbPolyline
 90
        4
 70
         1
 10
12.6
 20
-13.39
 10
12.6
 20
-11.89
 10
12.9
 20
-11.89
 10
12.9
 20
-13.39
  0
LWPOLYLINE
  5
45D
100
AcDbEntity
  8
SOLDERMASK_PADS_TOP
100
AcDbPolyline
 90
        4
 70
         1
 10
13.1
 20
-13.39
 10
13.1
 20
-11.89
 10
13.4
 20
-11.89
 10
13.4
 20
-13.39
  0
LWPOLYLINE
  5
45E
100
AcDbEntity
  8
SOLDERMASK_PADS_TOP
100
AcDbPolyline
 90
        4
 70
         1
 10
13.6
 20
-13.39
 10
13.6
 20
-11.89
 10
13.9
 20
-11.89
 10
13.9
 20
-13.39
  0
LWPOLYLINE
  5
45F
100
AcDbEntity
  8
SOLDERMASK_PADS_TOP
100
AcDbPolyline
 90
        4
 70
         1
 10
14.1
 20
-13.39
 10
14.1
 20
-11.89
 10
14.4
 20
-11.89
 10
14.4
 20
-13.39
  0
LWPOLYLINE
  5
460
100
AcDbEntity
  8
SOLDERMASK_PADS_TOP
100
AcDbPolyline
 90
        4
 70
         1
 10
14.6
 20
-13.39
 10
14.6
 20
-11.89
 10
14.9
 20
-11.89
 10
14.9
 20
-13.39
  0
LWPOLYLINE
  5
461
100
AcDbEntity
  8
SOLDERMASK_PADS_TOP
100
AcDbPolyline
 90
        4
 70
         1
 10
-14.9
 20
11.89
 10
-14.9
 20
13.39
 10
-14.6
 20
13.39
 10
-14.6
 20
11.89
  0
LWPOLYLINE
  5
462
100
AcDbEntity
  8
SOLDERMASK_PADS_TOP
100
AcDbPolyline
 90
        4
 70
         1
 10
-14.4
 20
11.89
 10
-14.4
 20
13.39
 10
-14.1
 20
13.39
 10
-14.1
 20
11.89
  0
LWPOLYLINE
  5
463
100
AcDbEntity
  8
SOLDERMASK_PADS_TOP
100
AcDbPolyline
 90
        4
 70
         1
 10
-13.9
 20
11.89
 10
-13.9
 20
13.39
 10
-13.6
 20
13.39
 10
-13.6
 20
11.89
  0
LWPOLYLINE
  5
464
100
AcDbEntity
  8
SOLDERMASK_PADS_TOP
100
AcDbPolyline
 90
        4
 70
         1
 10
-13.4
 20
11.89
 10
-13.4
 20
13.39
 10
-13.1
 20
13.39
 10
-13.1
 20
11.89
  0
LWPOLYLINE
  5
465
100
AcDbEntity
  8
SOLDERMASK_PADS_TOP
100
AcDbPolyline
 90
        4
 70
         1
 10
-12.9
 20
11.89
 10
-12.9
 20
13.39
 10
-12.6
 20
13.39
 10
-12.6
 20
11.89
  0
LWPOLYLINE
  5
466
100
AcDbEntity
  8
SOLDERMASK_PADS_TOP
100
AcDbPolyline
 90
        4
 70
         1
 10
-12.4
 20
11.89
 10
-12.4
 20
13.39
 10
-12.1
 20
13.39
 10
-12.1
 20
11.89
  0
LWPOLYLINE
  5
467
100
AcDbEntity
  8
SOLDERMASK_PADS_TOP
100
AcDbPolyline
 90
        4
 70
         1
 10
-11.9
 20
11.89
 10
-11.9
 20
13.39
 10
-11.6
 20
13.39
 10
-11.6
 20
11.89
  0
LWPOLYLINE
  5
468
100
AcDbEntity
  8
SOLDERMASK_PADS_TOP
100
AcDbPolyline
 90
        4
 70
         1
 10
-11.4
 20
11.89
 10
-11.4
 20
13.39
 10
-11.1
 20
13.39
 10
-11.1
 20
11.89
  0
LWPOLYLINE
  5
469
100
AcDbEntity
  8
SOLDERMASK_PADS_TOP
100
AcDbPolyline
 90
        4
 70
         1
 10
-10.9
 20
11.89
 10
-10.9
 20
13.39
 10
-10.6
 20
13.39
 10
-10.6
 20
11.89
  0
LWPOLYLINE
  5
46A
100
AcDbEntity
  8
SOLDERMASK_PADS_TOP
100
AcDbPolyline
 90
        4
 70
         1
 10
-10.4
 20
11.89
 10
-10.4
 20
13.39
 10
-10.1
 20
13.39
 10
-10.1
 20
11.89
  0
LWPOLYLINE
  5
46B
100
AcDbEntity
  8
SOLDERMASK_PADS_TOP
100
AcDbPolyline
 90
        4
 70
         1
 10
-9.9
 20
11.89
 10
-9.9
 20
13.39
 10
-9.6
 20
13.39
 10
-9.6
 20
11.89
  0
LWPOLYLINE
  5
46C
100
AcDbEntity
  8
SOLDERMASK_PADS_TOP
100
AcDbPolyline
 90
        4
 70
         1
 10
-9.4
 20
11.89
 10
-9.4
 20
13.39
 10
-9.1
 20
13.39
 10
-9.1
 20
11.89
  0
LWPOLYLINE
  5
46D
100
AcDbEntity
  8
SOLDERMASK_PADS_TOP
100
AcDbPolyline
 90
        4
 70
         1
 10
-8.9
 20
11.89
 10
-8.9
 20
13.39
 10
-8.6
 20
13.39
 10
-8.6
 20
11.89
  0
LWPOLYLINE
  5
46E
100
AcDbEntity
  8
SOLDERMASK_PADS_TOP
100
AcDbPolyline
 90
        4
 70
         1
 10
-8.4
 20
11.89
 10
-8.4
 20
13.39
 10
-8.1
 20
13.39
 10
-8.1
 20
11.89
  0
LWPOLYLINE
  5
46F
100
AcDbEntity
  8
SOLDERMASK_PADS_TOP
100
AcDbPolyline
 90
        4
 70
         1
 10
-7.9
 20
11.89
 10
-7.9
 20
13.39
 10
-7.6
 20
13.39
 10
-7.6
 20
11.89
  0
LWPOLYLINE
  5
470
100
AcDbEntity
  8
SOLDERMASK_PADS_TOP
100
AcDbPolyline
 90
        4
 70
         1
 10
-7.4
 20
11.89
 10
-7.4
 20
13.39
 10
-7.1
 20
13.39
 10
-7.1
 20
11.89
  0
LWPOLYLINE
  5
471
100
AcDbEntity
  8
SOLDERMASK_PADS_TOP
100
AcDbPolyline
 90
        4
 70
         1
 10
-6.9
 20
11.89
 10
-6.9
 20
13.39
 10
-6.6
 20
13.39
 10
-6.6
 20
11.89
  0
LWPOLYLINE
  5
472
100
AcDbEntity
  8
SOLDERMASK_PADS_TOP
100
AcDbPolyline
 90
        4
 70
         1
 10
-6.4
 20
11.89
 10
-6.4
 20
13.39
 10
-6.1
 20
13.39
 10
-6.1
 20
11.89
  0
LWPOLYLINE
  5
473
100
AcDbEntity
  8
SOLDERMASK_PADS_TOP
100
AcDbPolyline
 90
        4
 70
         1
 10
-5.9
 20
11.89
 10
-5.9
 20
13.39
 10
-5.6
 20
13.39
 10
-5.6
 20
11.89
  0
LWPOLYLINE
  5
474
100
AcDbEntity
  8
SOLDERMASK_PADS_TOP
100
AcDbPolyline
 90
        4
 70
         1
 10
-5.4
 20
11.89
 10
-5.4
 20
13.39
 10
-5.1
 20
13.39
 10
-5.1
 20
11.89
  0
LWPOLYLINE
  5
475
100
AcDbEntity
  8
SOLDERMASK_PADS_TOP
100
AcDbPolyline
 90
        4
 70
         1
 10
-4.9
 20
11.89
 10
-4.9
 20
13.39
 10
-4.6
 20
13.39
 10
-4.6
 20
11.89
  0
LWPOLYLINE
  5
476
100
AcDbEntity
  8
SOLDERMASK_PADS_TOP
100
AcDbPolyline
 90
        4
 70
         1
 10
-4.4
 20
11.89
 10
-4.4
 20
13.39
 10
-4.1
 20
13.39
 10
-4.1
 20
11.89
  0
LWPOLYLINE
  5
477
100
AcDbEntity
  8
SOLDERMASK_PADS_TOP
100
AcDbPolyline
 90
        4
 70
         1
 10
-3.9
 20
11.89
 10
-3.9
 20
13.39
 10
-3.6
 20
13.39
 10
-3.6
 20
11.89
  0
LWPOLYLINE
  5
478
100
AcDbEntity
  8
SOLDERMASK_PADS_TOP
100
AcDbPolyline
 90
        4
 70
         1
 10
-3.4
 20
11.89
 10
-3.4
 20
13.39
 10
-3.1
 20
13.39
 10
-3.1
 20
11.89
  0
LWPOLYLINE
  5
479
100
AcDbEntity
  8
SOLDERMASK_PADS_TOP
100
AcDbPolyline
 90
        4
 70
         1
 10
-2.9
 20
11.89
 10
-2.9
 20
13.39
 10
-2.6
 20
13.39
 10
-2.6
 20
11.89
  0
LWPOLYLINE
  5
47A
100
AcDbEntity
  8
SOLDERMASK_PADS_TOP
100
AcDbPolyline
 90
        4
 70
         1
 10
-2.4
 20
11.89
 10
-2.4
 20
13.39
 10
-2.1
 20
13.39
 10
-2.1
 20
11.89
  0
LWPOLYLINE
  5
47B
100
AcDbEntity
  8
SOLDERMASK_PADS_TOP
100
AcDbPolyline
 90
        4
 70
         1
 10
-1.9
 20
11.89
 10
-1.9
 20
13.39
 10
-1.6
 20
13.39
 10
-1.6
 20
11.89
  0
LWPOLYLINE
  5
47C
100
AcDbEntity
  8
SOLDERMASK_PADS_TOP
100
AcDbPolyline
 90
        4
 70
         1
 10
-1.4
 20
11.89
 10
-1.4
 20
13.39
 10
-1.1
 20
13.39
 10
-1.1
 20
11.89
  0
LWPOLYLINE
  5
47D
100
AcDbEntity
  8
SOLDERMASK_PADS_TOP
100
AcDbPolyline
 90
        4
 70
         1
 10
-0.9
 20
11.89
 10
-0.9
 20
13.39
 10
-0.6
 20
13.39
 10
-0.6
 20
11.89
  0
LWPOLYLINE
  5
47E
100
AcDbEntity
  8
SOLDERMASK_PADS_TOP
100
AcDbPolyline
 90
        4
 70
         1
 10
-0.4
 20
11.89
 10
-0.4
 20
13.39
 10
-0.1
 20
13.39
 10
-0.1
 20
11.89
  0
LWPOLYLINE
  5
47F
100
AcDbEntity
  8
SOLDERMASK_PADS_TOP
100
AcDbPolyline
 90
        4
 70
         1
 10
0.1
 20
11.89
 10
0.1
 20
13.39
 10
0.4
 20
13.39
 10
0.4
 20
11.89
  0
LWPOLYLINE
  5
480
100
AcDbEntity
  8
SOLDERMASK_PADS_TOP
100
AcDbPolyline
 90
        4
 70
         1
 10
0.6
 20
11.89
 10
0.6
 20
13.39
 10
0.9
 20
13.39
 10
0.9
 20
11.89
  0
LWPOLYLINE
  5
481
100
AcDbEntity
  8
SOLDERMASK_PADS_TOP
100
AcDbPolyline
 90
        4
 70
         1
 10
1.1
 20
11.89
 10
1.1
 20
13.39
 10
1.4
 20
13.39
 10
1.4
 20
11.89
  0
LWPOLYLINE
  5
482
100
AcDbEntity
  8
SOLDERMASK_PADS_TOP
100
AcDbPolyline
 90
        4
 70
         1
 10
1.6
 20
11.89
 10
1.6
 20
13.39
 10
1.9
 20
13.39
 10
1.9
 20
11.89
  0
LWPOLYLINE
  5
483
100
AcDbEntity
  8
SOLDERMASK_PADS_TOP
100
AcDbPolyline
 90
        4
 70
         1
 10
2.1
 20
11.89
 10
2.1
 20
13.39
 10
2.4
 20
13.39
 10
2.4
 20
11.89
  0
LWPOLYLINE
  5
484
100
AcDbEntity
  8
SOLDERMASK_PADS_TOP
100
AcDbPolyline
 90
        4
 70
         1
 10
2.6
 20
11.89
 10
2.6
 20
13.39
 10
2.9
 20
13.39
 10
2.9
 20
11.89
  0
LWPOLYLINE
  5
485
100
AcDbEntity
  8
SOLDERMASK_PADS_TOP
100
AcDbPolyline
 90
        4
 70
         1
 10
3.1
 20
11.89
 10
3.1
 20
13.39
 10
3.4
 20
13.39
 10
3.4
 20
11.89
  0
LWPOLYLINE
  5
486
100
AcDbEntity
  8
SOLDERMASK_PADS_TOP
100
AcDbPolyline
 90
        4
 70
         1
 10
3.6
 20
11.89
 10
3.6
 20
13.39
 10
3.9
 20
13.39
 10
3.9
 20
11.89
  0
LWPOLYLINE
  5
487
100
AcDbEntity
  8
SOLDERMASK_PADS_TOP
100
AcDbPolyline
 90
        4
 70
         1
 10
4.1
 20
11.89
 10
4.1
 20
13.39
 10
4.4
 20
13.39
 10
4.4
 20
11.89
  0
LWPOLYLINE
  5
488
100
AcDbEntity
  8
SOLDERMASK_PADS_TOP
100
AcDbPolyline
 90
        4
 70
         1
 10
4.6
 20
11.89
 10
4.6
 20
13.39
 10
4.9
 20
13.39
 10
4.9
 20
11.89
  0
LWPOLYLINE
  5
489
100
AcDbEntity
  8
SOLDERMASK_PADS_TOP
100
AcDbPolyline
 90
        4
 70
         1
 10
5.1
 20
11.89
 10
5.1
 20
13.39
 10
5.4
 20
13.39
 10
5.4
 20
11.89
  0
LWPOLYLINE
  5
48A
100
AcDbEntity
  8
SOLDERMASK_PADS_TOP
100
AcDbPolyline
 90
        4
 70
         1
 10
5.6
 20
11.89
 10
5.6
 20
13.39
 10
5.9
 20
13.39
 10
5.9
 20
11.89
  0
LWPOLYLINE
  5
48B
100
AcDbEntity
  8
SOLDERMASK_PADS_TOP
100
AcDbPolyline
 90
        4
 70
         1
 10
6.1
 20
11.89
 10
6.1
 20
13.39
 10
6.4
 20
13.39
 10
6.4
 20
11.89
  0
LWPOLYLINE
  5
48C
100
AcDbEntity
  8
SOLDERMASK_PADS_TOP
100
AcDbPolyline
 90
        4
 70
         1
 10
6.6
 20
11.89
 10
6.6
 20
13.39
 10
6.9
 20
13.39
 10
6.9
 20
11.89
  0
LWPOLYLINE
  5
48D
100
AcDbEntity
  8
SOLDERMASK_PADS_TOP
100
AcDbPolyline
 90
        4
 70
         1
 10
7.1
 20
11.89
 10
7.1
 20
13.39
 10
7.4
 20
13.39
 10
7.4
 20
11.89
  0
LWPOLYLINE
  5
48E
100
AcDbEntity
  8
SOLDERMASK_PADS_TOP
100
AcDbPolyline
 90
        4
 70
         1
 10
7.6
 20
11.89
 10
7.6
 20
13.39
 10
7.9
 20
13.39
 10
7.9
 20
11.89
  0
LWPOLYLINE
  5
48F
100
AcDbEntity
  8
SOLDERMASK_PADS_TOP
100
AcDbPolyline
 90
        4
 70
         1
 10
8.1
 20
11.89
 10
8.1
 20
13.39
 10
8.4
 20
13.39
 10
8.4
 20
11.89
  0
LWPOLYLINE
  5
490
100
AcDbEntity
  8
SOLDERMASK_PADS_TOP
100
AcDbPolyline
 90
        4
 70
         1
 10
8.6
 20
11.89
 10
8.6
 20
13.39
 10
8.9
 20
13.39
 10
8.9
 20
11.89
  0
LWPOLYLINE
  5
491
100
AcDbEntity
  8
SOLDERMASK_PADS_TOP
100
AcDbPolyline
 90
        4
 70
         1
 10
9.1
 20
11.89
 10
9.1
 20
13.39
 10
9.4
 20
13.39
 10
9.4
 20
11.89
  0
LWPOLYLINE
  5
492
100
AcDbEntity
  8
SOLDERMASK_PADS_TOP
100
AcDbPolyline
 90
        4
 70
         1
 10
9.6
 20
11.89
 10
9.6
 20
13.39
 10
9.9
 20
13.39
 10
9.9
 20
11.89
  0
LWPOLYLINE
  5
493
100
AcDbEntity
  8
SOLDERMASK_PADS_TOP
100
AcDbPolyline
 90
        4
 70
         1
 10
10.1
 20
11.89
 10
10.1
 20
13.39
 10
10.4
 20
13.39
 10
10.4
 20
11.89
  0
LWPOLYLINE
  5
494
100
AcDbEntity
  8
SOLDERMASK_PADS_TOP
100
AcDbPolyline
 90
        4
 70
         1
 10
10.6
 20
11.89
 10
10.6
 20
13.39
 10
10.9
 20
13.39
 10
10.9
 20
11.89
  0
LWPOLYLINE
  5
495
100
AcDbEntity
  8
SOLDERMASK_PADS_TOP
100
AcDbPolyline
 90
        4
 70
         1
 10
11.1
 20
11.89
 10
11.1
 20
13.39
 10
11.4
 20
13.39
 10
11.4
 20
11.89
  0
LWPOLYLINE
  5
496
100
AcDbEntity
  8
SOLDERMASK_PADS_TOP
100
AcDbPolyline
 90
        4
 70
         1
 10
11.6
 20
11.89
 10
11.6
 20
13.39
 10
11.9
 20
13.39
 10
11.9
 20
11.89
  0
LWPOLYLINE
  5
497
100
AcDbEntity
  8
SOLDERMASK_PADS_TOP
100
AcDbPolyline
 90
        4
 70
         1
 10
12.1
 20
11.89
 10
12.1
 20
13.39
 10
12.4
 20
13.39
 10
12.4
 20
11.89
  0
LWPOLYLINE
  5
498
100
AcDbEntity
  8
SOLDERMASK_PADS_TOP
100
AcDbPolyline
 90
        4
 70
         1
 10
12.6
 20
11.89
 10
12.6
 20
13.39
 10
12.9
 20
13.39
 10
12.9
 20
11.89
  0
LWPOLYLINE
  5
499
100
AcDbEntity
  8
SOLDERMASK_PADS_TOP
100
AcDbPolyline
 90
        4
 70
         1
 10
13.1
 20
11.89
 10
13.1
 20
13.39
 10
13.4
 20
13.39
 10
13.4
 20
11.89
  0
LWPOLYLINE
  5
49A
100
AcDbEntity
  8
SOLDERMASK_PADS_TOP
100
AcDbPolyline
 90
        4
 70
         1
 10
13.6
 20
11.89
 10
13.6
 20
13.39
 10
13.9
 20
13.39
 10
13.9
 20
11.89
  0
LWPOLYLINE
  5
49B
100
AcDbEntity
  8
SOLDERMASK_PADS_TOP
100
AcDbPolyline
 90
        4
 70
         1
 10
14.1
 20
11.89
 10
14.1
 20
13.39
 10
14.4
 20
13.39
 10
14.4
 20
11.89
  0
LWPOLYLINE
  5
49C
100
AcDbEntity
  8
SOLDERMASK_PADS_TOP
100
AcDbPolyline
 90
        4
 70
         1
 10
14.6
 20
11.89
 10
14.6
 20
13.39
 10
14.9
 20
13.39
 10
14.9
 20
11.89
  0
LWPOLYLINE
  5
49D
100
AcDbEntity
  8
SOLDERMASK_PADS_TOP
100
AcDbPolyline
 90
        4
 70
         1
 10
-14.9
 20
18.01
 10
-14.9
 20
19.51
 10
-14.6
 20
19.51
 10
-14.6
 20
18.01
  0
LWPOLYLINE
  5
49E
100
AcDbEntity
  8
SOLDERMASK_PADS_TOP
100
AcDbPolyline
 90
        4
 70
         1
 10
-14.4
 20
18.01
 10
-14.4
 20
19.51
 10
-14.1
 20
19.51
 10
-14.1
 20
18.01
  0
LWPOLYLINE
  5
49F
100
AcDbEntity
  8
SOLDERMASK_PADS_TOP
100
AcDbPolyline
 90
        4
 70
         1
 10
-13.9
 20
18.01
 10
-13.9
 20
19.51
 10
-13.6
 20
19.51
 10
-13.6
 20
18.01
  0
LWPOLYLINE
  5
4A0
100
AcDbEntity
  8
SOLDERMASK_PADS_TOP
100
AcDbPolyline
 90
        4
 70
         1
 10
-13.4
 20
18.01
 10
-13.4
 20
19.51
 10
-13.1
 20
19.51
 10
-13.1
 20
18.01
  0
LWPOLYLINE
  5
4A1
100
AcDbEntity
  8
SOLDERMASK_PADS_TOP
100
AcDbPolyline
 90
        4
 70
         1
 10
-12.9
 20
18.01
 10
-12.9
 20
19.51
 10
-12.6
 20
19.51
 10
-12.6
 20
18.01
  0
LWPOLYLINE
  5
4A2
100
AcDbEntity
  8
SOLDERMASK_PADS_TOP
100
AcDbPolyline
 90
        4
 70
         1
 10
-12.4
 20
18.01
 10
-12.4
 20
19.51
 10
-12.1
 20
19.51
 10
-12.1
 20
18.01
  0
LWPOLYLINE
  5
4A3
100
AcDbEntity
  8
SOLDERMASK_PADS_TOP
100
AcDbPolyline
 90
        4
 70
         1
 10
-11.9
 20
18.01
 10
-11.9
 20
19.51
 10
-11.6
 20
19.51
 10
-11.6
 20
18.01
  0
LWPOLYLINE
  5
4A4
100
AcDbEntity
  8
SOLDERMASK_PADS_TOP
100
AcDbPolyline
 90
        4
 70
         1
 10
-11.4
 20
18.01
 10
-11.4
 20
19.51
 10
-11.1
 20
19.51
 10
-11.1
 20
18.01
  0
LWPOLYLINE
  5
4A5
100
AcDbEntity
  8
SOLDERMASK_PADS_TOP
100
AcDbPolyline
 90
        4
 70
         1
 10
-10.9
 20
18.01
 10
-10.9
 20
19.51
 10
-10.6
 20
19.51
 10
-10.6
 20
18.01
  0
LWPOLYLINE
  5
4A6
100
AcDbEntity
  8
SOLDERMASK_PADS_TOP
100
AcDbPolyline
 90
        4
 70
         1
 10
-10.4
 20
18.01
 10
-10.4
 20
19.51
 10
-10.1
 20
19.51
 10
-10.1
 20
18.01
  0
LWPOLYLINE
  5
4A7
100
AcDbEntity
  8
SOLDERMASK_PADS_TOP
100
AcDbPolyline
 90
        4
 70
         1
 10
-9.9
 20
18.01
 10
-9.9
 20
19.51
 10
-9.6
 20
19.51
 10
-9.6
 20
18.01
  0
LWPOLYLINE
  5
4A8
100
AcDbEntity
  8
SOLDERMASK_PADS_TOP
100
AcDbPolyline
 90
        4
 70
         1
 10
-9.4
 20
18.01
 10
-9.4
 20
19.51
 10
-9.1
 20
19.51
 10
-9.1
 20
18.01
  0
LWPOLYLINE
  5
4A9
100
AcDbEntity
  8
SOLDERMASK_PADS_TOP
100
AcDbPolyline
 90
        4
 70
         1
 10
-8.9
 20
18.01
 10
-8.9
 20
19.51
 10
-8.6
 20
19.51
 10
-8.6
 20
18.01
  0
LWPOLYLINE
  5
4AA
100
AcDbEntity
  8
SOLDERMASK_PADS_TOP
100
AcDbPolyline
 90
        4
 70
         1
 10
-8.4
 20
18.01
 10
-8.4
 20
19.51
 10
-8.1
 20
19.51
 10
-8.1
 20
18.01
  0
LWPOLYLINE
  5
4AB
100
AcDbEntity
  8
SOLDERMASK_PADS_TOP
100
AcDbPolyline
 90
        4
 70
         1
 10
-7.9
 20
18.01
 10
-7.9
 20
19.51
 10
-7.6
 20
19.51
 10
-7.6
 20
18.01
  0
LWPOLYLINE
  5
4AC
100
AcDbEntity
  8
SOLDERMASK_PADS_TOP
100
AcDbPolyline
 90
        4
 70
         1
 10
-7.4
 20
18.01
 10
-7.4
 20
19.51
 10
-7.1
 20
19.51
 10
-7.1
 20
18.01
  0
LWPOLYLINE
  5
4AD
100
AcDbEntity
  8
SOLDERMASK_PADS_TOP
100
AcDbPolyline
 90
        4
 70
         1
 10
-6.9
 20
18.01
 10
-6.9
 20
19.51
 10
-6.6
 20
19.51
 10
-6.6
 20
18.01
  0
LWPOLYLINE
  5
4AE
100
AcDbEntity
  8
SOLDERMASK_PADS_TOP
100
AcDbPolyline
 90
        4
 70
         1
 10
-6.4
 20
18.01
 10
-6.4
 20
19.51
 10
-6.1
 20
19.51
 10
-6.1
 20
18.01
  0
LWPOLYLINE
  5
4AF
100
AcDbEntity
  8
SOLDERMASK_PADS_TOP
100
AcDbPolyline
 90
        4
 70
         1
 10
-5.9
 20
18.01
 10
-5.9
 20
19.51
 10
-5.6
 20
19.51
 10
-5.6
 20
18.01
  0
LWPOLYLINE
  5
4B0
100
AcDbEntity
  8
SOLDERMASK_PADS_TOP
100
AcDbPolyline
 90
        4
 70
         1
 10
-5.4
 20
18.01
 10
-5.4
 20
19.51
 10
-5.1
 20
19.51
 10
-5.1
 20
18.01
  0
LWPOLYLINE
  5
4B1
100
AcDbEntity
  8
SOLDERMASK_PADS_TOP
100
AcDbPolyline
 90
        4
 70
         1
 10
-4.9
 20
18.01
 10
-4.9
 20
19.51
 10
-4.6
 20
19.51
 10
-4.6
 20
18.01
  0
LWPOLYLINE
  5
4B2
100
AcDbEntity
  8
SOLDERMASK_PADS_TOP
100
AcDbPolyline
 90
        4
 70
         1
 10
-4.4
 20
18.01
 10
-4.4
 20
19.51
 10
-4.1
 20
19.51
 10
-4.1
 20
18.01
  0
LWPOLYLINE
  5
4B3
100
AcDbEntity
  8
SOLDERMASK_PADS_TOP
100
AcDbPolyline
 90
        4
 70
         1
 10
-3.9
 20
18.01
 10
-3.9
 20
19.51
 10
-3.6
 20
19.51
 10
-3.6
 20
18.01
  0
LWPOLYLINE
  5
4B4
100
AcDbEntity
  8
SOLDERMASK_PADS_TOP
100
AcDbPolyline
 90
        4
 70
         1
 10
-3.4
 20
18.01
 10
-3.4
 20
19.51
 10
-3.1
 20
19.51
 10
-3.1
 20
18.01
  0
LWPOLYLINE
  5
4B5
100
AcDbEntity
  8
SOLDERMASK_PADS_TOP
100
AcDbPolyline
 90
        4
 70
         1
 10
-2.9
 20
18.01
 10
-2.9
 20
19.51
 10
-2.6
 20
19.51
 10
-2.6
 20
18.01
  0
LWPOLYLINE
  5
4B6
100
AcDbEntity
  8
SOLDERMASK_PADS_TOP
100
AcDbPolyline
 90
        4
 70
         1
 10
-2.4
 20
18.01
 10
-2.4
 20
19.51
 10
-2.1
 20
19.51
 10
-2.1
 20
18.01
  0
LWPOLYLINE
  5
4B7
100
AcDbEntity
  8
SOLDERMASK_PADS_TOP
100
AcDbPolyline
 90
        4
 70
         1
 10
-1.9
 20
18.01
 10
-1.9
 20
19.51
 10
-1.6
 20
19.51
 10
-1.6
 20
18.01
  0
LWPOLYLINE
  5
4B8
100
AcDbEntity
  8
SOLDERMASK_PADS_TOP
100
AcDbPolyline
 90
        4
 70
         1
 10
-1.4
 20
18.01
 10
-1.4
 20
19.51
 10
-1.1
 20
19.51
 10
-1.1
 20
18.01
  0
LWPOLYLINE
  5
4B9
100
AcDbEntity
  8
SOLDERMASK_PADS_TOP
100
AcDbPolyline
 90
        4
 70
         1
 10
-0.9
 20
18.01
 10
-0.9
 20
19.51
 10
-0.6
 20
19.51
 10
-0.6
 20
18.01
  0
LWPOLYLINE
  5
4BA
100
AcDbEntity
  8
SOLDERMASK_PADS_TOP
100
AcDbPolyline
 90
        4
 70
         1
 10
-0.4
 20
18.01
 10
-0.4
 20
19.51
 10
-0.1
 20
19.51
 10
-0.1
 20
18.01
  0
LWPOLYLINE
  5
4BB
100
AcDbEntity
  8
SOLDERMASK_PADS_TOP
100
AcDbPolyline
 90
        4
 70
         1
 10
0.1
 20
18.01
 10
0.1
 20
19.51
 10
0.4
 20
19.51
 10
0.4
 20
18.01
  0
LWPOLYLINE
  5
4BC
100
AcDbEntity
  8
SOLDERMASK_PADS_TOP
100
AcDbPolyline
 90
        4
 70
         1
 10
0.6
 20
18.01
 10
0.6
 20
19.51
 10
0.9
 20
19.51
 10
0.9
 20
18.01
  0
LWPOLYLINE
  5
4BD
100
AcDbEntity
  8
SOLDERMASK_PADS_TOP
100
AcDbPolyline
 90
        4
 70
         1
 10
1.1
 20
18.01
 10
1.1
 20
19.51
 10
1.4
 20
19.51
 10
1.4
 20
18.01
  0
LWPOLYLINE
  5
4BE
100
AcDbEntity
  8
SOLDERMASK_PADS_TOP
100
AcDbPolyline
 90
        4
 70
         1
 10
1.6
 20
18.01
 10
1.6
 20
19.51
 10
1.9
 20
19.51
 10
1.9
 20
18.01
  0
LWPOLYLINE
  5
4BF
100
AcDbEntity
  8
SOLDERMASK_PADS_TOP
100
AcDbPolyline
 90
        4
 70
         1
 10
2.1
 20
18.01
 10
2.1
 20
19.51
 10
2.4
 20
19.51
 10
2.4
 20
18.01
  0
LWPOLYLINE
  5
4C0
100
AcDbEntity
  8
SOLDERMASK_PADS_TOP
100
AcDbPolyline
 90
        4
 70
         1
 10
2.6
 20
18.01
 10
2.6
 20
19.51
 10
2.9
 20
19.51
 10
2.9
 20
18.01
  0
LWPOLYLINE
  5
4C1
100
AcDbEntity
  8
SOLDERMASK_PADS_TOP
100
AcDbPolyline
 90
        4
 70
         1
 10
3.1
 20
18.01
 10
3.1
 20
19.51
 10
3.4
 20
19.51
 10
3.4
 20
18.01
  0
LWPOLYLINE
  5
4C2
100
AcDbEntity
  8
SOLDERMASK_PADS_TOP
100
AcDbPolyline
 90
        4
 70
         1
 10
3.6
 20
18.01
 10
3.6
 20
19.51
 10
3.9
 20
19.51
 10
3.9
 20
18.01
  0
LWPOLYLINE
  5
4C3
100
AcDbEntity
  8
SOLDERMASK_PADS_TOP
100
AcDbPolyline
 90
        4
 70
         1
 10
4.1
 20
18.01
 10
4.1
 20
19.51
 10
4.4
 20
19.51
 10
4.4
 20
18.01
  0
LWPOLYLINE
  5
4C4
100
AcDbEntity
  8
SOLDERMASK_PADS_TOP
100
AcDbPolyline
 90
        4
 70
         1
 10
4.6
 20
18.01
 10
4.6
 20
19.51
 10
4.9
 20
19.51
 10
4.9
 20
18.01
  0
LWPOLYLINE
  5
4C5
100
AcDbEntity
  8
SOLDERMASK_PADS_TOP
100
AcDbPolyline
 90
        4
 70
         1
 10
5.1
 20
18.01
 10
5.1
 20
19.51
 10
5.4
 20
19.51
 10
5.4
 20
18.01
  0
LWPOLYLINE
  5
4C6
100
AcDbEntity
  8
SOLDERMASK_PADS_TOP
100
AcDbPolyline
 90
        4
 70
         1
 10
5.6
 20
18.01
 10
5.6
 20
19.51
 10
5.9
 20
19.51
 10
5.9
 20
18.01
  0
LWPOLYLINE
  5
4C7
100
AcDbEntity
  8
SOLDERMASK_PADS_TOP
100
AcDbPolyline
 90
        4
 70
         1
 10
6.1
 20
18.01
 10
6.1
 20
19.51
 10
6.4
 20
19.51
 10
6.4
 20
18.01
  0
LWPOLYLINE
  5
4C8
100
AcDbEntity
  8
SOLDERMASK_PADS_TOP
100
AcDbPolyline
 90
        4
 70
         1
 10
6.6
 20
18.01
 10
6.6
 20
19.51
 10
6.9
 20
19.51
 10
6.9
 20
18.01
  0
LWPOLYLINE
  5
4C9
100
AcDbEntity
  8
SOLDERMASK_PADS_TOP
100
AcDbPolyline
 90
        4
 70
         1
 10
7.1
 20
18.01
 10
7.1
 20
19.51
 10
7.4
 20
19.51
 10
7.4
 20
18.01
  0
LWPOLYLINE
  5
4CA
100
AcDbEntity
  8
SOLDERMASK_PADS_TOP
100
AcDbPolyline
 90
        4
 70
         1
 10
7.6
 20
18.01
 10
7.6
 20
19.51
 10
7.9
 20
19.51
 10
7.9
 20
18.01
  0
LWPOLYLINE
  5
4CB
100
AcDbEntity
  8
SOLDERMASK_PADS_TOP
100
AcDbPolyline
 90
        4
 70
         1
 10
8.1
 20
18.01
 10
8.1
 20
19.51
 10
8.4
 20
19.51
 10
8.4
 20
18.01
  0
LWPOLYLINE
  5
4CC
100
AcDbEntity
  8
SOLDERMASK_PADS_TOP
100
AcDbPolyline
 90
        4
 70
         1
 10
8.6
 20
18.01
 10
8.6
 20
19.51
 10
8.9
 20
19.51
 10
8.9
 20
18.01
  0
LWPOLYLINE
  5
4CD
100
AcDbEntity
  8
SOLDERMASK_PADS_TOP
100
AcDbPolyline
 90
        4
 70
         1
 10
9.1
 20
18.01
 10
9.1
 20
19.51
 10
9.4
 20
19.51
 10
9.4
 20
18.01
  0
LWPOLYLINE
  5
4CE
100
AcDbEntity
  8
SOLDERMASK_PADS_TOP
100
AcDbPolyline
 90
        4
 70
         1
 10
9.6
 20
18.01
 10
9.6
 20
19.51
 10
9.9
 20
19.51
 10
9.9
 20
18.01
  0
LWPOLYLINE
  5
4CF
100
AcDbEntity
  8
SOLDERMASK_PADS_TOP
100
AcDbPolyline
 90
        4
 70
         1
 10
10.1
 20
18.01
 10
10.1
 20
19.51
 10
10.4
 20
19.51
 10
10.4
 20
18.01
  0
LWPOLYLINE
  5
4D0
100
AcDbEntity
  8
SOLDERMASK_PADS_TOP
100
AcDbPolyline
 90
        4
 70
         1
 10
10.6
 20
18.01
 10
10.6
 20
19.51
 10
10.9
 20
19.51
 10
10.9
 20
18.01
  0
LWPOLYLINE
  5
4D1
100
AcDbEntity
  8
SOLDERMASK_PADS_TOP
100
AcDbPolyline
 90
        4
 70
         1
 10
11.1
 20
18.01
 10
11.1
 20
19.51
 10
11.4
 20
19.51
 10
11.4
 20
18.01
  0
LWPOLYLINE
  5
4D2
100
AcDbEntity
  8
SOLDERMASK_PADS_TOP
100
AcDbPolyline
 90
        4
 70
         1
 10
11.6
 20
18.01
 10
11.6
 20
19.51
 10
11.9
 20
19.51
 10
11.9
 20
18.01
  0
LWPOLYLINE
  5
4D3
100
AcDbEntity
  8
SOLDERMASK_PADS_TOP
100
AcDbPolyline
 90
        4
 70
         1
 10
12.1
 20
18.01
 10
12.1
 20
19.51
 10
12.4
 20
19.51
 10
12.4
 20
18.01
  0
LWPOLYLINE
  5
4D4
100
AcDbEntity
  8
SOLDERMASK_PADS_TOP
100
AcDbPolyline
 90
        4
 70
         1
 10
12.6
 20
18.01
 10
12.6
 20
19.51
 10
12.9
 20
19.51
 10
12.9
 20
18.01
  0
LWPOLYLINE
  5
4D5
100
AcDbEntity
  8
SOLDERMASK_PADS_TOP
100
AcDbPolyline
 90
        4
 70
         1
 10
13.1
 20
18.01
 10
13.1
 20
19.51
 10
13.4
 20
19.51
 10
13.4
 20
18.01
  0
LWPOLYLINE
  5
4D6
100
AcDbEntity
  8
SOLDERMASK_PADS_TOP
100
AcDbPolyline
 90
        4
 70
         1
 10
13.6
 20
18.01
 10
13.6
 20
19.51
 10
13.9
 20
19.51
 10
13.9
 20
18.01
  0
LWPOLYLINE
  5
4D7
100
AcDbEntity
  8
SOLDERMASK_PADS_TOP
100
AcDbPolyline
 90
        4
 70
         1
 10
14.1
 20
18.01
 10
14.1
 20
19.51
 10
14.4
 20
19.51
 10
14.4
 20
18.01
  0
LWPOLYLINE
  5
4D8
100
AcDbEntity
  8
SOLDERMASK_PADS_TOP
100
AcDbPolyline
 90
        4
 70
         1
 10
14.6
 20
18.01
 10
14.6
 20
19.51
 10
14.9
 20
19.51
 10
14.9
 20
18.01
  0
CIRCLE
  5
4D9
100
AcDbEntity
  8
SOLDERMASK_PADS_TOP
100
AcDbCircle
 10
-22.0
 20
-16.5
 30
0.0
 40
2.5
  0
CIRCLE
  5
4DA
100
AcDbEntity
  8
SOLDERMASK_PADS_TOP
100
AcDbCircle
 10
22.0
 20
-16.5
 30
0.0
 40
2.5
  0
CIRCLE
  5
4DB
100
AcDbEntity
  8
SOLDERMASK_PADS_TOP
100
AcDbCircle
 10
-22.0
 20
16.5
 30
0.0
 40
2.5
  0
CIRCLE
  5
4DC
100
AcDbEntity
  8
SOLDERMASK_PADS_TOP
100
AcDbCircle
 10
22.0
 20
16.5
 30
0.0
 40
2.5
  0
ENDSEC
  0
SECTION
  2
OBJECTS
  0
DICTIONARY
  5
19
100
AcDbDictionary
  3
ACAD_GROUP
350
1A
  3
ACAD_MLINESTYLE
350
1B
  0
DICTIONARY
  5
1A
102
{ACAD_REACTORS
330
19
102
}
100
AcDbDictionary
  0
DICTIONARY
  5
1B
102
{ACAD_REACTORS
330
19
102
}
100
AcDbDictionary
  3
STANDARD
350
1C
  0
MLINESTYLE
  5
1C
102
{ACAD_REACTORS
330
1B
102
}
100
AcDbMlineStyle
  2
STANDARD
 70
         0
  3

 62
         0
 51
90.0
 52
90.0
 71
         2
 49
0.5
 62
       256
  6
BYLAYER
 49
-0.5
 62
       256
  6
BYLAYER
  0
DICTIONARY
  5
22
102
{ACAD_REACTORS
330
19
102
}
100
AcDbDictionary
  0
ENDSEC
  0
EOF
