  0
SECTION
  2
HEADER
  9
$ACADVER
  1
AC1014
  9
$ACADMAINTVER
 70
         0
  9
$DWGCODEPAGE
  3
ANSI_1252
  9
$INSBASE
 10
0.0
 20
0.0
 30
0.0
  9
$EXTMIN
 10
-35768.596
 20
-36180.944
 30
0.0
  9
$EXTMAX
 10
37567.196
 20
34832.618
 30
0.0
  9
$LIMMIN
 10
0.0
 20
0.0
  9
$LIMMAX
 10
0.0
 20
0.0
  9
$ORTHOMODE
 70
         0
  9
$REGENMODE
 70
         1
  9
$FILLMODE
 70
         1
  9
$QTEXTMODE
 70
         0
  9
$MIRRTEXT
 70
         1
  9
$DRAGMODE
 70
         2
  9
$LTSCALE
 40
1.0
  9
$OSMODE
 70
         0
  9
$ATTMODE
 70
         1
  9
$TEXTSIZE
 40
0.2
  9
$TRACEWID
 40
0.05
  9
$TEXTSTYLE
  7
STANDARD
  9
$CLAYER
  8
0
  9
$CELTYPE
  6
CONTINUOUS
  9
$CECOLOR
 62
       256
  9
$CELTSCALE
 40
1.0
  9
$DELOBJ
 70
         1
  9
$DISPSILH
 70
         0
  9
$DIMSCALE
 40
1.0
  9
$DIMASZ
 40
0.18
  9
$DIMEXO
 40
0.0625
  9
$DIMDLI
 40
0.38
  9
$DIMRND
 40
0.0
  9
$DIMDLE
 40
0.0
  9
$DIMEXE
 40
0.18
  9
$DIMTP
 40
0.0
  9
$DIMTM
 40
0.0
  9
$DIMTXT
 40
0.18
  9
$DIMCEN
 40
0.09
  9
$DIMTSZ
 40
0.0
  9
$DIMTOL
 70
         0
  9
$DIMLIM
 70
         0
  9
$DIMTIH
 70
         1
  9
$DIMTOH
 70
         1
  9
$DIMSE1
 70
         0
  9
$DIMSE2
 70
         0
  9
$DIMTAD
 70
         0
  9
$DIMZIN
 70
         0
  9
$DIMBLK
  1

  9
$DIMASO
 70
         1
  9
$DIMSHO
 70
         1
  9
$DIMPOST
  1

  9
$DIMAPOST
  1

  9
$DIMALT
 70
         0
  9
$DIMALTD
 70
         2
  9
$DIMALTF
 40
25.4
  9
$DIMLFAC
 40
1.0
  9
$DIMTOFL
 70
         0
  9
$DIMTVP
 40
0.0
  9
$DIMTIX
 70
         0
  9
$DIMSOXD
 70
         0
  9
$DIMSAH
 70
         0
  9
$DIMBLK1
  1

  9
$DIMBLK2
  1

  9
$DIMSTYLE
  2
STANDARD
  9
$DIMCLRD
 70
         0
  9
$DIMCLRE
 70
         0
  9
$DIMCLRT
 70
         0
  9
$DIMTFAC
 40
1.0
  9
$DIMGAP
 40
0.09
  9
$DIMJUST
 70
         0
  9
$DIMSD1
 70
         0
  9
$DIMSD2
 70
         0
  9
$DIMTOLJ
 70
         1
  9
$DIMTZIN
 70
         0
  9
$DIMALTZ
 70
         0
  9
$DIMALTTZ
 70
         0
  9
$DIMFIT
 70
         3
  9
$DIMUPT
 70
         0
  9
$DIMUNIT
 70
         2
  9
$DIMDEC
 70
         4
  9
$DIMTDEC
 70
         4
  9
$DIMALTU
 70
         2
  9
$DIMALTTD
 70
         2
  9
$DIMTXSTY
  7
STANDARD
  9
$DIMAUNIT
 70
         0
  9
$LUNITS
 70
         2
  9
$LUPREC
 70
         4
  9
$SKETCHINC
 40
0.1
  9
$FILLETRAD
 40
0.0
  9
$AUNITS
 70
         0
  9
$AUPREC
 70
         0
  9
$MENU
  1
acad
  9
$ELEVATION
 40
0.0
  9
$PELEVATION
 40
0.0
  9
$THICKNESS
 40
0.0
  9
$LIMCHECK
 70
         0
  9
$BLIPMODE
 70
         1
  9
$CHAMFERA
 40
0.0
  9
$CHAMFERB
 40
0.0
  9
$CHAMFERC
 40
0.0
  9
$CHAMFERD
 40
0.0
  9
$SKPOLY
 70
         0
  9
$TDCREATE
 40
2456178.383576389
  9
$TDUPDATE
 40
0.000000000
  9
$TDINDWG
 40
0.0000000000
  9
$TDUSRTIMER
 40
0.0000000000
  9
$USRTIMER
 70
         1
  9
$ANGBASE
 50
0.0
  9
$ANGDIR
 70
         0
  9
$PDMODE
 70
         0
  9
$PDSIZE
 40
0.0
  9
$PLINEWID
 40
0.0
  9
$COORDS
 70
         0
  9
$SPLFRAME
 70
         0
  9
$SPLINETYPE
 70
         6
  9
$SPLINESEGS
 70
         8
  9
$ATTDIA
 70
         0
  9
$ATTREQ
 70
         1
  9
$HANDLING
 70
         1
  9
$HANDSEED
  5
307
  9
$SURFTAB1
 70
         6
  9
$SURFTAB2
 70
         6
  9
$SURFTYPE
 70
         6
  9
$SURFU
 70
         6
  9
$SURFV
 70
         6
  9
$UCSNAME
  2

  9
$UCSORG
 10
0.0
 20
0.0
 30
0.0
  9
$UCSXDIR
 10
1.0
 20
0.0
 30
0.0
  9
$UCSYDIR
 10
0.0
 20
1.0
 30
0.0
  9
$PUCSNAME
  2

  9
$PUCSORG
 10
0.0
 20
0.0
 30
0.0
  9
$PUCSXDIR
 10
1.0
 20
0.0
 30
0.0
  9
$PUCSYDIR
 10
0.0
 20
1.0
 30
0.0
  9
$USERI1
 70
        -4
  9
$USERI2
 70
         0
  9
$USERI3
 70
         0
  9
$USERI4
 70
         0
  9
$USERI5
 70
         0
  9
$USERR1
 40
0.0
  9
$USERR2
 40
0.0
  9
$USERR3
 40
0.0
  9
$USERR4
 40
0.0
  9
$USERR5
 40
0.0
  9
$WORLDVIEW
 70
         1
  9
$SHADEDGE
 70
         3
  9
$SHADEDIF
 70
        70
  9
$TILEMODE
 70
         1
  9
$MAXACTVP
 70
        16
  9
$PINSBASE
 10
0.0
 20
0.0
 30
0.0
  9
$PLIMCHECK
 70
         0
  9
$PEXTMIN
 10
1.0000000000E+20
 20
1.0000000000E+20
 30
1.0000000000E+20
  9
$PEXTMAX
 10
-1.0000000000E+20
 20
-1.0000000000E+20
 30
-1.0000000000E+20
  9
$PLIMMIN
 10
0.0
 20
0.0
  9
$PLIMMAX
 10
12.0
 20
9.0
  9
$UNITMODE
 70
         0
  9
$VISRETAIN
 70
         0
  9
$PLINEGEN
 70
         1
  9
$PSLTSCALE
 70
         0
  9
$TREEDEPTH
 70
      3020
  9
$PICKSTYLE
 70
         1
  9
$CMLSTYLE
  2
STANDARD
  9
$CMLJUST
 70
         0
  9
$CMLSCALE
 40
1.0
  9
$PROXYGRAPHICS
 70
         0
  9
$MEASUREMENT
 70
         0
  0
ENDSEC
  0
SECTION
  2
CLASSES
  0
CLASS
  1
LWPOLYLINE
  2
AcDbPolyline
  3
"AutoCAD"
 90
        0
280
         0
281
         1
  0
CLASS
  1
IMAGE
  2
AcDbRasterImage
  3
ISM
 90
      127
280
         0
281
         1
  0
CLASS
  1
OLE2FRAME
  2
AcDbOle2Frame
  3
""
 90
        0
280
         0
281
         1
  0
CLASS
  1
HATCH
  2
AcDbHatch
  3
"ACAD_SEDONA"
 90
        0
280
         0
281
         1
  0
CLASS
  1
DICTIONARYVAR
  2
AcDbDictionaryVar
  3
"AutoCAD"
 90
        0
280
         0
281
         0
  0
CLASS
  1
RASTERVARIABLES
  2
AcDbRasterVariables
  3
ISM
 90
        0
280
         0
281
         0
  0
CLASS
  1
IMAGEDEF
  2
AcDbRasterImageDef
  3
ISM
 90
        0
280
         0
281
         0
  0
CLASS
  1
IMAGEDEF_REACTOR
  2
AcDbRasterImageDefReactor
  3
ISM
 90
        1
280
         0
281
         0
  0
CLASS
  1
IDBUFFER
  2
AcDbIdBuffer
  3
"Acad"
 90
        0
280
         0
281
         0
  0
CLASS
  1
SPATIAL_FILTER
  2
AcDbSpatialFilter
  3
"Acad"
 90
        0
280
         0
281
         0
  0
CLASS
  1
XRECORD
  2
AcDbXrecord
  3
"<Built In>"
 90
        0
280
         0
281
         0
  0
CLASS
  1
SORTENTSTABLE
  2
AcDbSortentsTable
  3
"AutoCAD"
 90
        0
280
         0
281
         0
  0
CLASS
  1
LAYER_INDEX
  2
AcDbLayerIndex
  3
"Acad"
 90
        0
280
         0
281
         0
  0
CLASS
  1
SPATIAL_INDEX
  2
AcDbSpatialIndex
  3
"Acad"
 90
        0
280
         0
281
         0
  0
CLASS
  1
OBJECT_PTR
  2
CAseDLPNTableRecord
  3
"ASE-LPNTableRecord"
 90
        1
280
         0
281
         0
  0
CLASS
  1
LAYOUT
  2
AcDbLayout
  3
"AutoCAD 2000"
 90
        0
280
         0
281
         0
  0
CLASS
  1
PLOTSETTINGS
  2
AcDbPlotSettings
  3
"AutoCAD 2000"
 90
        0
280
         0
281
         0
  0
CLASS
  1
ACDBDICTIONARYWDFLT
  2
AcDbDictionaryWithDefault
  3
"AutoCAD 2000"
 90
        0
280
         0
281
         0
  0
CLASS
  1
ACDBPLACEHOLDER
  2
AcDbPlaceHolder
  3
"AutoCAD 2000"
 90
        0
280
         0
281
         0
  0
CLASS
  1
VBA_PROJECT
  2
AcDbVbaProject
  3
"acadvba"
 90
        0
280
         0
281
         0
  0
CLASS
  1
WIPEOUT
  2
AcDbWipeout
  3
WipeOut|AutoCAD Express Tool|expresstools@autodesk.com
 90
      127
280
         0
281
         1
  0
CLASS
  1
WIPEOUTVARIABLES
  2
AcDbWipeoutVariables
  3
WipeOut|AutoCAD Express Tool|expresstools@autodesk.com
 90
        0
280
         0
281
         0
  0
CLASS
  1
RTEXT
  2
RText
  3
RText|AutoCAD Express Tool|expresstools@autodesk.com
 90
        0
280
         0
281
         1
  0
CLASS
  1
ARCALIGNEDTEXT
  2
AcDbArcAlignedText
  3
ATEXT|AutoCAD Express Tool|expresstools@autodesk.com
 90
        0
280
         0
281
         1
  0
ENDSEC
  0
SECTION
  2
TABLES
  0
TABLE
  2
VPORT
  5
7
100
AcDbSymbolTable
 70
         1
  0
VPORT
  5
15
100
AcDbSymbolTableRecord
100
AcDbViewportTableRecord
  2
*ACTIVE
 70
         0
 10
0.0
 20
0.0
 11
1.0
 21
1.0
 12
6.591288
 22
4.579184
 13
0.0
 23
0.0
 14
1.0
 24
1.0
 15
0.0
 25
0.0
 16
0.0
 26
0.0
 36
1.0
 17
0.0
 27
0.0
 37
0.0
 40
9.158369
 41
0.688564
 42
50.0
 43
0.0
 44
0.0
 50
0.0
 51
0.0
 71
         0
 72
       100
 73
         1
 74
         1
 75
         0
 76
         0
 77
         0
 78
         0
  0
ENDTAB
  0
TABLE
  2
LTYPE
  5
4
100
AcDbSymbolTable
 70
         3
  0
LTYPE
  5
11
100
AcDbSymbolTableRecord
100
AcDbLinetypeTableRecord
  2
BYBLOCK
 70
        64
  3

 72
        65
 73
         0
 40
0.0
  0
LTYPE
  5
12
100
AcDbSymbolTableRecord
100
AcDbLinetypeTableRecord
  2
BYLAYER
 70
        64
  3

 72
        65
 73
         0
 40
0.0
  0
LTYPE
  5
13
100
AcDbSymbolTableRecord
100
AcDbLinetypeTableRecord
  2
CONTINUOUS
 70
        64
  3
Solid line
 72
        65
 73
         0
 40
0.0
  0
ENDTAB
  0
TABLE
  2
LAYER
  5
2
100
AcDbSymbolTable
 70
         8
  0
LAYER
  5
14
100
AcDbSymbolTableRecord
100
AcDbLayerTableRecord
  2
0
 70
         0
 62
         7
  6
CONTINUOUS
  0
LAYER
  5
24
100
AcDbSymbolTableRecord
100
AcDbLayerTableRecord
  2
ASSEMBLY_OUTLINES_TOP
 70
         0
 62
       104
  6
CONTINUOUS
  0
LAYER
  5
25
100
AcDbSymbolTableRecord
100
AcDbLayerTableRecord
  2
ASSEMBLY_REF_DES_TOP
 70
         0
 62
        30
  6
CONTINUOUS
  0
LAYER
  5
26
100
AcDbSymbolTableRecord
100
AcDbLayerTableRecord
  2
DIMENSION
 70
         0
 62
       244
  6
CONTINUOUS
  0
LAYER
  5
27
100
AcDbSymbolTableRecord
100
AcDbLayerTableRecord
  2
MOUNTING_HOLES_LAYER_TOP
 70
         0
 62
       104
  6
CONTINUOUS
  0
LAYER
  5
28
100
AcDbSymbolTableRecord
100
AcDbLayerTableRecord
  2
PART_HOLES_LAYER_TOP
 70
         0
 62
       170
  6
CONTINUOUS
  0
LAYER
  5
29
100
AcDbSymbolTableRecord
100
AcDbLayerTableRecord
  2
PART_PADS_SMD_TOP
 70
         0
 62
       170
  6
CONTINUOUS
  0
LAYER
  5
2A
100
AcDbSymbolTableRecord
100
AcDbLayerTableRecord
  2
PIN_NUMBERS_TOP
 70
         0
 62
         8
  6
CONTINUOUS
  0
ENDTAB
  0
TABLE
  2
STYLE
  5
3
100
AcDbSymbolTable
 70
         4
  0
STYLE
  5
17
100
AcDbSymbolTableRecord
100
AcDbTextStyleTableRecord
  2
STANDARD
 70
         0
 40
0.0
 41
1.0
 50
0.0
 71
         0
 42
0.0
  3
txt
  4

  0
STYLE
  5
2E
100
AcDbSymbolTableRecord
100
AcDbTextStyleTableRecord
  2
ARIAL
 70
         0
 40
0.0
 41
1.0
 50
0.0
 71
         0
 42
0.0
  3
ARIAL.TTF
  4

  0
STYLE
  5
30
100
AcDbSymbolTableRecord
100
AcDbTextStyleTableRecord
  2
VERIBEST_GERBER_0
 70
         0
 40
0.0
 41
1.0
 50
0.0
 71
         0
 42
0.0
  3
ARIAL.TTF
  4

  0
STYLE
  5
226
100
AcDbSymbolTableRecord
100
AcDbTextStyleTableRecord
  2
COURIER_NEW
 70
         0
 40
0.0
 41
1.0
 50
0.0
 71
         0
 42
0.0
  3
COUR.TTF
  4

  0
ENDTAB
  0
TABLE
  2
VIEW
  5
5
100
AcDbSymbolTable
 70
         0
  0
ENDTAB
  0
TABLE
  2
UCS
  5
6
100
AcDbSymbolTable
 70
         0
  0
ENDTAB
  0
TABLE
  2
APPID
  5
8
100
AcDbSymbolTable
 70
         1
  0
APPID
  5
16
100
AcDbSymbolTableRecord
100
AcDbRegAppTableRecord
  2
ACAD
 70
         0
  0
ENDTAB
  0
TABLE
  2
DIMSTYLE
  5
9
100
AcDbSymbolTable
 70
         1
  0
DIMSTYLE
105
18
100
AcDbSymbolTableRecord
100
AcDbDimStyleTableRecord
  2
STANDARD
 70
         0
  3

  4

  5

  6

  7

 40
1.0
 41
0.18
 42
0.0625
 43
0.38
 44
0.18
 45
0.0
 46
0.0
 47
0.0
 48
0.0
 71
         0
 72
         0
 73
         1
 74
         1
 75
         0
 76
         0
 77
         0
 78
         0
140
0.18
141
0.09
142
0.0
143
25.4
144
1.0
145
0.0
146
1.0
147
0.09
170
         0
171
         2
172
         0
173
         0
174
         0
175
         0
176
         0
177
         0
178
         0
270
         2
271
         4
272
         4
273
         2
274
         2
275
         0
280
         0
281
         0
282
         0
283
         1
284
         0
285
         0
286
         0
287
         3
288
         0
340
17
  0
ENDTAB
  0
TABLE
  2
BLOCK_RECORD
  5
1
100
AcDbSymbolTable
 70
         0
  0
BLOCK_RECORD
  5
A
100
AcDbSymbolTableRecord
100
AcDbBlockTableRecord
  2
*MODEL_SPACE
  0
BLOCK_RECORD
  5
B
100
AcDbSymbolTableRecord
100
AcDbBlockTableRecord
  2
*PAPER_SPACE
  0
ENDTAB
  0
ENDSEC
  0
SECTION
  2
BLOCKS
  0
BLOCK
  5
D
100
AcDbEntity
  8
0
100
AcDbBlockBegin
  2
*MODEL_SPACE
 70
         0
 10
0.0
 20
0.0
 30
0.0
  3
*MODEL_SPACE
  1

  0
ENDBLK
  5
E
100
AcDbEntity
  8
0
100
AcDbBlockEnd
  0
BLOCK
  5
F
100
AcDbEntity
 67
         1
  8
0
100
AcDbBlockBegin
  2
*PAPER_SPACE
 70
         0
 10
0.0
 20
0.0
 30
0.0
  3
*PAPER_SPACE
  1

  0
ENDBLK
  5
10
100
AcDbEntity
 67
         1
  8
0
100
AcDbBlockEnd
  0
ENDSEC
  0
SECTION
  2
ENTITIES
  0
LWPOLYLINE
  5
2B
100
AcDbEntity
  8
ASSEMBLY_OUTLINES_TOP
100
AcDbPolyline
 90
        6
 70
         1
 43
150.0
 10
-16000.0
 20
-19084.5
 10
-17500.0
 20
-17584.5
 10
-17500.0
 20
-13115.5
 10
17500.0
 20
-13052.0
 10
17500.0
 20
-18386.0
 10
16827.681
 20
-19084.5
  0
LWPOLYLINE
  5
2C
100
AcDbEntity
  8
ASSEMBLY_OUTLINES_TOP
100
AcDbPolyline
 90
        6
 70
         1
 43
150.0
 10
-13236.5
 20
13090.0
 10
-15000.0
 20
14660.0
 10
-15000.0
 20
19110.0
 10
15000.0
 20
19110.0
 10
15000.0
 20
14610.386
 10
13694.701
 20
13090.0
  0
LWPOLYLINE
  5
2D
100
AcDbEntity
  8
ASSEMBLY_OUTLINES_TOP
100
AcDbPolyline
 90
        4
 70
         1
 43
150.0
 10
-25000.0
 20
-22000.0
 10
-25000.0
 20
22000.0
 10
25000.0
 20
22000.0
 10
25000.0
 20
-22000.0
  0
TEXT
  5
2F
100
AcDbEntity
  8
ASSEMBLY_REF_DES_TOP
100
AcDbText
 10
296.623
 20
-441.956
 30
0.0
 40
1000.0
  1
Ref Des
  7
ARIAL
 11
296.623
 21
598.044
 31
0.0
100
AcDbText
 73
         3
  0
TEXT
  5
31
100
AcDbEntity
  8
DIMENSION
100
AcDbText
 10
885.156
 20
24049.63
 30
0.0
 40
1270.0
  1
0.5mm
  7
VERIBEST_GERBER_0
 72
         1
 11
3771.231
 21
24684.63
 31
0.0
100
AcDbText
 73
         2
  0
TEXT
  5
32
100
AcDbEntity
  8
DIMENSION
100
AcDbText
 10
-3486.147
 20
27037.01
 30
0.0
 40
1270.0
  1
24.5mm
  7
VERIBEST_GERBER_0
 72
         1
 11
0.003
 21
27672.01
 31
0.0
100
AcDbText
 73
         2
  0
TEXT
  5
33
100
AcDbEntity
  8
DIMENSION
100
AcDbText
 10
-3480.435
 20
29461.05
 30
0.0
 40
1270.0
  1
28.5mm
  7
VERIBEST_GERBER_0
 72
         1
 11
0.0
 21
30096.05
 31
0.0
100
AcDbText
 73
         2
  0
TEXT
  5
34
100
AcDbEntity
  8
DIMENSION
100
AcDbText
 10
-2397.76
 20
31439.486
 30
0.0
 40
1270.0
  1
43mm
  7
VERIBEST_GERBER_0
 72
         1
 11
0.0
 21
32074.486
 31
0.0
100
AcDbText
 73
         2
  0
TEXT
  5
35
100
AcDbEntity
  8
DIMENSION
100
AcDbText
 10
-2397.76
 20
33588.018
 30
0.0
 40
1270.0
  1
50mm
  7
VERIBEST_GERBER_0
 72
         1
 11
0.0
 21
34223.018
 31
0.0
100
AcDbText
 73
         2
  0
TEXT
  5
36
100
AcDbEntity
  8
DIMENSION
100
AcDbText
 10
28397.113
 20
24563.992
 30
0.0
 40
1270.0
  1
3.5mm
  7
VERIBEST_GERBER_0
 72
         1
 11
31283.188
 21
25198.992
 31
0.0
100
AcDbText
 73
         2
  0
TEXT
  5
37
100
AcDbEntity
  8
DIMENSION
100
AcDbText
 10
25389.882
 20
14357.253
 30
0.0
 40
1270.0
  1
7.3mm
  7
VERIBEST_GERBER_0
 72
         1
 11
28275.957
 21
14992.253
 31
0.0
100
AcDbText
 73
         2
  0
TEXT
  5
38
100
AcDbEntity
  8
DIMENSION
100
AcDbText
 10
13988.926
 20
8762.999
 30
0.0
 40
1270.0
  1
9.2mm
  7
VERIBEST_GERBER_0
 72
         1
 11
16875.001
 21
9397.999
 31
0.0
100
AcDbText
 73
         2
  0
TEXT
  5
39
100
AcDbEntity
  8
DIMENSION
100
AcDbText
 10
34557.558
 20
-2397.759
 30
0.0
 40
1270.0
  1
37mm
 50
90.0
  7
VERIBEST_GERBER_0
 72
         1
 11
33922.558
 21
0.001
 31
0.0
100
AcDbText
 73
         2
  0
TEXT
  5
3A
100
AcDbEntity
  8
DIMENSION
100
AcDbText
 10
37592.596
 20
-2397.759
 30
0.0
 40
1270.0
  1
44mm
 50
90.0
  7
VERIBEST_GERBER_0
 72
         1
 11
36957.596
 21
0.001
 31
0.0
100
AcDbText
 73
         2
  0
TEXT
  5
3B
100
AcDbEntity
  8
DIMENSION
100
AcDbText
 10
28559.547
 20
-25681.119
 30
0.0
 40
1270.0
  1
3.5mm
  7
VERIBEST_GERBER_0
 72
         1
 11
31445.622
 21
-25046.119
 31
0.0
100
AcDbText
 73
         2
  0
TEXT
  5
3C
100
AcDbEntity
  8
DIMENSION
100
AcDbText
 10
4385.154
 20
-26127.29
 30
0.0
 40
1270.0
  1
0.5mm
  7
VERIBEST_GERBER_0
 72
         1
 11
7271.229
 21
-25492.29
 31
0.0
100
AcDbText
 73
         2
  0
TEXT
  5
3D
100
AcDbEntity
  8
DIMENSION
100
AcDbText
 10
-3486.149
 20
-29239.374
 30
0.0
 40
1270.0
  1
29.5mm
  7
VERIBEST_GERBER_0
 72
         1
 11
0.001
 21
-28604.374
 31
0.0
100
AcDbText
 73
         2
  0
TEXT
  5
3E
100
AcDbEntity
  8
DIMENSION
100
AcDbText
 10
-3486.149
 20
-31604.898
 30
0.0
 40
1270.0
  1
33.5mm
  7
VERIBEST_GERBER_0
 72
         1
 11
0.001
 21
-30969.898
 31
0.0
100
AcDbText
 73
         2
  0
TEXT
  5
3F
100
AcDbEntity
  8
DIMENSION
100
AcDbText
 10
-2397.76
 20
-34017.496
 30
0.0
 40
1270.0
  1
43mm
  7
VERIBEST_GERBER_0
 72
         1
 11
0.0
 21
-33382.496
 31
0.0
100
AcDbText
 73
         2
  0
TEXT
  5
40
100
AcDbEntity
  8
DIMENSION
100
AcDbText
 10
-2397.76
 20
-36206.344
 30
0.0
 40
1270.0
  1
50mm
  7
VERIBEST_GERBER_0
 72
         1
 11
0.0
 21
-35571.344
 31
0.0
100
AcDbText
 73
         2
  0
TEXT
  5
41
100
AcDbEntity
  8
DIMENSION
100
AcDbText
 10
-27638.524
 20
-31302.122
 30
0.0
 40
1270.0
  1
3.5mm
 50
90.0
  7
VERIBEST_GERBER_0
 72
         1
 11
-28273.524
 21
-28416.047
 31
0.0
100
AcDbText
 73
         2
  0
TEXT
  5
42
100
AcDbEntity
  8
DIMENSION
100
AcDbText
 10
-29694.11
 20
-28392.167
 30
0.0
 40
1270.0
  1
0.7mm
 50
90.0
  7
VERIBEST_GERBER_0
 72
         1
 11
-30329.11
 21
-25506.092
 31
0.0
100
AcDbText
 73
         2
  0
TEXT
  5
43
100
AcDbEntity
  8
DIMENSION
100
AcDbText
 10
-31905.752
 20
-27944.883
 30
0.0
 40
1270.0
  1
4.4mm
 50
90.0
  7
VERIBEST_GERBER_0
 72
         1
 11
-32540.752
 21
-25058.808
 31
0.0
100
AcDbText
 73
         2
  0
TEXT
  5
44
100
AcDbEntity
  8
DIMENSION
100
AcDbText
 10
-34266.858
 20
-27807.852
 30
0.0
 40
1270.0
  1
5.5mm
 50
90.0
  7
VERIBEST_GERBER_0
 72
         1
 11
-34901.858
 21
-24921.777
 31
0.0
100
AcDbText
 73
         2
  0
TEXT
  5
45
100
AcDbEntity
  8
DIMENSION
100
AcDbText
 10
-34523.996
 20
21635.154
 30
0.0
 40
1270.0
  1
5.5mm
 50
90.0
  7
VERIBEST_GERBER_0
 72
         1
 11
-35158.996
 21
24521.229
 31
0.0
100
AcDbText
 73
         2
  0
TEXT
  5
46
100
AcDbEntity
  8
DIMENSION
100
AcDbText
 10
-32082.279
 20
21635.154
 30
0.0
 40
1270.0
  1
0.4mm
 50
90.0
  7
VERIBEST_GERBER_0
 72
         1
 11
-32717.279
 21
24521.229
 31
0.0
100
AcDbText
 73
         2
  0
TEXT
  5
47
100
AcDbEntity
  8
DIMENSION
100
AcDbText
 10
-29651.981
 20
22295.15
 30
0.0
 40
1270.0
  1
0.7mm
 50
90.0
  7
VERIBEST_GERBER_0
 72
         1
 11
-30286.981
 21
25181.225
 31
0.0
100
AcDbText
 73
         2
  0
TEXT
  5
48
100
AcDbEntity
  8
DIMENSION
100
AcDbText
 10
-27051.216
 20
25135.154
 30
0.0
 40
1270.0
  1
3.5mm
 50
90.0
  7
VERIBEST_GERBER_0
 72
         1
 11
-27686.216
 21
28021.229
 31
0.0
100
AcDbText
 73
         2
  0
TEXT
  5
49
100
AcDbEntity
  8
DIMENSION
100
AcDbText
 10
25515.835
 20
-16048.103
 30
0.0
 40
1270.0
  1
4.8mm
  7
VERIBEST_GERBER_0
 72
         1
 11
28396.195
 21
-15413.103
 31
0.0
100
AcDbText
 73
         2
  0
TEXT
  5
4A
100
AcDbEntity
  8
DIMENSION
100
AcDbText
 10
-6298.565
 20
8509.0
 30
0.0
 40
1270.0
  1
D1.1mm
  7
VERIBEST_GERBER_0
 72
         1
 11
-2856.865
 21
9144.0
 31
0.0
100
AcDbText
 73
         2
  0
TEXT
  5
4B
100
AcDbEntity
  8
DIMENSION
100
AcDbText
 10
-6296.835
 20
8465.0
 30
0.0
 40
1270.0
  1
D1.1mm
  7
VERIBEST_GERBER_0
 72
         1
 11
-2855.135
 21
9100.0
 31
0.0
100
AcDbText
 73
         2
  0
TEXT
  5
4C
100
AcDbEntity
  8
DIMENSION
100
AcDbText
 10
-5196.835
 20
-8135.0
 30
0.0
 40
1270.0
  1
D1.1mm
  7
VERIBEST_GERBER_0
 72
         1
 11
-1755.135
 21
-7500.0
 31
0.0
100
AcDbText
 73
         2
  0
TEXT
  5
4D
100
AcDbEntity
  8
DIMENSION
100
AcDbText
 10
-5186.565
 20
-8135.0
 30
0.0
 40
1270.0
  1
D1.1mm
  7
VERIBEST_GERBER_0
 72
         1
 11
-1744.865
 21
-7500.0
 31
0.0
100
AcDbText
 73
         2
  0
TEXT
  5
4E
100
AcDbEntity
  8
DIMENSION
100
AcDbText
 10
25613.115
 20
-10220.886
 30
0.0
 40
1270.0
  1
6.8mm
  7
VERIBEST_GERBER_0
 72
         1
 11
28493.475
 21
-9585.886
 31
0.0
100
AcDbText
 73
         2
  0
TEXT
  5
4F
100
AcDbEntity
  8
DIMENSION
100
AcDbText
 10
-35856.758
 20
-5135.0
 30
0.0
 40
1270.0
  1
D5mm
  7
VERIBEST_GERBER_0
 72
         1
 11
-33458.998
 21
-4500.0
 31
0.0
100
AcDbText
 73
         2
  0
TEXT
  5
50
100
AcDbEntity
  8
DIMENSION
100
AcDbText
 10
-38187.957
 20
-8935.0
 30
0.0
 40
1270.0
  1
D2.7mm
  7
VERIBEST_GERBER_0
 72
         1
 11
-34701.807
 21
-8300.0
 31
0.0
100
AcDbText
 73
         2
  0
LWPOLYLINE
  5
51
100
AcDbEntity
  8
DIMENSION
100
AcDbPolyline
 90
        2
 70
         0
 43
203.2
 10
-2749.998
 20
19667.996
 10
-2749.998
 20
25192.63
  0
LWPOLYLINE
  5
52
100
AcDbEntity
  8
DIMENSION
100
AcDbPolyline
 90
        2
 70
         0
 43
203.2
 10
-2249.998
 20
19667.996
 10
-2249.998
 20
25192.63
  0
LWPOLYLINE
  5
53
100
AcDbEntity
  8
DIMENSION
100
AcDbPolyline
 90
        2
 70
         0
 43
203.2
 10
-3321.498
 20
24684.63
 10
-5607.498
 20
24684.63
  0
LWPOLYLINE
  5
54
100
AcDbEntity
  8
DIMENSION
100
AcDbPolyline
 90
        2
 70
         0
 43
203.2
 10
-1678.498
 20
24684.63
 10
607.502
 20
24684.63
  0
LWPOLYLINE
  5
55
100
AcDbEntity
  8
DIMENSION
100
AcDbPolyline
 90
        3
 70
         1
 10
-2749.998
 20
24684.63
 10
-3892.998
 20
24113.131
 10
-3892.998
 20
25256.13
  0
HATCH
  5
56
100
AcDbEntity
  8
DIMENSION
100
AcDbHatch
 10
0.0
 20
0.0
 30
0.0
210
0.0
220
0.0
230
1.0
  2
SOLID
 70
         1
 71
         1
 91
        1
 92
        2
 72
         0
 73
         1
 93
        3
 10
-2749.998
 20
24684.630000000001
 10
-3892.998
 20
24113.131000000001
 10
-3892.998
 20
25256.130000000001
 97
        1
330
55
 75
         0
 76
         1
 98
        1
 10
0.0
 20
0.0
  0
LWPOLYLINE
  5
57
100
AcDbEntity
  8
DIMENSION
100
AcDbPolyline
 90
        3
 70
         1
 10
-2249.998
 20
24684.63
 10
-1106.998
 20
25256.13
 10
-1106.998
 20
24113.13
  0
HATCH
  5
58
100
AcDbEntity
  8
DIMENSION
100
AcDbHatch
 10
0.0
 20
0.0
 30
0.0
210
0.0
220
0.0
230
1.0
  2
SOLID
 70
         1
 71
         1
 91
        1
 92
        2
 72
         0
 73
         1
 93
        3
 10
-2249.998
 20
24684.630000000001
 10
-1106.998
 20
25256.130000000001
 10
-1106.998
 20
24113.130000000001
 97
        1
330
57
 75
         0
 76
         1
 98
        1
 10
0.0
 20
0.0
  0
LWPOLYLINE
  5
59
100
AcDbEntity
  8
DIMENSION
100
AcDbPolyline
 90
        2
 70
         0
 43
203.2
 10
-12249.998
 20
19667.996
 10
-12249.998
 20
28180.01
  0
LWPOLYLINE
  5
5A
100
AcDbEntity
  8
DIMENSION
100
AcDbPolyline
 90
        2
 70
         0
 43
203.2
 10
12250.002
 20
19667.996
 10
12250.002
 20
28180.01
  0
LWPOLYLINE
  5
5B
100
AcDbEntity
  8
DIMENSION
100
AcDbPolyline
 90
        2
 70
         0
 43
203.2
 10
-11678.498
 20
27672.01
 10
-3895.404
 20
27672.01
  0
LWPOLYLINE
  5
5C
100
AcDbEntity
  8
DIMENSION
100
AcDbPolyline
 90
        2
 70
         0
 43
203.2
 10
3895.411
 20
27672.01
 10
11678.502
 20
27672.01
  0
LWPOLYLINE
  5
5D
100
AcDbEntity
  8
DIMENSION
100
AcDbPolyline
 90
        3
 70
         1
 10
-12249.998
 20
27672.01
 10
-11106.998
 20
28243.51
 10
-11106.998
 20
27100.51
  0
HATCH
  5
5E
100
AcDbEntity
  8
DIMENSION
100
AcDbHatch
 10
0.0
 20
0.0
 30
0.0
210
0.0
220
0.0
230
1.0
  2
SOLID
 70
         1
 71
         1
 91
        1
 92
        2
 72
         0
 73
         1
 93
        3
 10
-12249.998
 20
27672.009999999998
 10
-11106.998
 20
28243.509999999998
 10
-11106.998
 20
27100.509999999998
 97
        1
330
5D
 75
         0
 76
         1
 98
        1
 10
0.0
 20
0.0
  0
LWPOLYLINE
  5
5F
100
AcDbEntity
  8
DIMENSION
100
AcDbPolyline
 90
        3
 70
         1
 10
12250.002
 20
27672.01
 10
11107.002
 20
27100.511
 10
11107.002
 20
28243.51
  0
HATCH
  5
60
100
AcDbEntity
  8
DIMENSION
100
AcDbHatch
 10
0.0
 20
0.0
 30
0.0
210
0.0
220
0.0
230
1.0
  2
SOLID
 70
         1
 71
         1
 91
        1
 92
        2
 72
         0
 73
         1
 93
        3
 10
12250.002
 20
27672.009999999998
 10
11107.002
 20
27100.510999999999
 10
11107.002
 20
28243.509999999998
 97
        1
330
5F
 75
         0
 76
         1
 98
        1
 10
0.0
 20
0.0
  0
LWPOLYLINE
  5
61
100
AcDbEntity
  8
DIMENSION
100
AcDbPolyline
 90
        2
 70
         0
 43
203.2
 10
-14240.0
 20
18618.0
 10
-14240.0
 20
30604.05
  0
LWPOLYLINE
  5
62
100
AcDbEntity
  8
DIMENSION
100
AcDbPolyline
 90
        2
 70
         0
 43
203.2
 10
14240.0
 20
18618.0
 10
14240.0
 20
30604.05
  0
LWPOLYLINE
  5
63
100
AcDbEntity
  8
DIMENSION
100
AcDbPolyline
 90
        2
 70
         0
 43
203.2
 10
-13668.5
 20
30096.05
 10
-3889.407
 20
30096.05
  0
LWPOLYLINE
  5
64
100
AcDbEntity
  8
DIMENSION
100
AcDbPolyline
 90
        2
 70
         0
 43
203.2
 10
3889.407
 20
30096.05
 10
13668.5
 20
30096.05
  0
LWPOLYLINE
  5
65
100
AcDbEntity
  8
DIMENSION
100
AcDbPolyline
 90
        3
 70
         1
 10
-14240.0
 20
30096.05
 10
-13097.0
 20
30667.55
 10
-13097.0
 20
29524.55
  0
HATCH
  5
66
100
AcDbEntity
  8
DIMENSION
100
AcDbHatch
 10
0.0
 20
0.0
 30
0.0
210
0.0
220
0.0
230
1.0
  2
SOLID
 70
         1
 71
         1
 91
        1
 92
        2
 72
         0
 73
         1
 93
        3
 10
-14240.0
 20
30096.049999999999
 10
-13097.0
 20
30667.549999999999
 10
-13097.0
 20
29524.549999999999
 97
        1
330
65
 75
         0
 76
         1
 98
        1
 10
0.0
 20
0.0
  0
LWPOLYLINE
  5
67
100
AcDbEntity
  8
DIMENSION
100
AcDbPolyline
 90
        3
 70
         1
 10
14240.0
 20
30096.05
 10
13097.0
 20
29524.551
 10
13097.0
 20
30667.55
  0
HATCH
  5
68
100
AcDbEntity
  8
DIMENSION
100
AcDbHatch
 10
0.0
 20
0.0
 30
0.0
210
0.0
220
0.0
230
1.0
  2
SOLID
 70
         1
 71
         1
 91
        1
 92
        2
 72
         0
 73
         1
 93
        3
 10
14240.0
 20
30096.049999999999
 10
13097.0
 20
29524.550999999999
 10
13097.0
 20
30667.549999999999
 97
        1
330
67
 75
         0
 76
         1
 98
        1
 10
0.0
 20
0.0
  0
LWPOLYLINE
  5
69
100
AcDbEntity
  8
DIMENSION
100
AcDbPolyline
 90
        2
 70
         0
 43
203.2
 10
-21500.0
 20
19008.0
 10
-21500.0
 20
32582.486
  0
LWPOLYLINE
  5
6A
100
AcDbEntity
  8
DIMENSION
100
AcDbPolyline
 90
        2
 70
         0
 43
203.2
 10
21500.0
 20
19008.0
 10
21500.0
 20
32582.486
  0
LWPOLYLINE
  5
6B
100
AcDbEntity
  8
DIMENSION
100
AcDbPolyline
 90
        2
 70
         0
 43
203.2
 10
-20928.5
 20
32074.486
 10
-2752.598
 20
32074.486
  0
LWPOLYLINE
  5
6C
100
AcDbEntity
  8
DIMENSION
100
AcDbPolyline
 90
        2
 70
         0
 43
203.2
 10
2752.598
 20
32074.486
 10
20928.5
 20
32074.486
  0
LWPOLYLINE
  5
6D
100
AcDbEntity
  8
DIMENSION
100
AcDbPolyline
 90
        3
 70
         1
 10
-21500.0
 20
32074.486
 10
-20357.0
 20
32645.986
 10
-20357.0
 20
31502.986
  0
HATCH
  5
6E
100
AcDbEntity
  8
DIMENSION
100
AcDbHatch
 10
0.0
 20
0.0
 30
0.0
210
0.0
220
0.0
230
1.0
  2
SOLID
 70
         1
 71
         1
 91
        1
 92
        2
 72
         0
 73
         1
 93
        3
 10
-21500.0
 20
32074.486000000001
 10
-20357.0
 20
32645.986000000001
 10
-20357.0
 20
31502.986000000001
 97
        1
330
6D
 75
         0
 76
         1
 98
        1
 10
0.0
 20
0.0
  0
LWPOLYLINE
  5
6F
100
AcDbEntity
  8
DIMENSION
100
AcDbPolyline
 90
        3
 70
         1
 10
21500.0
 20
32074.486
 10
20357.0
 20
31502.987
 10
20357.0
 20
32645.986
  0
HATCH
  5
70
100
AcDbEntity
  8
DIMENSION
100
AcDbHatch
 10
0.0
 20
0.0
 30
0.0
210
0.0
220
0.0
230
1.0
  2
SOLID
 70
         1
 71
         1
 91
        1
 92
        2
 72
         0
 73
         1
 93
        3
 10
21500.0
 20
32074.486000000001
 10
20357.0
 20
31502.987000000001
 10
20357.0
 20
32645.986000000001
 97
        1
330
6F
 75
         0
 76
         1
 98
        1
 10
0.0
 20
0.0
  0
LWPOLYLINE
  5
71
100
AcDbEntity
  8
DIMENSION
100
AcDbPolyline
 90
        2
 70
         0
 43
203.2
 10
-25000.0
 20
22508.0
 10
-25000.0
 20
34731.018
  0
LWPOLYLINE
  5
72
100
AcDbEntity
  8
DIMENSION
100
AcDbPolyline
 90
        2
 70
         0
 43
203.2
 10
25000.0
 20
22508.0
 10
25000.0
 20
34731.018
  0
LWPOLYLINE
  5
73
100
AcDbEntity
  8
DIMENSION
100
AcDbPolyline
 90
        2
 70
         0
 43
203.2
 10
-24428.5
 20
34223.018
 10
-2752.598
 20
34223.018
  0
LWPOLYLINE
  5
74
100
AcDbEntity
  8
DIMENSION
100
AcDbPolyline
 90
        2
 70
         0
 43
203.2
 10
2752.598
 20
34223.018
 10
24428.5
 20
34223.018
  0
LWPOLYLINE
  5
75
100
AcDbEntity
  8
DIMENSION
100
AcDbPolyline
 90
        3
 70
         1
 10
-25000.0
 20
34223.018
 10
-23857.0
 20
34794.518
 10
-23857.0
 20
33651.518
  0
HATCH
  5
76
100
AcDbEntity
  8
DIMENSION
100
AcDbHatch
 10
0.0
 20
0.0
 30
0.0
210
0.0
220
0.0
230
1.0
  2
SOLID
 70
         1
 71
         1
 91
        1
 92
        2
 72
         0
 73
         1
 93
        3
 10
-25000.0
 20
34223.017999999996
 10
-23857.0
 20
34794.517999999996
 10
-23857.0
 20
33651.517999999996
 97
        1
330
75
 75
         0
 76
         1
 98
        1
 10
0.0
 20
0.0
  0
LWPOLYLINE
  5
77
100
AcDbEntity
  8
DIMENSION
100
AcDbPolyline
 90
        3
 70
         1
 10
25000.0
 20
34223.018
 10
23857.0
 20
33651.519
 10
23857.0
 20
34794.518
  0
HATCH
  5
78
100
AcDbEntity
  8
DIMENSION
100
AcDbHatch
 10
0.0
 20
0.0
 30
0.0
210
0.0
220
0.0
230
1.0
  2
SOLID
 70
         1
 71
         1
 91
        1
 92
        2
 72
         0
 73
         1
 93
        3
 10
25000.0
 20
34223.017999999996
 10
23857.0
 20
33651.519
 10
23857.0
 20
34794.517999999996
 97
        1
330
77
 75
         0
 76
         1
 98
        1
 10
0.0
 20
0.0
  0
LWPOLYLINE
  5
79
100
AcDbEntity
  8
DIMENSION
100
AcDbPolyline
 90
        2
 70
         0
 43
203.2
 10
21500.0
 20
19008.0
 10
21500.0
 20
25649.414
  0
LWPOLYLINE
  5
7A
100
AcDbEntity
  8
DIMENSION
100
AcDbPolyline
 90
        2
 70
         0
 43
203.2
 10
25000.0
 20
22508.0
 10
25000.0
 20
25649.414
  0
LWPOLYLINE
  5
7B
100
AcDbEntity
  8
DIMENSION
100
AcDbPolyline
 90
        2
 70
         0
 43
203.2
 10
20928.5
 20
25141.414
 10
18642.5
 20
25141.414
  0
LWPOLYLINE
  5
7C
100
AcDbEntity
  8
DIMENSION
100
AcDbPolyline
 90
        2
 70
         0
 43
203.2
 10
25571.5
 20
25141.414
 10
27857.5
 20
25141.414
  0
LWPOLYLINE
  5
7D
100
AcDbEntity
  8
DIMENSION
100
AcDbPolyline
 90
        3
 70
         1
 10
21500.0
 20
25141.414
 10
20357.0
 20
24569.915
 10
20357.0
 20
25712.914
  0
HATCH
  5
7E
100
AcDbEntity
  8
DIMENSION
100
AcDbHatch
 10
0.0
 20
0.0
 30
0.0
210
0.0
220
0.0
230
1.0
  2
SOLID
 70
         1
 71
         1
 91
        1
 92
        2
 72
         0
 73
         1
 93
        3
 10
21500.0
 20
25141.414000000001
 10
20357.0
 20
24569.915000000001
 10
20357.0
 20
25712.914000000001
 97
        1
330
7D
 75
         0
 76
         1
 98
        1
 10
0.0
 20
0.0
  0
LWPOLYLINE
  5
7F
100
AcDbEntity
  8
DIMENSION
100
AcDbPolyline
 90
        3
 70
         1
 10
25000.0
 20
25141.414
 10
26143.0
 20
25712.914
 10
26143.0
 20
24569.914
  0
HATCH
  5
80
100
AcDbEntity
  8
DIMENSION
100
AcDbHatch
 10
0.0
 20
0.0
 30
0.0
210
0.0
220
0.0
230
1.0
  2
SOLID
 70
         1
 71
         1
 91
        1
 92
        2
 72
         0
 73
         1
 93
        3
 10
25000.0
 20
25141.414000000001
 10
26143.0
 20
25712.914000000001
 10
26143.0
 20
24569.914000000001
 97
        1
330
7F
 75
         0
 76
         1
 98
        1
 10
0.0
 20
0.0
  0
LWPOLYLINE
  5
81
100
AcDbEntity
  8
DIMENSION
100
AcDbPolyline
 90
        2
 70
         0
 43
203.2
 10
14240.0
 20
17602.0
 10
14240.0
 20
14818.855
  0
LWPOLYLINE
  5
82
100
AcDbEntity
  8
DIMENSION
100
AcDbPolyline
 90
        2
 70
         0
 43
203.2
 10
21500.0
 20
17992.0
 10
21500.0
 20
14818.855
  0
LWPOLYLINE
  5
83
100
AcDbEntity
  8
DIMENSION
100
AcDbPolyline
 90
        2
 70
         0
 43
203.2
 10
13668.5
 20
15326.855
 10
11382.5
 20
15326.855
  0
LWPOLYLINE
  5
84
100
AcDbEntity
  8
DIMENSION
100
AcDbPolyline
 90
        2
 70
         0
 43
203.2
 10
22071.5
 20
15326.855
 10
24357.5
 20
15326.855
  0
LWPOLYLINE
  5
85
100
AcDbEntity
  8
DIMENSION
100
AcDbPolyline
 90
        3
 70
         1
 10
14240.0
 20
15326.855
 10
13097.0
 20
14755.356
 10
13097.0
 20
15898.355
  0
HATCH
  5
86
100
AcDbEntity
  8
DIMENSION
100
AcDbHatch
 10
0.0
 20
0.0
 30
0.0
210
0.0
220
0.0
230
1.0
  2
SOLID
 70
         1
 71
         1
 91
        1
 92
        2
 72
         0
 73
         1
 93
        3
 10
14240.0
 20
15326.855
 10
13097.0
 20
14755.356
 10
13097.0
 20
15898.355
 97
        1
330
85
 75
         0
 76
         1
 98
        1
 10
0.0
 20
0.0
  0
LWPOLYLINE
  5
87
100
AcDbEntity
  8
DIMENSION
100
AcDbPolyline
 90
        3
 70
         1
 10
21500.0
 20
15326.855
 10
22643.0
 20
15898.355
 10
22643.0
 20
14755.355
  0
HATCH
  5
88
100
AcDbEntity
  8
DIMENSION
100
AcDbHatch
 10
0.0
 20
0.0
 30
0.0
210
0.0
220
0.0
230
1.0
  2
SOLID
 70
         1
 71
         1
 91
        1
 92
        2
 72
         0
 73
         1
 93
        3
 10
21500.0
 20
15326.855
 10
22643.0
 20
15898.355
 10
22643.0
 20
14755.355
 97
        1
330
87
 75
         0
 76
         1
 98
        1
 10
0.0
 20
0.0
  0
LWPOLYLINE
  5
89
100
AcDbEntity
  8
DIMENSION
100
AcDbPolyline
 90
        2
 70
         0
 43
203.2
 10
12250.002
 20
12531.996
 10
12250.002
 20
8890.0
  0
LWPOLYLINE
  5
8A
100
AcDbEntity
  8
DIMENSION
100
AcDbPolyline
 90
        2
 70
         0
 43
203.2
 10
21500.0
 20
17992.0
 10
21500.0
 20
8890.0
  0
LWPOLYLINE
  5
8B
100
AcDbEntity
  8
DIMENSION
100
AcDbPolyline
 90
        2
 70
         0
 43
203.2
 10
12821.502
 20
9398.0
 10
13609.672
 20
9398.0
  0
LWPOLYLINE
  5
8C
100
AcDbEntity
  8
DIMENSION
100
AcDbPolyline
 90
        2
 70
         0
 43
203.2
 10
20140.33
 20
9398.0
 10
20928.5
 20
9398.0
  0
LWPOLYLINE
  5
8D
100
AcDbEntity
  8
DIMENSION
100
AcDbPolyline
 90
        3
 70
         1
 10
12250.002
 20
9398.0
 10
13393.002
 20
9969.5
 10
13393.002
 20
8826.5
  0
HATCH
  5
8E
100
AcDbEntity
  8
DIMENSION
100
AcDbHatch
 10
0.0
 20
0.0
 30
0.0
210
0.0
220
0.0
230
1.0
  2
SOLID
 70
         1
 71
         1
 91
        1
 92
        2
 72
         0
 73
         1
 93
        3
 10
12250.002
 20
9398.0
 10
13393.002
 20
9969.5
 10
13393.002
 20
8826.5
 97
        1
330
8D
 75
         0
 76
         1
 98
        1
 10
0.0
 20
0.0
  0
LWPOLYLINE
  5
8F
100
AcDbEntity
  8
DIMENSION
100
AcDbPolyline
 90
        3
 70
         1
 10
21500.0
 20
9398.0
 10
20357.0
 20
8826.501
 10
20357.0
 20
9969.5
  0
HATCH
  5
90
100
AcDbEntity
  8
DIMENSION
100
AcDbHatch
 10
0.0
 20
0.0
 30
0.0
210
0.0
220
0.0
230
1.0
  2
SOLID
 70
         1
 71
         1
 91
        1
 92
        2
 72
         0
 73
         1
 93
        3
 10
21500.0
 20
9398.0
 10
20357.0
 20
8826.5010000000002
 10
20357.0
 20
9969.5
 97
        1
330
8F
 75
         0
 76
         1
 98
        1
 10
0.0
 20
0.0
  0
LWPOLYLINE
  5
91
100
AcDbEntity
  8
DIMENSION
100
AcDbPolyline
 90
        2
 70
         0
 43
203.2
 10
22008.0
 20
18500.0
 10
34430.558
 20
18500.0
  0
LWPOLYLINE
  5
92
100
AcDbEntity
  8
DIMENSION
100
AcDbPolyline
 90
        2
 70
         0
 43
203.2
 10
22008.0
 20
-18500.0
 10
34430.558
 20
-18500.0
  0
LWPOLYLINE
  5
93
100
AcDbEntity
  8
DIMENSION
100
AcDbPolyline
 90
        2
 70
         0
 43
203.2
 10
33922.558
 20
17928.5
 10
33922.558
 20
2752.597
  0
LWPOLYLINE
  5
94
100
AcDbEntity
  8
DIMENSION
100
AcDbPolyline
 90
        2
 70
         0
 43
203.2
 10
33922.558
 20
-2752.597
 10
33922.558
 20
-17928.5
  0
LWPOLYLINE
  5
95
100
AcDbEntity
  8
DIMENSION
100
AcDbPolyline
 90
        3
 70
         1
 10
33922.558
 20
18500.0
 10
34494.057
 20
17357.0
 10
33351.058
 20
17357.001
  0
HATCH
  5
96
100
AcDbEntity
  8
DIMENSION
100
AcDbHatch
 10
0.0
 20
0.0
 30
0.0
210
0.0
220
0.0
230
1.0
  2
SOLID
 70
         1
 71
         1
 91
        1
 92
        2
 72
         0
 73
         1
 93
        3
 10
33922.557999999997
 20
18500.0
 10
34494.057000000001
 20
17357.0
 10
33351.057999999997
 20
17357.001
 97
        1
330
95
 75
         0
 76
         1
 98
        1
 10
0.0
 20
0.0
  0
LWPOLYLINE
  5
97
100
AcDbEntity
  8
DIMENSION
100
AcDbPolyline
 90
        3
 70
         1
 10
33922.558
 20
-18500.0
 10
33351.058
 20
-17357.0
 10
34494.058
 20
-17357.0
  0
HATCH
  5
98
100
AcDbEntity
  8
DIMENSION
100
AcDbHatch
 10
0.0
 20
0.0
 30
0.0
210
0.0
220
0.0
230
1.0
  2
SOLID
 70
         1
 71
         1
 91
        1
 92
        2
 72
         0
 73
         1
 93
        3
 10
33922.557999999997
 20
-18500.0
 10
33351.057999999997
 20
-17357.0
 10
34494.057999999997
 20
-17357.0
 97
        1
330
97
 75
         0
 76
         1
 98
        1
 10
0.0
 20
0.0
  0
LWPOLYLINE
  5
99
100
AcDbEntity
  8
DIMENSION
100
AcDbPolyline
 90
        2
 70
         0
 43
203.2
 10
25508.0
 20
22000.0
 10
37465.596
 20
22000.0
  0
LWPOLYLINE
  5
9A
100
AcDbEntity
  8
DIMENSION
100
AcDbPolyline
 90
        2
 70
         0
 43
203.2
 10
25508.0
 20
-22000.0
 10
37465.596
 20
-22000.0
  0
LWPOLYLINE
  5
9B
100
AcDbEntity
  8
DIMENSION
100
AcDbPolyline
 90
        2
 70
         0
 43
203.2
 10
36957.596
 20
21428.5
 10
36957.596
 20
2752.597
  0
LWPOLYLINE
  5
9C
100
AcDbEntity
  8
DIMENSION
100
AcDbPolyline
 90
        2
 70
         0
 43
203.2
 10
36957.596
 20
-2752.597
 10
36957.596
 20
-21428.5
  0
LWPOLYLINE
  5
9D
100
AcDbEntity
  8
DIMENSION
100
AcDbPolyline
 90
        3
 70
         1
 10
36957.596
 20
22000.0
 10
37529.095
 20
20857.0
 10
36386.096
 20
20857.001
  0
HATCH
  5
9E
100
AcDbEntity
  8
DIMENSION
100
AcDbHatch
 10
0.0
 20
0.0
 30
0.0
210
0.0
220
0.0
230
1.0
  2
SOLID
 70
         1
 71
         1
 91
        1
 92
        2
 72
         0
 73
         1
 93
        3
 10
36957.595999999998
 20
22000.0
 10
37529.095000000001
 20
20857.0
 10
36386.095999999998
 20
20857.001
 97
        1
330
9D
 75
         0
 76
         1
 98
        1
 10
0.0
 20
0.0
  0
LWPOLYLINE
  5
9F
100
AcDbEntity
  8
DIMENSION
100
AcDbPolyline
 90
        3
 70
         1
 10
36957.596
 20
-22000.0
 10
36386.096
 20
-20857.0
 10
37529.096
 20
-20857.0
  0
HATCH
  5
A0
100
AcDbEntity
  8
DIMENSION
100
AcDbHatch
 10
0.0
 20
0.0
 30
0.0
210
0.0
220
0.0
230
1.0
  2
SOLID
 70
         1
 71
         1
 91
        1
 92
        2
 72
         0
 73
         1
 93
        3
 10
36957.595999999998
 20
-22000.0
 10
36386.095999999998
 20
-20857.0
 10
37529.095999999998
 20
-20857.0
 97
        1
330
9F
 75
         0
 76
         1
 98
        1
 10
0.0
 20
0.0
  0
LWPOLYLINE
  5
A1
100
AcDbEntity
  8
DIMENSION
100
AcDbPolyline
 90
        2
 70
         0
 43
203.2
 10
21500.0
 20
-19008.0
 10
21500.0
 20
-25496.844
  0
LWPOLYLINE
  5
A2
100
AcDbEntity
  8
DIMENSION
100
AcDbPolyline
 90
        2
 70
         0
 43
203.2
 10
25000.0
 20
-22508.0
 10
25000.0
 20
-25496.844
  0
LWPOLYLINE
  5
A3
100
AcDbEntity
  8
DIMENSION
100
AcDbPolyline
 90
        2
 70
         0
 43
203.2
 10
20928.5
 20
-24988.844
 10
18642.5
 20
-24988.844
  0
LWPOLYLINE
  5
A4
100
AcDbEntity
  8
DIMENSION
100
AcDbPolyline
 90
        2
 70
         0
 43
203.2
 10
25571.5
 20
-24988.844
 10
27857.5
 20
-24988.844
  0
LWPOLYLINE
  5
A5
100
AcDbEntity
  8
DIMENSION
100
AcDbPolyline
 90
        3
 70
         1
 10
21500.0
 20
-24988.844
 10
20357.0
 20
-25560.343
 10
20357.0
 20
-24417.344
  0
HATCH
  5
A6
100
AcDbEntity
  8
DIMENSION
100
AcDbHatch
 10
0.0
 20
0.0
 30
0.0
210
0.0
220
0.0
230
1.0
  2
SOLID
 70
         1
 71
         1
 91
        1
 92
        2
 72
         0
 73
         1
 93
        3
 10
21500.0
 20
-24988.844000000001
 10
20357.0
 20
-25560.343000000001
 10
20357.0
 20
-24417.344000000001
 97
        1
330
A5
 75
         0
 76
         1
 98
        1
 10
0.0
 20
0.0
  0
LWPOLYLINE
  5
A7
100
AcDbEntity
  8
DIMENSION
100
AcDbPolyline
 90
        3
 70
         1
 10
25000.0
 20
-24988.844
 10
26143.0
 20
-24417.344
 10
26143.0
 20
-25560.344
  0
HATCH
  5
A8
100
AcDbEntity
  8
DIMENSION
100
AcDbHatch
 10
0.0
 20
0.0
 30
0.0
210
0.0
220
0.0
230
1.0
  2
SOLID
 70
         1
 71
         1
 91
        1
 92
        2
 72
         0
 73
         1
 93
        3
 10
25000.0
 20
-24988.844000000001
 10
26143.0
 20
-24417.344000000001
 10
26143.0
 20
-25560.344000000001
 97
        1
330
A7
 75
         0
 76
         1
 98
        1
 10
0.0
 20
0.0
  0
LWPOLYLINE
  5
A9
100
AcDbEntity
  8
DIMENSION
100
AcDbPolyline
 90
        2
 70
         0
 43
203.2
 10
750.0
 20
-19668.0
 10
750.0
 20
-26000.29
  0
LWPOLYLINE
  5
AA
100
AcDbEntity
  8
DIMENSION
100
AcDbPolyline
 90
        2
 70
         0
 43
203.2
 10
1250.0
 20
-19668.0
 10
1250.0
 20
-26000.29
  0
LWPOLYLINE
  5
AB
100
AcDbEntity
  8
DIMENSION
100
AcDbPolyline
 90
        2
 70
         0
 43
203.2
 10
178.5
 20
-25492.29
 10
-2107.5
 20
-25492.29
  0
LWPOLYLINE
  5
AC
100
AcDbEntity
  8
DIMENSION
100
AcDbPolyline
 90
        2
 70
         0
 43
203.2
 10
1821.5
 20
-25492.29
 10
4107.5
 20
-25492.29
  0
LWPOLYLINE
  5
AD
100
AcDbEntity
  8
DIMENSION
100
AcDbPolyline
 90
        3
 70
         1
 10
750.0
 20
-25492.29
 10
-393.0
 20
-26063.789
 10
-393.0
 20
-24920.79
  0
HATCH
  5
AE
100
AcDbEntity
  8
DIMENSION
100
AcDbHatch
 10
0.0
 20
0.0
 30
0.0
210
0.0
220
0.0
230
1.0
  2
SOLID
 70
         1
 71
         1
 91
        1
 92
        2
 72
         0
 73
         1
 93
        3
 10
750.0
 20
-25492.290000000001
 10
-393.0
 20
-26063.789000000001
 10
-393.0
 20
-24920.790000000001
 97
        1
330
AD
 75
         0
 76
         1
 98
        1
 10
0.0
 20
0.0
  0
LWPOLYLINE
  5
AF
100
AcDbEntity
  8
DIMENSION
100
AcDbPolyline
 90
        3
 70
         1
 10
1250.0
 20
-25492.29
 10
2393.0
 20
-24920.79
 10
2393.0
 20
-26063.79
  0
HATCH
  5
B0
100
AcDbEntity
  8
DIMENSION
100
AcDbHatch
 10
0.0
 20
0.0
 30
0.0
210
0.0
220
0.0
230
1.0
  2
SOLID
 70
         1
 71
         1
 91
        1
 92
        2
 72
         0
 73
         1
 93
        3
 10
1250.0
 20
-25492.290000000001
 10
2393.0
 20
-24920.790000000001
 10
2393.0
 20
-26063.790000000001
 97
        1
330
AF
 75
         0
 76
         1
 98
        1
 10
0.0
 20
0.0
  0
LWPOLYLINE
  5
B1
100
AcDbEntity
  8
DIMENSION
100
AcDbPolyline
 90
        2
 70
         0
 43
203.2
 10
-14750.0
 20
-19668.0
 10
-14750.0
 20
-29112.374
  0
LWPOLYLINE
  5
B2
100
AcDbEntity
  8
DIMENSION
100
AcDbPolyline
 90
        2
 70
         0
 43
203.2
 10
14750.0
 20
-19668.0
 10
14750.0
 20
-29112.374
  0
LWPOLYLINE
  5
B3
100
AcDbEntity
  8
DIMENSION
100
AcDbPolyline
 90
        2
 70
         0
 43
203.2
 10
-14178.5
 20
-28604.374
 10
-3895.406
 20
-28604.374
  0
LWPOLYLINE
  5
B4
100
AcDbEntity
  8
DIMENSION
100
AcDbPolyline
 90
        2
 70
         0
 43
203.2
 10
3895.409
 20
-28604.374
 10
14178.5
 20
-28604.374
  0
LWPOLYLINE
  5
B5
100
AcDbEntity
  8
DIMENSION
100
AcDbPolyline
 90
        3
 70
         1
 10
-14750.0
 20
-28604.374
 10
-13607.0
 20
-28032.874
 10
-13607.0
 20
-29175.874
  0
HATCH
  5
B6
100
AcDbEntity
  8
DIMENSION
100
AcDbHatch
 10
0.0
 20
0.0
 30
0.0
210
0.0
220
0.0
230
1.0
  2
SOLID
 70
         1
 71
         1
 91
        1
 92
        2
 72
         0
 73
         1
 93
        3
 10
-14750.0
 20
-28604.374
 10
-13607.0
 20
-28032.874
 10
-13607.0
 20
-29175.874
 97
        1
330
B5
 75
         0
 76
         1
 98
        1
 10
0.0
 20
0.0
  0
LWPOLYLINE
  5
B7
100
AcDbEntity
  8
DIMENSION
100
AcDbPolyline
 90
        3
 70
         1
 10
14750.0
 20
-28604.374
 10
13607.0
 20
-29175.873
 10
13607.0
 20
-28032.874
  0
HATCH
  5
B8
100
AcDbEntity
  8
DIMENSION
100
AcDbHatch
 10
0.0
 20
0.0
 30
0.0
210
0.0
220
0.0
230
1.0
  2
SOLID
 70
         1
 71
         1
 91
        1
 92
        2
 72
         0
 73
         1
 93
        3
 10
14750.0
 20
-28604.374
 10
13607.0
 20
-29175.873
 10
13607.0
 20
-28032.874
 97
        1
330
B7
 75
         0
 76
         1
 98
        1
 10
0.0
 20
0.0
  0
LWPOLYLINE
  5
B9
100
AcDbEntity
  8
DIMENSION
100
AcDbPolyline
 90
        2
 70
         0
 43
203.2
 10
-16738.0
 20
-14602.0
 10
-16738.0
 20
-31477.898
  0
LWPOLYLINE
  5
BA
100
AcDbEntity
  8
DIMENSION
100
AcDbPolyline
 90
        2
 70
         0
 43
203.2
 10
16738.0
 20
-14602.0
 10
16738.0
 20
-31477.898
  0
LWPOLYLINE
  5
BB
100
AcDbEntity
  8
DIMENSION
100
AcDbPolyline
 90
        2
 70
         0
 43
203.2
 10
-16166.5
 20
-30969.898
 10
-3895.406
 20
-30969.898
  0
LWPOLYLINE
  5
BC
100
AcDbEntity
  8
DIMENSION
100
AcDbPolyline
 90
        2
 70
         0
 43
203.2
 10
3895.409
 20
-30969.898
 10
16166.5
 20
-30969.898
  0
LWPOLYLINE
  5
BD
100
AcDbEntity
  8
DIMENSION
100
AcDbPolyline
 90
        3
 70
         1
 10
-16738.0
 20
-30969.898
 10
-15595.0
 20
-30398.398
 10
-15595.0
 20
-31541.398
  0
HATCH
  5
BE
100
AcDbEntity
  8
DIMENSION
100
AcDbHatch
 10
0.0
 20
0.0
 30
0.0
210
0.0
220
0.0
230
1.0
  2
SOLID
 70
         1
 71
         1
 91
        1
 92
        2
 72
         0
 73
         1
 93
        3
 10
-16738.0
 20
-30969.898000000001
 10
-15595.0
 20
-30398.398000000001
 10
-15595.0
 20
-31541.398000000001
 97
        1
330
BD
 75
         0
 76
         1
 98
        1
 10
0.0
 20
0.0
  0
LWPOLYLINE
  5
BF
100
AcDbEntity
  8
DIMENSION
100
AcDbPolyline
 90
        3
 70
         1
 10
16738.0
 20
-30969.898
 10
15595.0
 20
-31541.397
 10
15595.0
 20
-30398.398
  0
HATCH
  5
C0
100
AcDbEntity
  8
DIMENSION
100
AcDbHatch
 10
0.0
 20
0.0
 30
0.0
210
0.0
220
0.0
230
1.0
  2
SOLID
 70
         1
 71
         1
 91
        1
 92
        2
 72
         0
 73
         1
 93
        3
 10
16738.0
 20
-30969.898000000001
 10
15595.0
 20
-31541.397000000001
 10
15595.0
 20
-30398.398000000001
 97
        1
330
BF
 75
         0
 76
         1
 98
        1
 10
0.0
 20
0.0
  0
LWPOLYLINE
  5
C1
100
AcDbEntity
  8
DIMENSION
100
AcDbPolyline
 90
        2
 70
         0
 43
203.2
 10
-21500.0
 20
-19008.0
 10
-21500.0
 20
-33890.496
  0
LWPOLYLINE
  5
C2
100
AcDbEntity
  8
DIMENSION
100
AcDbPolyline
 90
        2
 70
         0
 43
203.2
 10
21500.0
 20
-19008.0
 10
21500.0
 20
-33890.496
  0
LWPOLYLINE
  5
C3
100
AcDbEntity
  8
DIMENSION
100
AcDbPolyline
 90
        2
 70
         0
 43
203.2
 10
-20928.5
 20
-33382.496
 10
-2752.598
 20
-33382.496
  0
LWPOLYLINE
  5
C4
100
AcDbEntity
  8
DIMENSION
100
AcDbPolyline
 90
        2
 70
         0
 43
203.2
 10
2752.598
 20
-33382.496
 10
20928.5
 20
-33382.496
  0
LWPOLYLINE
  5
C5
100
AcDbEntity
  8
DIMENSION
100
AcDbPolyline
 90
        3
 70
         1
 10
-21500.0
 20
-33382.496
 10
-20357.0
 20
-32810.996
 10
-20357.0
 20
-33953.996
  0
HATCH
  5
C6
100
AcDbEntity
  8
DIMENSION
100
AcDbHatch
 10
0.0
 20
0.0
 30
0.0
210
0.0
220
0.0
230
1.0
  2
SOLID
 70
         1
 71
         1
 91
        1
 92
        2
 72
         0
 73
         1
 93
        3
 10
-21500.0
 20
-33382.495999999999
 10
-20357.0
 20
-32810.995999999999
 10
-20357.0
 20
-33953.995999999999
 97
        1
330
C5
 75
         0
 76
         1
 98
        1
 10
0.0
 20
0.0
  0
LWPOLYLINE
  5
C7
100
AcDbEntity
  8
DIMENSION
100
AcDbPolyline
 90
        3
 70
         1
 10
21500.0
 20
-33382.496
 10
20357.0
 20
-33953.995
 10
20357.0
 20
-32810.996
  0
HATCH
  5
C8
100
AcDbEntity
  8
DIMENSION
100
AcDbHatch
 10
0.0
 20
0.0
 30
0.0
210
0.0
220
0.0
230
1.0
  2
SOLID
 70
         1
 71
         1
 91
        1
 92
        2
 72
         0
 73
         1
 93
        3
 10
21500.0
 20
-33382.495999999999
 10
20357.0
 20
-33953.995000000003
 10
20357.0
 20
-32810.995999999999
 97
        1
330
C7
 75
         0
 76
         1
 98
        1
 10
0.0
 20
0.0
  0
LWPOLYLINE
  5
C9
100
AcDbEntity
  8
DIMENSION
100
AcDbPolyline
 90
        2
 70
         0
 43
203.2
 10
-25000.0
 20
-22508.0
 10
-25000.0
 20
-36079.344
  0
LWPOLYLINE
  5
CA
100
AcDbEntity
  8
DIMENSION
100
AcDbPolyline
 90
        2
 70
         0
 43
203.2
 10
25000.0
 20
-22508.0
 10
25000.0
 20
-36079.344
  0
LWPOLYLINE
  5
CB
100
AcDbEntity
  8
DIMENSION
100
AcDbPolyline
 90
        2
 70
         0
 43
203.2
 10
-24428.5
 20
-35571.344
 10
-2752.598
 20
-35571.344
  0
LWPOLYLINE
  5
CC
100
AcDbEntity
  8
DIMENSION
100
AcDbPolyline
 90
        2
 70
         0
 43
203.2
 10
2752.598
 20
-35571.344
 10
24428.5
 20
-35571.344
  0
LWPOLYLINE
  5
CD
100
AcDbEntity
  8
DIMENSION
100
AcDbPolyline
 90
        3
 70
         1
 10
-25000.0
 20
-35571.344
 10
-23857.0
 20
-34999.844
 10
-23857.0
 20
-36142.844
  0
HATCH
  5
CE
100
AcDbEntity
  8
DIMENSION
100
AcDbHatch
 10
0.0
 20
0.0
 30
0.0
210
0.0
220
0.0
230
1.0
  2
SOLID
 70
         1
 71
         1
 91
        1
 92
        2
 72
         0
 73
         1
 93
        3
 10
-25000.0
 20
-35571.343999999997
 10
-23857.0
 20
-34999.843999999997
 10
-23857.0
 20
-36142.843999999997
 97
        1
330
CD
 75
         0
 76
         1
 98
        1
 10
0.0
 20
0.0
  0
LWPOLYLINE
  5
CF
100
AcDbEntity
  8
DIMENSION
100
AcDbPolyline
 90
        3
 70
         1
 10
25000.0
 20
-35571.344
 10
23857.0
 20
-36142.843
 10
23857.0
 20
-34999.844
  0
HATCH
  5
D0
100
AcDbEntity
  8
DIMENSION
100
AcDbHatch
 10
0.0
 20
0.0
 30
0.0
210
0.0
220
0.0
230
1.0
  2
SOLID
 70
         1
 71
         1
 91
        1
 92
        2
 72
         0
 73
         1
 93
        3
 10
25000.0
 20
-35571.343999999997
 10
23857.0
 20
-36142.843000000001
 10
23857.0
 20
-34999.843999999997
 97
        1
330
CF
 75
         0
 76
         1
 98
        1
 10
0.0
 20
0.0
  0
LWPOLYLINE
  5
D1
100
AcDbEntity
  8
DIMENSION
100
AcDbPolyline
 90
        2
 70
         0
 43
203.2
 10
-22008.0
 20
-18500.0
 10
-28741.21
 20
-18500.0
  0
LWPOLYLINE
  5
D2
100
AcDbEntity
  8
DIMENSION
100
AcDbPolyline
 90
        2
 70
         0
 43
203.2
 10
-25508.0
 20
-22000.0
 10
-28741.21
 20
-22000.0
  0
LWPOLYLINE
  5
D3
100
AcDbEntity
  8
DIMENSION
100
AcDbPolyline
 90
        2
 70
         0
 43
203.2
 10
-28233.21
 20
-17928.5
 10
-28233.21
 20
-15642.5
  0
LWPOLYLINE
  5
D4
100
AcDbEntity
  8
DIMENSION
100
AcDbPolyline
 90
        2
 70
         0
 43
203.2
 10
-28233.21
 20
-22571.5
 10
-28233.21
 20
-24857.5
  0
LWPOLYLINE
  5
D5
100
AcDbEntity
  8
DIMENSION
100
AcDbPolyline
 90
        3
 70
         1
 10
-28233.21
 20
-18500.0
 10
-28804.71
 20
-17357.0
 10
-27661.71
 20
-17357.0
  0
HATCH
  5
D6
100
AcDbEntity
  8
DIMENSION
100
AcDbHatch
 10
0.0
 20
0.0
 30
0.0
210
0.0
220
0.0
230
1.0
  2
SOLID
 70
         1
 71
         1
 91
        1
 92
        2
 72
         0
 73
         1
 93
        3
 10
-28233.209999999999
 20
-18500.0
 10
-28804.709999999999
 20
-17357.0
 10
-27661.709999999999
 20
-17357.0
 97
        1
330
D5
 75
         0
 76
         1
 98
        1
 10
0.0
 20
0.0
  0
LWPOLYLINE
  5
D7
100
AcDbEntity
  8
DIMENSION
100
AcDbPolyline
 90
        3
 70
         1
 10
-28233.21
 20
-22000.0
 10
-27661.711
 20
-23143.0
 10
-28804.71
 20
-23142.999
  0
HATCH
  5
D8
100
AcDbEntity
  8
DIMENSION
100
AcDbHatch
 10
0.0
 20
0.0
 30
0.0
210
0.0
220
0.0
230
1.0
  2
SOLID
 70
         1
 71
         1
 91
        1
 92
        2
 72
         0
 73
         1
 93
        3
 10
-28233.209999999999
 20
-22000.0
 10
-27661.710999999999
 20
-23143.0
 10
-28804.709999999999
 20
-23142.999
 97
        1
330
D7
 75
         0
 76
         1
 98
        1
 10
0.0
 20
0.0
  0
LWPOLYLINE
  5
D9
100
AcDbEntity
  8
DIMENSION
100
AcDbPolyline
 90
        2
 70
         0
 43
203.2
 10
-22008.0
 20
-18500.0
 10
-30807.467
 20
-18500.0
  0
LWPOLYLINE
  5
DA
100
AcDbEntity
  8
DIMENSION
100
AcDbPolyline
 90
        2
 70
         0
 43
203.2
 10
-15258.0
 20
-19160.0
 10
-30807.467
 20
-19160.0
  0
LWPOLYLINE
  5
DB
100
AcDbEntity
  8
DIMENSION
100
AcDbPolyline
 90
        2
 70
         0
 43
203.2
 10
-30299.467
 20
-17928.5
 10
-30299.467
 20
-15642.5
  0
LWPOLYLINE
  5
DC
100
AcDbEntity
  8
DIMENSION
100
AcDbPolyline
 90
        2
 70
         0
 43
203.2
 10
-30299.467
 20
-19731.5
 10
-30299.467
 20
-22017.5
  0
LWPOLYLINE
  5
DD
100
AcDbEntity
  8
DIMENSION
100
AcDbPolyline
 90
        3
 70
         1
 10
-30299.467
 20
-18500.0
 10
-30870.967
 20
-17357.0
 10
-29727.967
 20
-17357.0
  0
HATCH
  5
DE
100
AcDbEntity
  8
DIMENSION
100
AcDbHatch
 10
0.0
 20
0.0
 30
0.0
210
0.0
220
0.0
230
1.0
  2
SOLID
 70
         1
 71
         1
 91
        1
 92
        2
 72
         0
 73
         1
 93
        3
 10
-30299.467000000001
 20
-18500.0
 10
-30870.967000000001
 20
-17357.0
 10
-29727.967000000001
 20
-17357.0
 97
        1
330
DD
 75
         0
 76
         1
 98
        1
 10
0.0
 20
0.0
  0
LWPOLYLINE
  5
DF
100
AcDbEntity
  8
DIMENSION
100
AcDbPolyline
 90
        3
 70
         1
 10
-30299.467
 20
-19160.0
 10
-29727.968
 20
-20303.0
 10
-30870.967
 20
-20302.999
  0
HATCH
  5
E0
100
AcDbEntity
  8
DIMENSION
100
AcDbHatch
 10
0.0
 20
0.0
 30
0.0
210
0.0
220
0.0
230
1.0
  2
SOLID
 70
         1
 71
         1
 91
        1
 92
        2
 72
         0
 73
         1
 93
        3
 10
-30299.467000000001
 20
-19160.0
 10
-29727.968000000001
 20
-20303.0
 10
-30870.967000000001
 20
-20302.999
 97
        1
330
DF
 75
         0
 76
         1
 98
        1
 10
0.0
 20
0.0
  0
LWPOLYLINE
  5
E1
100
AcDbEntity
  8
DIMENSION
100
AcDbPolyline
 90
        2
 70
         0
 43
203.2
 10
-17246.0
 20
-14094.0
 10
-32983.765
 20
-14094.0
  0
LWPOLYLINE
  5
E2
100
AcDbEntity
  8
DIMENSION
100
AcDbPolyline
 90
        2
 70
         0
 43
203.2
 10
-22008.0
 20
-18500.0
 10
-32983.765
 20
-18500.0
  0
LWPOLYLINE
  5
E3
100
AcDbEntity
  8
DIMENSION
100
AcDbPolyline
 90
        2
 70
         0
 43
203.2
 10
-32475.765
 20
-13522.5
 10
-32475.765
 20
-11236.5
  0
LWPOLYLINE
  5
E4
100
AcDbEntity
  8
DIMENSION
100
AcDbPolyline
 90
        2
 70
         0
 43
203.2
 10
-32475.765
 20
-19071.5
 10
-32475.765
 20
-21357.5
  0
LWPOLYLINE
  5
E5
100
AcDbEntity
  8
DIMENSION
100
AcDbPolyline
 90
        3
 70
         1
 10
-32475.765
 20
-14094.0
 10
-33047.265
 20
-12951.0
 10
-31904.265
 20
-12951.0
  0
HATCH
  5
E6
100
AcDbEntity
  8
DIMENSION
100
AcDbHatch
 10
0.0
 20
0.0
 30
0.0
210
0.0
220
0.0
230
1.0
  2
SOLID
 70
         1
 71
         1
 91
        1
 92
        2
 72
         0
 73
         1
 93
        3
 10
-32475.764999999999
 20
-14094.0
 10
-33047.264999999999
 20
-12951.0
 10
-31904.264999999999
 20
-12951.0
 97
        1
330
E5
 75
         0
 76
         1
 98
        1
 10
0.0
 20
0.0
  0
LWPOLYLINE
  5
E7
100
AcDbEntity
  8
DIMENSION
100
AcDbPolyline
 90
        3
 70
         1
 10
-32475.765
 20
-18500.0
 10
-31904.266
 20
-19643.0
 10
-33047.265
 20
-19642.999
  0
HATCH
  5
E8
100
AcDbEntity
  8
DIMENSION
100
AcDbHatch
 10
0.0
 20
0.0
 30
0.0
210
0.0
220
0.0
230
1.0
  2
SOLID
 70
         1
 71
         1
 91
        1
 92
        2
 72
         0
 73
         1
 93
        3
 10
-32475.764999999999
 20
-18500.0
 10
-31904.266
 20
-19643.0
 10
-33047.264999999999
 20
-19642.999
 97
        1
330
E7
 75
         0
 76
         1
 98
        1
 10
0.0
 20
0.0
  0
LWPOLYLINE
  5
E9
100
AcDbEntity
  8
DIMENSION
100
AcDbPolyline
 90
        2
 70
         0
 43
203.2
 10
-15258.0
 20
-13040.0
 10
-35167.064
 20
-13040.0
  0
LWPOLYLINE
  5
EA
100
AcDbEntity
  8
DIMENSION
100
AcDbPolyline
 90
        2
 70
         0
 43
203.2
 10
-22008.0
 20
-18500.0
 10
-35167.064
 20
-18500.0
  0
LWPOLYLINE
  5
EB
100
AcDbEntity
  8
DIMENSION
100
AcDbPolyline
 90
        2
 70
         0
 43
203.2
 10
-34659.064
 20
-12468.5
 10
-34659.064
 20
-10182.5
  0
LWPOLYLINE
  5
EC
100
AcDbEntity
  8
DIMENSION
100
AcDbPolyline
 90
        2
 70
         0
 43
203.2
 10
-34659.064
 20
-19071.5
 10
-34659.064
 20
-21357.5
  0
LWPOLYLINE
  5
ED
100
AcDbEntity
  8
DIMENSION
100
AcDbPolyline
 90
        3
 70
         1
 10
-34659.064
 20
-13040.0
 10
-35230.564
 20
-11897.0
 10
-34087.564
 20
-11897.0
  0
HATCH
  5
EE
100
AcDbEntity
  8
DIMENSION
100
AcDbHatch
 10
0.0
 20
0.0
 30
0.0
210
0.0
220
0.0
230
1.0
  2
SOLID
 70
         1
 71
         1
 91
        1
 92
        2
 72
         0
 73
         1
 93
        3
 10
-34659.063999999998
 20
-13040.0
 10
-35230.563999999998
 20
-11897.0
 10
-34087.563999999998
 20
-11897.0
 97
        1
330
ED
 75
         0
 76
         1
 98
        1
 10
0.0
 20
0.0
  0
LWPOLYLINE
  5
EF
100
AcDbEntity
  8
DIMENSION
100
AcDbPolyline
 90
        3
 70
         1
 10
-34659.064
 20
-18500.0
 10
-34087.565
 20
-19643.0
 10
-35230.564
 20
-19642.999
  0
HATCH
  5
F0
100
AcDbEntity
  8
DIMENSION
100
AcDbHatch
 10
0.0
 20
0.0
 30
0.0
210
0.0
220
0.0
230
1.0
  2
SOLID
 70
         1
 71
         1
 91
        1
 92
        2
 72
         0
 73
         1
 93
        3
 10
-34659.063999999998
 20
-18500.0
 10
-34087.565000000002
 20
-19643.0
 10
-35230.563999999998
 20
-19642.999
 97
        1
330
EF
 75
         0
 76
         1
 98
        1
 10
0.0
 20
0.0
  0
LWPOLYLINE
  5
F1
100
AcDbEntity
  8
DIMENSION
100
AcDbPolyline
 90
        2
 70
         0
 43
203.2
 10
-22008.0
 20
18500.0
 10
-35666.996
 20
18500.0
  0
LWPOLYLINE
  5
F2
100
AcDbEntity
  8
DIMENSION
100
AcDbPolyline
 90
        2
 70
         0
 43
203.2
 10
-12757.998
 20
13039.996
 10
-35666.996
 20
13039.996
  0
LWPOLYLINE
  5
F3
100
AcDbEntity
  8
DIMENSION
100
AcDbPolyline
 90
        2
 70
         0
 43
203.2
 10
-35158.996
 20
19071.5
 10
-35158.996
 20
21357.5
  0
LWPOLYLINE
  5
F4
100
AcDbEntity
  8
DIMENSION
100
AcDbPolyline
 90
        2
 70
         0
 43
203.2
 10
-35158.996
 20
12468.496
 10
-35158.996
 20
10182.496
  0
LWPOLYLINE
  5
F5
100
AcDbEntity
  8
DIMENSION
100
AcDbPolyline
 90
        3
 70
         1
 10
-35158.996
 20
18500.0
 10
-35730.496
 20
19643.0
 10
-34587.496
 20
19643.0
  0
HATCH
  5
F6
100
AcDbEntity
  8
DIMENSION
100
AcDbHatch
 10
0.0
 20
0.0
 30
0.0
210
0.0
220
0.0
230
1.0
  2
SOLID
 70
         1
 71
         1
 91
        1
 92
        2
 72
         0
 73
         1
 93
        3
 10
-35158.995999999999
 20
18500.0
 10
-35730.495999999999
 20
19643.0
 10
-34587.495999999999
 20
19643.0
 97
        1
330
F5
 75
         0
 76
         1
 98
        1
 10
0.0
 20
0.0
  0
LWPOLYLINE
  5
F7
100
AcDbEntity
  8
DIMENSION
100
AcDbPolyline
 90
        3
 70
         1
 10
-35158.996
 20
13039.996
 10
-34587.497
 20
11896.996
 10
-35730.496
 20
11896.997
  0
HATCH
  5
F8
100
AcDbEntity
  8
DIMENSION
100
AcDbHatch
 10
0.0
 20
0.0
 30
0.0
210
0.0
220
0.0
230
1.0
  2
SOLID
 70
         1
 71
         1
 91
        1
 92
        2
 72
         0
 73
         1
 93
        3
 10
-35158.995999999999
 20
13039.995999999999
 10
-34587.497000000003
 20
11896.995999999999
 10
-35730.495999999999
 20
11896.996999999999
 97
        1
330
F7
 75
         0
 76
         1
 98
        1
 10
0.0
 20
0.0
  0
LWPOLYLINE
  5
F9
100
AcDbEntity
  8
DIMENSION
100
AcDbPolyline
 90
        2
 70
         0
 43
203.2
 10
-22008.0
 20
18500.0
 10
-33225.279
 20
18500.0
  0
LWPOLYLINE
  5
FA
100
AcDbEntity
  8
DIMENSION
100
AcDbPolyline
 90
        2
 70
         0
 43
203.2
 10
-14748.0
 20
18110.0
 10
-33225.279
 20
18110.0
  0
LWPOLYLINE
  5
FB
100
AcDbEntity
  8
DIMENSION
100
AcDbPolyline
 90
        2
 70
         0
 43
203.2
 10
-32717.279
 20
19071.5
 10
-32717.279
 20
21357.5
  0
LWPOLYLINE
  5
FC
100
AcDbEntity
  8
DIMENSION
100
AcDbPolyline
 90
        2
 70
         0
 43
203.2
 10
-32717.279
 20
17538.5
 10
-32717.279
 20
15252.5
  0
LWPOLYLINE
  5
FD
100
AcDbEntity
  8
DIMENSION
100
AcDbPolyline
 90
        3
 70
         1
 10
-32717.279
 20
18500.0
 10
-33288.779
 20
19643.0
 10
-32145.779
 20
19643.0
  0
HATCH
  5
FE
100
AcDbEntity
  8
DIMENSION
100
AcDbHatch
 10
0.0
 20
0.0
 30
0.0
210
0.0
220
0.0
230
1.0
  2
SOLID
 70
         1
 71
         1
 91
        1
 92
        2
 72
         0
 73
         1
 93
        3
 10
-32717.278999999999
 20
18500.0
 10
-33288.779000000002
 20
19643.0
 10
-32145.778999999999
 20
19643.0
 97
        1
330
FD
 75
         0
 76
         1
 98
        1
 10
0.0
 20
0.0
  0
LWPOLYLINE
  5
FF
100
AcDbEntity
  8
DIMENSION
100
AcDbPolyline
 90
        3
 70
         1
 10
-32717.279
 20
18110.0
 10
-32145.78
 20
16967.0
 10
-33288.779
 20
16967.001
  0
HATCH
  5
100
100
AcDbEntity
  8
DIMENSION
100
AcDbHatch
 10
0.0
 20
0.0
 30
0.0
210
0.0
220
0.0
230
1.0
  2
SOLID
 70
         1
 71
         1
 91
        1
 92
        2
 72
         0
 73
         1
 93
        3
 10
-32717.278999999999
 20
18110.0
 10
-32145.779999999999
 20
16967.0
 10
-33288.779000000002
 20
16967.001
 97
        1
330
FF
 75
         0
 76
         1
 98
        1
 10
0.0
 20
0.0
  0
LWPOLYLINE
  5
101
100
AcDbEntity
  8
DIMENSION
100
AcDbPolyline
 90
        2
 70
         0
 43
203.2
 10
-12757.998
 20
19159.996
 10
-30794.981
 20
19159.996
  0
LWPOLYLINE
  5
102
100
AcDbEntity
  8
DIMENSION
100
AcDbPolyline
 90
        2
 70
         0
 43
203.2
 10
-22008.0
 20
18500.0
 10
-30794.981
 20
18500.0
  0
LWPOLYLINE
  5
103
100
AcDbEntity
  8
DIMENSION
100
AcDbPolyline
 90
        2
 70
         0
 43
203.2
 10
-30286.981
 20
19731.496
 10
-30286.981
 20
22017.496
  0
LWPOLYLINE
  5
104
100
AcDbEntity
  8
DIMENSION
100
AcDbPolyline
 90
        2
 70
         0
 43
203.2
 10
-30286.981
 20
17928.5
 10
-30286.981
 20
15642.5
  0
LWPOLYLINE
  5
105
100
AcDbEntity
  8
DIMENSION
100
AcDbPolyline
 90
        3
 70
         1
 10
-30286.981
 20
19159.996
 10
-30858.481
 20
20302.996
 10
-29715.481
 20
20302.996
  0
HATCH
  5
106
100
AcDbEntity
  8
DIMENSION
100
AcDbHatch
 10
0.0
 20
0.0
 30
0.0
210
0.0
220
0.0
230
1.0
  2
SOLID
 70
         1
 71
         1
 91
        1
 92
        2
 72
         0
 73
         1
 93
        3
 10
-30286.981
 20
19159.995999999999
 10
-30858.481
 20
20302.995999999999
 10
-29715.481
 20
20302.995999999999
 97
        1
330
105
 75
         0
 76
         1
 98
        1
 10
0.0
 20
0.0
  0
LWPOLYLINE
  5
107
100
AcDbEntity
  8
DIMENSION
100
AcDbPolyline
 90
        3
 70
         1
 10
-30286.981
 20
18500.0
 10
-29715.482
 20
17357.0
 10
-30858.481
 20
17357.001
  0
HATCH
  5
108
100
AcDbEntity
  8
DIMENSION
100
AcDbHatch
 10
0.0
 20
0.0
 30
0.0
210
0.0
220
0.0
230
1.0
  2
SOLID
 70
         1
 71
         1
 91
        1
 92
        2
 72
         0
 73
         1
 93
        3
 10
-30286.981
 20
18500.0
 10
-29715.482
 20
17357.0
 10
-30858.481
 20
17357.001
 97
        1
330
107
 75
         0
 76
         1
 98
        1
 10
0.0
 20
0.0
  0
LWPOLYLINE
  5
109
100
AcDbEntity
  8
DIMENSION
100
AcDbPolyline
 90
        2
 70
         0
 43
203.2
 10
-25508.0
 20
22000.0
 10
-28194.216
 20
22000.0
  0
LWPOLYLINE
  5
10A
100
AcDbEntity
  8
DIMENSION
100
AcDbPolyline
 90
        2
 70
         0
 43
203.2
 10
-22008.0
 20
18500.0
 10
-28194.216
 20
18500.0
  0
LWPOLYLINE
  5
10B
100
AcDbEntity
  8
DIMENSION
100
AcDbPolyline
 90
        2
 70
         0
 43
203.2
 10
-27686.216
 20
22571.5
 10
-27686.216
 20
24857.5
  0
LWPOLYLINE
  5
10C
100
AcDbEntity
  8
DIMENSION
100
AcDbPolyline
 90
        2
 70
         0
 43
203.2
 10
-27686.216
 20
17928.5
 10
-27686.216
 20
15642.5
  0
LWPOLYLINE
  5
10D
100
AcDbEntity
  8
DIMENSION
100
AcDbPolyline
 90
        3
 70
         1
 10
-27686.216
 20
22000.0
 10
-28257.716
 20
23143.0
 10
-27114.716
 20
23143.0
  0
HATCH
  5
10E
100
AcDbEntity
  8
DIMENSION
100
AcDbHatch
 10
0.0
 20
0.0
 30
0.0
210
0.0
220
0.0
230
1.0
  2
SOLID
 70
         1
 71
         1
 91
        1
 92
        2
 72
         0
 73
         1
 93
        3
 10
-27686.216
 20
22000.0
 10
-28257.716
 20
23143.0
 10
-27114.716
 20
23143.0
 97
        1
330
10D
 75
         0
 76
         1
 98
        1
 10
0.0
 20
0.0
  0
LWPOLYLINE
  5
10F
100
AcDbEntity
  8
DIMENSION
100
AcDbPolyline
 90
        3
 70
         1
 10
-27686.216
 20
18500.0
 10
-27114.717
 20
17357.0
 10
-28257.716
 20
17357.001
  0
HATCH
  5
110
100
AcDbEntity
  8
DIMENSION
100
AcDbHatch
 10
0.0
 20
0.0
 30
0.0
210
0.0
220
0.0
230
1.0
  2
SOLID
 70
         1
 71
         1
 91
        1
 92
        2
 72
         0
 73
         1
 93
        3
 10
-27686.216
 20
18500.0
 10
-27114.717000000001
 20
17357.0
 10
-28257.716
 20
17357.001
 97
        1
330
10F
 75
         0
 76
         1
 98
        1
 10
0.0
 20
0.0
  0
LWPOLYLINE
  5
111
100
AcDbEntity
  8
DIMENSION
100
AcDbPolyline
 90
        2
 70
         0
 43
203.2
 10
16738.0
 20
-14602.0
 10
16738.0
 20
-15759.872
  0
LWPOLYLINE
  5
112
100
AcDbEntity
  8
DIMENSION
100
AcDbPolyline
 90
        2
 70
         0
 43
203.2
 10
21500.0
 20
-17992.0
 10
21500.0
 20
-14743.872
  0
LWPOLYLINE
  5
113
100
AcDbEntity
  8
DIMENSION
100
AcDbPolyline
 90
        2
 70
         0
 43
203.2
 10
16166.5
 20
-15251.872
 10
13880.5
 20
-15251.872
  0
LWPOLYLINE
  5
114
100
AcDbEntity
  8
DIMENSION
100
AcDbPolyline
 90
        2
 70
         0
 43
203.2
 10
22071.5
 20
-15251.872
 10
24357.5
 20
-15251.872
  0
LWPOLYLINE
  5
115
100
AcDbEntity
  8
DIMENSION
100
AcDbPolyline
 90
        3
 70
         1
 10
16738.0
 20
-15251.872
 10
15595.0
 20
-15823.371
 10
15595.0
 20
-14680.372
  0
HATCH
  5
116
100
AcDbEntity
  8
DIMENSION
100
AcDbHatch
 10
0.0
 20
0.0
 30
0.0
210
0.0
220
0.0
230
1.0
  2
SOLID
 70
         1
 71
         1
 91
        1
 92
        2
 72
         0
 73
         1
 93
        3
 10
16738.0
 20
-15251.871999999999
 10
15595.0
 20
-15823.370999999999
 10
15595.0
 20
-14680.371999999999
 97
        1
330
115
 75
         0
 76
         1
 98
        1
 10
0.0
 20
0.0
  0
LWPOLYLINE
  5
117
100
AcDbEntity
  8
DIMENSION
100
AcDbPolyline
 90
        3
 70
         1
 10
21500.0
 20
-15251.872
 10
22643.0
 20
-14680.372
 10
22643.0
 20
-15823.372
  0
HATCH
  5
118
100
AcDbEntity
  8
DIMENSION
100
AcDbHatch
 10
0.0
 20
0.0
 30
0.0
210
0.0
220
0.0
230
1.0
  2
SOLID
 70
         1
 71
         1
 91
        1
 92
        2
 72
         0
 73
         1
 93
        3
 10
21500.0
 20
-15251.871999999999
 10
22643.0
 20
-14680.371999999999
 10
22643.0
 20
-15823.371999999999
 97
        1
330
117
 75
         0
 76
         1
 98
        1
 10
0.0
 20
0.0
  0
LWPOLYLINE
  5
119
100
AcDbEntity
  8
DIMENSION
100
AcDbPolyline
 90
        2
 70
         0
 43
203.2
 10
-7112.0
 20
9144.0
 10
-10922.0
 20
9144.0
  0
LWPOLYLINE
  5
11A
100
AcDbEntity
  8
DIMENSION
100
AcDbPolyline
 90
        2
 70
         0
 43
203.2
 10
-10922.0
 20
9144.0
 10
-14049.115
 20
17594.186
  0
LWPOLYLINE
  5
11B
100
AcDbEntity
  8
DIMENSION
100
AcDbPolyline
 90
        3
 70
         1
 10
-14049.115
 20
17594.186
 10
-13116.447
 20
16720.579
 10
-14188.399
 20
16323.887
  0
HATCH
  5
11C
100
AcDbEntity
  8
DIMENSION
100
AcDbHatch
 10
0.0
 20
0.0
 30
0.0
210
0.0
220
0.0
230
1.0
  2
SOLID
 70
         1
 71
         1
 91
        1
 92
        2
 72
         0
 73
         1
 93
        3
 10
-14049.115
 20
17594.186000000002
 10
-13116.447
 20
16720.579000000002
 10
-14188.398999999999
 20
16323.887000000001
 97
        1
330
11B
 75
         0
 76
         1
 98
        1
 10
0.0
 20
0.0
  0
LWPOLYLINE
  5
11D
100
AcDbEntity
  8
DIMENSION
100
AcDbPolyline
 90
        2
 70
         0
 43
203.2
 10
1400.0
 20
9100.0
 10
5210.0
 20
9100.0
  0
LWPOLYLINE
  5
11E
100
AcDbEntity
  8
DIMENSION
100
AcDbPolyline
 90
        2
 70
         0
 43
203.2
 10
5210.0
 20
9100.0
 10
13850.66
 20
17721.522
  0
LWPOLYLINE
  5
11F
100
AcDbEntity
  8
DIMENSION
100
AcDbPolyline
 90
        3
 70
         1
 10
13850.66
 20
17721.522
 10
13445.205
 20
16509.637
 10
12637.879
 20
17318.755
  0
HATCH
  5
120
100
AcDbEntity
  8
DIMENSION
100
AcDbHatch
 10
0.0
 20
0.0
 30
0.0
210
0.0
220
0.0
230
1.0
  2
SOLID
 70
         1
 71
         1
 91
        1
 92
        2
 72
         0
 73
         1
 93
        3
 10
13850.66
 20
17721.522000000001
 10
13445.205
 20
16509.636999999999
 10
12637.879000000001
 20
17318.755000000001
 97
        1
330
11F
 75
         0
 76
         1
 98
        1
 10
0.0
 20
0.0
  0
LWPOLYLINE
  5
121
100
AcDbEntity
  8
DIMENSION
100
AcDbPolyline
 90
        2
 70
         0
 43
203.2
 10
2500.0
 20
-7500.0
 10
6310.0
 20
-7500.0
  0
LWPOLYLINE
  5
122
100
AcDbEntity
  8
DIMENSION
100
AcDbPolyline
 90
        2
 70
         0
 43
203.2
 10
6310.0
 20
-7500.0
 10
16273.14
 20
-13800.052
  0
LWPOLYLINE
  5
123
100
AcDbEntity
  8
DIMENSION
100
AcDbPolyline
 90
        3
 70
         1
 10
16273.14
 20
-13800.052
 10
15001.639
 20
-13672.208
 10
15612.515
 20
-12706.144
  0
HATCH
  5
124
100
AcDbEntity
  8
DIMENSION
100
AcDbHatch
 10
0.0
 20
0.0
 30
0.0
210
0.0
220
0.0
230
1.0
  2
SOLID
 70
         1
 71
         1
 91
        1
 92
        2
 72
         0
 73
         1
 93
        3
 10
16273.139999999999
 20
-13800.052
 10
15001.638999999999
 20
-13672.208000000001
 10
15612.514999999999
 20
-12706.144
 97
        1
330
123
 75
         0
 76
         1
 98
        1
 10
0.0
 20
0.0
  0
LWPOLYLINE
  5
125
100
AcDbEntity
  8
DIMENSION
100
AcDbPolyline
 90
        2
 70
         0
 43
203.2
 10
-6000.0
 20
-7500.0
 10
-9810.0
 20
-7500.0
  0
LWPOLYLINE
  5
126
100
AcDbEntity
  8
DIMENSION
100
AcDbPolyline
 90
        2
 70
         0
 43
203.2
 10
-9810.0
 20
-7500.0
 10
-16339.606
 20
-13714.813
  0
LWPOLYLINE
  5
127
100
AcDbEntity
  8
DIMENSION
100
AcDbPolyline
 90
        3
 70
         1
 10
-16339.606
 20
-13714.813
 10
-15905.682
 20
-12512.827
 10
-15117.663
 20
-13340.761
  0
HATCH
  5
128
100
AcDbEntity
  8
DIMENSION
100
AcDbHatch
 10
0.0
 20
0.0
 30
0.0
210
0.0
220
0.0
230
1.0
  2
SOLID
 70
         1
 71
         1
 91
        1
 92
        2
 72
         0
 73
         1
 93
        3
 10
-16339.606
 20
-13714.813
 10
-15905.682000000001
 20
-12512.826999999999
 10
-15117.663
 20
-13340.761
 97
        1
330
127
 75
         0
 76
         1
 98
        1
 10
0.0
 20
0.0
  0
LWPOLYLINE
  5
129
100
AcDbEntity
  8
DIMENSION
100
AcDbPolyline
 90
        2
 70
         0
 43
203.2
 10
14750.0
 20
-12532.0
 10
14750.0
 20
-9092.0
  0
LWPOLYLINE
  5
12A
100
AcDbEntity
  8
DIMENSION
100
AcDbPolyline
 90
        2
 70
         0
 43
203.2
 10
21500.0
 20
-17992.0
 10
21500.0
 20
-9092.0
  0
LWPOLYLINE
  5
12B
100
AcDbEntity
  8
DIMENSION
100
AcDbPolyline
 90
        2
 70
         0
 43
203.2
 10
14178.5
 20
-9600.0
 10
11892.5
 20
-9600.0
  0
LWPOLYLINE
  5
12C
100
AcDbEntity
  8
DIMENSION
100
AcDbPolyline
 90
        2
 70
         0
 43
203.2
 10
22071.5
 20
-9600.0
 10
24357.5
 20
-9600.0
  0
LWPOLYLINE
  5
12D
100
AcDbEntity
  8
DIMENSION
100
AcDbPolyline
 90
        3
 70
         1
 10
14750.0
 20
-9600.0
 10
13607.0
 20
-10171.499
 10
13607.0
 20
-9028.5
  0
HATCH
  5
12E
100
AcDbEntity
  8
DIMENSION
100
AcDbHatch
 10
0.0
 20
0.0
 30
0.0
210
0.0
220
0.0
230
1.0
  2
SOLID
 70
         1
 71
         1
 91
        1
 92
        2
 72
         0
 73
         1
 93
        3
 10
14750.0
 20
-9600.0
 10
13607.0
 20
-10171.499
 10
13607.0
 20
-9028.5
 97
        1
330
12D
 75
         0
 76
         1
 98
        1
 10
0.0
 20
0.0
  0
LWPOLYLINE
  5
12F
100
AcDbEntity
  8
DIMENSION
100
AcDbPolyline
 90
        3
 70
         1
 10
21500.0
 20
-9600.0
 10
22643.0
 20
-9028.5
 10
22643.0
 20
-10171.5
  0
HATCH
  5
130
100
AcDbEntity
  8
DIMENSION
100
AcDbHatch
 10
0.0
 20
0.0
 30
0.0
210
0.0
220
0.0
230
1.0
  2
SOLID
 70
         1
 71
         1
 91
        1
 92
        2
 72
         0
 73
         1
 93
        3
 10
21500.0
 20
-9600.0
 10
22643.0
 20
-9028.5
 10
22643.0
 20
-10171.5
 97
        1
330
12F
 75
         0
 76
         1
 98
        1
 10
0.0
 20
0.0
  0
CIRCLE
  5
131
100
AcDbEntity
  8
DIMENSION
100
AcDbCircle
 10
-21500.0
 20
-18500.0
 30
0.0
 40
2500.0
  0
LWPOLYLINE
  5
132
100
AcDbEntity
  8
DIMENSION
100
AcDbPolyline
 90
        2
 70
         0
 43
203.2
 10
-30300.0
 20
-4500.0
 10
-26490.0
 20
-4500.0
  0
LWPOLYLINE
  5
133
100
AcDbEntity
  8
DIMENSION
100
AcDbPolyline
 90
        2
 70
         0
 43
203.2
 10
-26490.0
 20
-4500.0
 10
-22339.349
 20
-16145.112
  0
LWPOLYLINE
  5
134
100
AcDbEntity
  8
DIMENSION
100
AcDbPolyline
 90
        3
 70
         1
 10
-22339.349
 20
-16145.112
 10
-23261.426
 20
-15260.333
 10
-22184.773
 20
-14876.583
  0
HATCH
  5
135
100
AcDbEntity
  8
DIMENSION
100
AcDbHatch
 10
0.0
 20
0.0
 30
0.0
210
0.0
220
0.0
230
1.0
  2
SOLID
 70
         1
 71
         1
 91
        1
 92
        2
 72
         0
 73
         1
 93
        3
 10
-22339.348999999998
 20
-16145.111999999999
 10
-23261.425999999999
 20
-15260.333000000001
 10
-22184.773000000001
 20
-14876.583000000001
 97
        1
330
134
 75
         0
 76
         1
 98
        1
 10
0.0
 20
0.0
  0
LWPOLYLINE
  5
136
100
AcDbEntity
  8
DIMENSION
100
AcDbPolyline
 90
        2
 70
         0
 43
203.2
 10
-30400.0
 20
-8300.0
 10
-26590.0
 20
-8300.0
  0
LWPOLYLINE
  5
137
100
AcDbEntity
  8
DIMENSION
100
AcDbPolyline
 90
        2
 70
         0
 43
203.2
 10
-26590.0
 20
-8300.0
 10
-22102.79
 20
-17292.049
  0
LWPOLYLINE
  5
138
100
AcDbEntity
  8
DIMENSION
100
AcDbPolyline
 90
        3
 70
         1
 10
-22102.79
 20
-17292.049
 10
-23124.518
 20
-16524.5
 10
-22101.788
 20
-16014.137
  0
HATCH
  5
139
100
AcDbEntity
  8
DIMENSION
100
AcDbHatch
 10
0.0
 20
0.0
 30
0.0
210
0.0
220
0.0
230
1.0
  2
SOLID
 70
         1
 71
         1
 91
        1
 92
        2
 72
         0
 73
         1
 93
        3
 10
-22102.790000000001
 20
-17292.048999999999
 10
-23124.518
 20
-16524.5
 10
-22101.788
 20
-16014.137000000001
 97
        1
330
138
 75
         0
 76
         1
 98
        1
 10
0.0
 20
0.0
  0
CIRCLE
  5
13A
100
AcDbEntity
  8
MOUNTING_HOLES_LAYER_TOP
100
AcDbCircle
 10
-16738.0
 20
-14094.0
 30
0.0
 40
550.0
  0
HATCH
  5
13B
100
AcDbEntity
  8
MOUNTING_HOLES_LAYER_TOP
100
AcDbHatch
 10
0.0
 20
0.0
 30
0.0
210
0.0
220
0.0
230
1.0
  2
SOLID
 70
         1
 71
         1
 91
        1
 92
        1
 93
        1
 72
         2
 10
-16738.0
 20
-14094.0
 40
550.0
 50
0.0
 51
360.0
 73
         1
 97
        1
330
13A
 75
         0
 76
         1
 98
        1
 10
0.0
 20
0.0
  0
CIRCLE
  5
13C
100
AcDbEntity
  8
MOUNTING_HOLES_LAYER_TOP
100
AcDbCircle
 10
16738.0
 20
-14094.0
 30
0.0
 40
550.0
  0
HATCH
  5
13D
100
AcDbEntity
  8
MOUNTING_HOLES_LAYER_TOP
100
AcDbHatch
 10
0.0
 20
0.0
 30
0.0
210
0.0
220
0.0
230
1.0
  2
SOLID
 70
         1
 71
         1
 91
        1
 92
        1
 93
        1
 72
         2
 10
16738.0
 20
-14094.0
 40
550.0
 50
0.0
 51
360.0
 73
         1
 97
        1
330
13C
 75
         0
 76
         1
 98
        1
 10
0.0
 20
0.0
  0
CIRCLE
  5
13E
100
AcDbEntity
  8
MOUNTING_HOLES_LAYER_TOP
100
AcDbCircle
 10
-14240.0
 20
18110.0
 30
0.0
 40
550.0
  0
HATCH
  5
13F
100
AcDbEntity
  8
MOUNTING_HOLES_LAYER_TOP
100
AcDbHatch
 10
0.0
 20
0.0
 30
0.0
210
0.0
220
0.0
230
1.0
  2
SOLID
 70
         1
 71
         1
 91
        1
 92
        1
 93
        1
 72
         2
 10
-14240.0
 20
18110.0
 40
550.0
 50
0.0
 51
360.0
 73
         1
 97
        1
330
13E
 75
         0
 76
         1
 98
        1
 10
0.0
 20
0.0
  0
CIRCLE
  5
140
100
AcDbEntity
  8
MOUNTING_HOLES_LAYER_TOP
100
AcDbCircle
 10
14240.0
 20
18110.0
 30
0.0
 40
550.0
  0
HATCH
  5
141
100
AcDbEntity
  8
MOUNTING_HOLES_LAYER_TOP
100
AcDbHatch
 10
0.0
 20
0.0
 30
0.0
210
0.0
220
0.0
230
1.0
  2
SOLID
 70
         1
 71
         1
 91
        1
 92
        1
 93
        1
 72
         2
 10
14240.0
 20
18110.0
 40
550.0
 50
0.0
 51
360.0
 73
         1
 97
        1
330
140
 75
         0
 76
         1
 98
        1
 10
0.0
 20
0.0
  0
CIRCLE
  5
142
100
AcDbEntity
  8
PART_HOLES_LAYER_TOP
100
AcDbCircle
 10
-21500.0
 20
18500.0
 30
0.0
 40
1350.0
  0
HATCH
  5
143
100
AcDbEntity
  8
PART_HOLES_LAYER_TOP
100
AcDbHatch
 10
0.0
 20
0.0
 30
0.0
210
0.0
220
0.0
230
1.0
  2
SOLID
 70
         1
 71
         1
 91
        1
 92
        1
 93
        1
 72
         2
 10
-21500.0
 20
18500.0
 40
1350.0
 50
0.0
 51
360.0
 73
         1
 97
        1
330
142
 75
         0
 76
         1
 98
        1
 10
0.0
 20
0.0
  0
CIRCLE
  5
144
100
AcDbEntity
  8
PART_HOLES_LAYER_TOP
100
AcDbCircle
 10
21500.0
 20
18500.0
 30
0.0
 40
1350.0
  0
HATCH
  5
145
100
AcDbEntity
  8
PART_HOLES_LAYER_TOP
100
AcDbHatch
 10
0.0
 20
0.0
 30
0.0
210
0.0
220
0.0
230
1.0
  2
SOLID
 70
         1
 71
         1
 91
        1
 92
        1
 93
        1
 72
         2
 10
21500.0
 20
18500.0
 40
1350.0
 50
0.0
 51
360.0
 73
         1
 97
        1
330
144
 75
         0
 76
         1
 98
        1
 10
0.0
 20
0.0
  0
CIRCLE
  5
146
100
AcDbEntity
  8
PART_HOLES_LAYER_TOP
100
AcDbCircle
 10
-21500.0
 20
-18500.0
 30
0.0
 40
1350.0
  0
HATCH
  5
147
100
AcDbEntity
  8
PART_HOLES_LAYER_TOP
100
AcDbHatch
 10
0.0
 20
0.0
 30
0.0
210
0.0
220
0.0
230
1.0
  2
SOLID
 70
         1
 71
         1
 91
        1
 92
        1
 93
        1
 72
         2
 10
-21500.0
 20
-18500.0
 40
1350.0
 50
0.0
 51
360.0
 73
         1
 97
        1
330
146
 75
         0
 76
         1
 98
        1
 10
0.0
 20
0.0
  0
CIRCLE
  5
148
100
AcDbEntity
  8
PART_HOLES_LAYER_TOP
100
AcDbCircle
 10
21500.0
 20
-18500.0
 30
0.0
 40
1350.0
  0
HATCH
  5
149
100
AcDbEntity
  8
PART_HOLES_LAYER_TOP
100
AcDbHatch
 10
0.0
 20
0.0
 30
0.0
210
0.0
220
0.0
230
1.0
  2
SOLID
 70
         1
 71
         1
 91
        1
 92
        1
 93
        1
 72
         2
 10
21500.0
 20
-18500.0
 40
1350.0
 50
0.0
 51
360.0
 73
         1
 97
        1
330
148
 75
         0
 76
         1
 98
        1
 10
0.0
 20
0.0
  0
LWPOLYLINE
  5
14A
100
AcDbEntity
  8
PART_PADS_SMD_TOP
100
AcDbPolyline
 90
        4
 70
         1
 10
-14900.0
 20
-19910.0
 10
-14900.0
 20
-18410.0
 10
-14600.0
 20
-18410.0
 10
-14600.0
 20
-19910.0
  0
LWPOLYLINE
  5
14B
100
AcDbEntity
  8
PART_PADS_SMD_TOP
100
AcDbPolyline
 90
        4
 70
         1
 10
-14400.0
 20
-19910.0
 10
-14400.0
 20
-18410.0
 10
-14100.0
 20
-18410.0
 10
-14100.0
 20
-19910.0
  0
LWPOLYLINE
  5
14C
100
AcDbEntity
  8
PART_PADS_SMD_TOP
100
AcDbPolyline
 90
        4
 70
         1
 10
-13900.0
 20
-19910.0
 10
-13900.0
 20
-18410.0
 10
-13600.0
 20
-18410.0
 10
-13600.0
 20
-19910.0
  0
LWPOLYLINE
  5
14D
100
AcDbEntity
  8
PART_PADS_SMD_TOP
100
AcDbPolyline
 90
        4
 70
         1
 10
-13400.0
 20
-19910.0
 10
-13400.0
 20
-18410.0
 10
-13100.0
 20
-18410.0
 10
-13100.0
 20
-19910.0
  0
LWPOLYLINE
  5
14E
100
AcDbEntity
  8
PART_PADS_SMD_TOP
100
AcDbPolyline
 90
        4
 70
         1
 10
-12900.0
 20
-19910.0
 10
-12900.0
 20
-18410.0
 10
-12600.0
 20
-18410.0
 10
-12600.0
 20
-19910.0
  0
LWPOLYLINE
  5
14F
100
AcDbEntity
  8
PART_PADS_SMD_TOP
100
AcDbPolyline
 90
        4
 70
         1
 10
-12400.0
 20
-19910.0
 10
-12400.0
 20
-18410.0
 10
-12100.0
 20
-18410.0
 10
-12100.0
 20
-19910.0
  0
LWPOLYLINE
  5
150
100
AcDbEntity
  8
PART_PADS_SMD_TOP
100
AcDbPolyline
 90
        4
 70
         1
 10
-11900.0
 20
-19910.0
 10
-11900.0
 20
-18410.0
 10
-11600.0
 20
-18410.0
 10
-11600.0
 20
-19910.0
  0
LWPOLYLINE
  5
151
100
AcDbEntity
  8
PART_PADS_SMD_TOP
100
AcDbPolyline
 90
        4
 70
         1
 10
-11400.0
 20
-19910.0
 10
-11400.0
 20
-18410.0
 10
-11100.0
 20
-18410.0
 10
-11100.0
 20
-19910.0
  0
LWPOLYLINE
  5
152
100
AcDbEntity
  8
PART_PADS_SMD_TOP
100
AcDbPolyline
 90
        4
 70
         1
 10
-10900.0
 20
-19910.0
 10
-10900.0
 20
-18410.0
 10
-10600.0
 20
-18410.0
 10
-10600.0
 20
-19910.0
  0
LWPOLYLINE
  5
153
100
AcDbEntity
  8
PART_PADS_SMD_TOP
100
AcDbPolyline
 90
        4
 70
         1
 10
-10400.0
 20
-19910.0
 10
-10400.0
 20
-18410.0
 10
-10100.0
 20
-18410.0
 10
-10100.0
 20
-19910.0
  0
LWPOLYLINE
  5
154
100
AcDbEntity
  8
PART_PADS_SMD_TOP
100
AcDbPolyline
 90
        4
 70
         1
 10
-9900.0
 20
-19910.0
 10
-9900.0
 20
-18410.0
 10
-9600.0
 20
-18410.0
 10
-9600.0
 20
-19910.0
  0
LWPOLYLINE
  5
155
100
AcDbEntity
  8
PART_PADS_SMD_TOP
100
AcDbPolyline
 90
        4
 70
         1
 10
-9400.0
 20
-19910.0
 10
-9400.0
 20
-18410.0
 10
-9100.0
 20
-18410.0
 10
-9100.0
 20
-19910.0
  0
LWPOLYLINE
  5
156
100
AcDbEntity
  8
PART_PADS_SMD_TOP
100
AcDbPolyline
 90
        4
 70
         1
 10
-8900.0
 20
-19910.0
 10
-8900.0
 20
-18410.0
 10
-8600.0
 20
-18410.0
 10
-8600.0
 20
-19910.0
  0
LWPOLYLINE
  5
157
100
AcDbEntity
  8
PART_PADS_SMD_TOP
100
AcDbPolyline
 90
        4
 70
         1
 10
-8400.0
 20
-19910.0
 10
-8400.0
 20
-18410.0
 10
-8100.0
 20
-18410.0
 10
-8100.0
 20
-19910.0
  0
LWPOLYLINE
  5
158
100
AcDbEntity
  8
PART_PADS_SMD_TOP
100
AcDbPolyline
 90
        4
 70
         1
 10
-7900.0
 20
-19910.0
 10
-7900.0
 20
-18410.0
 10
-7600.0
 20
-18410.0
 10
-7600.0
 20
-19910.0
  0
LWPOLYLINE
  5
159
100
AcDbEntity
  8
PART_PADS_SMD_TOP
100
AcDbPolyline
 90
        4
 70
         1
 10
-7400.0
 20
-19910.0
 10
-7400.0
 20
-18410.0
 10
-7100.0
 20
-18410.0
 10
-7100.0
 20
-19910.0
  0
LWPOLYLINE
  5
15A
100
AcDbEntity
  8
PART_PADS_SMD_TOP
100
AcDbPolyline
 90
        4
 70
         1
 10
-6900.0
 20
-19910.0
 10
-6900.0
 20
-18410.0
 10
-6600.0
 20
-18410.0
 10
-6600.0
 20
-19910.0
  0
LWPOLYLINE
  5
15B
100
AcDbEntity
  8
PART_PADS_SMD_TOP
100
AcDbPolyline
 90
        4
 70
         1
 10
-6400.0
 20
-19910.0
 10
-6400.0
 20
-18410.0
 10
-6100.0
 20
-18410.0
 10
-6100.0
 20
-19910.0
  0
LWPOLYLINE
  5
15C
100
AcDbEntity
  8
PART_PADS_SMD_TOP
100
AcDbPolyline
 90
        4
 70
         1
 10
-5900.0
 20
-19910.0
 10
-5900.0
 20
-18410.0
 10
-5600.0
 20
-18410.0
 10
-5600.0
 20
-19910.0
  0
LWPOLYLINE
  5
15D
100
AcDbEntity
  8
PART_PADS_SMD_TOP
100
AcDbPolyline
 90
        4
 70
         1
 10
-5400.0
 20
-19910.0
 10
-5400.0
 20
-18410.0
 10
-5100.0
 20
-18410.0
 10
-5100.0
 20
-19910.0
  0
LWPOLYLINE
  5
15E
100
AcDbEntity
  8
PART_PADS_SMD_TOP
100
AcDbPolyline
 90
        4
 70
         1
 10
-4900.0
 20
-19910.0
 10
-4900.0
 20
-18410.0
 10
-4600.0
 20
-18410.0
 10
-4600.0
 20
-19910.0
  0
LWPOLYLINE
  5
15F
100
AcDbEntity
  8
PART_PADS_SMD_TOP
100
AcDbPolyline
 90
        4
 70
         1
 10
-4400.0
 20
-19910.0
 10
-4400.0
 20
-18410.0
 10
-4100.0
 20
-18410.0
 10
-4100.0
 20
-19910.0
  0
LWPOLYLINE
  5
160
100
AcDbEntity
  8
PART_PADS_SMD_TOP
100
AcDbPolyline
 90
        4
 70
         1
 10
-3900.0
 20
-19910.0
 10
-3900.0
 20
-18410.0
 10
-3600.0
 20
-18410.0
 10
-3600.0
 20
-19910.0
  0
LWPOLYLINE
  5
161
100
AcDbEntity
  8
PART_PADS_SMD_TOP
100
AcDbPolyline
 90
        4
 70
         1
 10
-3400.0
 20
-19910.0
 10
-3400.0
 20
-18410.0
 10
-3100.0
 20
-18410.0
 10
-3100.0
 20
-19910.0
  0
LWPOLYLINE
  5
162
100
AcDbEntity
  8
PART_PADS_SMD_TOP
100
AcDbPolyline
 90
        4
 70
         1
 10
-2900.0
 20
-19910.0
 10
-2900.0
 20
-18410.0
 10
-2600.0
 20
-18410.0
 10
-2600.0
 20
-19910.0
  0
LWPOLYLINE
  5
163
100
AcDbEntity
  8
PART_PADS_SMD_TOP
100
AcDbPolyline
 90
        4
 70
         1
 10
-2400.0
 20
-19910.0
 10
-2400.0
 20
-18410.0
 10
-2100.0
 20
-18410.0
 10
-2100.0
 20
-19910.0
  0
LWPOLYLINE
  5
164
100
AcDbEntity
  8
PART_PADS_SMD_TOP
100
AcDbPolyline
 90
        4
 70
         1
 10
-1900.0
 20
-19910.0
 10
-1900.0
 20
-18410.0
 10
-1600.0
 20
-18410.0
 10
-1600.0
 20
-19910.0
  0
LWPOLYLINE
  5
165
100
AcDbEntity
  8
PART_PADS_SMD_TOP
100
AcDbPolyline
 90
        4
 70
         1
 10
-1400.0
 20
-19910.0
 10
-1400.0
 20
-18410.0
 10
-1100.0
 20
-18410.0
 10
-1100.0
 20
-19910.0
  0
LWPOLYLINE
  5
166
100
AcDbEntity
  8
PART_PADS_SMD_TOP
100
AcDbPolyline
 90
        4
 70
         1
 10
-900.0
 20
-19910.0
 10
-900.0
 20
-18410.0
 10
-600.0
 20
-18410.0
 10
-600.0
 20
-19910.0
  0
LWPOLYLINE
  5
167
100
AcDbEntity
  8
PART_PADS_SMD_TOP
100
AcDbPolyline
 90
        4
 70
         1
 10
-400.0
 20
-19910.0
 10
-400.0
 20
-18410.0
 10
-100.0
 20
-18410.0
 10
-100.0
 20
-19910.0
  0
LWPOLYLINE
  5
168
100
AcDbEntity
  8
PART_PADS_SMD_TOP
100
AcDbPolyline
 90
        4
 70
         1
 10
100.0
 20
-19910.0
 10
100.0
 20
-18410.0
 10
400.0
 20
-18410.0
 10
400.0
 20
-19910.0
  0
LWPOLYLINE
  5
169
100
AcDbEntity
  8
PART_PADS_SMD_TOP
100
AcDbPolyline
 90
        4
 70
         1
 10
600.0
 20
-19910.0
 10
600.0
 20
-18410.0
 10
900.0
 20
-18410.0
 10
900.0
 20
-19910.0
  0
LWPOLYLINE
  5
16A
100
AcDbEntity
  8
PART_PADS_SMD_TOP
100
AcDbPolyline
 90
        4
 70
         1
 10
1100.0
 20
-19910.0
 10
1100.0
 20
-18410.0
 10
1400.0
 20
-18410.0
 10
1400.0
 20
-19910.0
  0
LWPOLYLINE
  5
16B
100
AcDbEntity
  8
PART_PADS_SMD_TOP
100
AcDbPolyline
 90
        4
 70
         1
 10
1600.0
 20
-19910.0
 10
1600.0
 20
-18410.0
 10
1900.0
 20
-18410.0
 10
1900.0
 20
-19910.0
  0
LWPOLYLINE
  5
16C
100
AcDbEntity
  8
PART_PADS_SMD_TOP
100
AcDbPolyline
 90
        4
 70
         1
 10
2100.0
 20
-19910.0
 10
2100.0
 20
-18410.0
 10
2400.0
 20
-18410.0
 10
2400.0
 20
-19910.0
  0
LWPOLYLINE
  5
16D
100
AcDbEntity
  8
PART_PADS_SMD_TOP
100
AcDbPolyline
 90
        4
 70
         1
 10
2600.0
 20
-19910.0
 10
2600.0
 20
-18410.0
 10
2900.0
 20
-18410.0
 10
2900.0
 20
-19910.0
  0
LWPOLYLINE
  5
16E
100
AcDbEntity
  8
PART_PADS_SMD_TOP
100
AcDbPolyline
 90
        4
 70
         1
 10
3100.0
 20
-19910.0
 10
3100.0
 20
-18410.0
 10
3400.0
 20
-18410.0
 10
3400.0
 20
-19910.0
  0
LWPOLYLINE
  5
16F
100
AcDbEntity
  8
PART_PADS_SMD_TOP
100
AcDbPolyline
 90
        4
 70
         1
 10
3600.0
 20
-19910.0
 10
3600.0
 20
-18410.0
 10
3900.0
 20
-18410.0
 10
3900.0
 20
-19910.0
  0
LWPOLYLINE
  5
170
100
AcDbEntity
  8
PART_PADS_SMD_TOP
100
AcDbPolyline
 90
        4
 70
         1
 10
4100.0
 20
-19910.0
 10
4100.0
 20
-18410.0
 10
4400.0
 20
-18410.0
 10
4400.0
 20
-19910.0
  0
LWPOLYLINE
  5
171
100
AcDbEntity
  8
PART_PADS_SMD_TOP
100
AcDbPolyline
 90
        4
 70
         1
 10
4600.0
 20
-19910.0
 10
4600.0
 20
-18410.0
 10
4900.0
 20
-18410.0
 10
4900.0
 20
-19910.0
  0
LWPOLYLINE
  5
172
100
AcDbEntity
  8
PART_PADS_SMD_TOP
100
AcDbPolyline
 90
        4
 70
         1
 10
5100.0
 20
-19910.0
 10
5100.0
 20
-18410.0
 10
5400.0
 20
-18410.0
 10
5400.0
 20
-19910.0
  0
LWPOLYLINE
  5
173
100
AcDbEntity
  8
PART_PADS_SMD_TOP
100
AcDbPolyline
 90
        4
 70
         1
 10
5600.0
 20
-19910.0
 10
5600.0
 20
-18410.0
 10
5900.0
 20
-18410.0
 10
5900.0
 20
-19910.0
  0
LWPOLYLINE
  5
174
100
AcDbEntity
  8
PART_PADS_SMD_TOP
100
AcDbPolyline
 90
        4
 70
         1
 10
6100.0
 20
-19910.0
 10
6100.0
 20
-18410.0
 10
6400.0
 20
-18410.0
 10
6400.0
 20
-19910.0
  0
LWPOLYLINE
  5
175
100
AcDbEntity
  8
PART_PADS_SMD_TOP
100
AcDbPolyline
 90
        4
 70
         1
 10
6600.0
 20
-19910.0
 10
6600.0
 20
-18410.0
 10
6900.0
 20
-18410.0
 10
6900.0
 20
-19910.0
  0
LWPOLYLINE
  5
176
100
AcDbEntity
  8
PART_PADS_SMD_TOP
100
AcDbPolyline
 90
        4
 70
         1
 10
7100.0
 20
-19910.0
 10
7100.0
 20
-18410.0
 10
7400.0
 20
-18410.0
 10
7400.0
 20
-19910.0
  0
LWPOLYLINE
  5
177
100
AcDbEntity
  8
PART_PADS_SMD_TOP
100
AcDbPolyline
 90
        4
 70
         1
 10
7600.0
 20
-19910.0
 10
7600.0
 20
-18410.0
 10
7900.0
 20
-18410.0
 10
7900.0
 20
-19910.0
  0
LWPOLYLINE
  5
178
100
AcDbEntity
  8
PART_PADS_SMD_TOP
100
AcDbPolyline
 90
        4
 70
         1
 10
8100.0
 20
-19910.0
 10
8100.0
 20
-18410.0
 10
8400.0
 20
-18410.0
 10
8400.0
 20
-19910.0
  0
LWPOLYLINE
  5
179
100
AcDbEntity
  8
PART_PADS_SMD_TOP
100
AcDbPolyline
 90
        4
 70
         1
 10
8600.0
 20
-19910.0
 10
8600.0
 20
-18410.0
 10
8900.0
 20
-18410.0
 10
8900.0
 20
-19910.0
  0
LWPOLYLINE
  5
17A
100
AcDbEntity
  8
PART_PADS_SMD_TOP
100
AcDbPolyline
 90
        4
 70
         1
 10
9100.0
 20
-19910.0
 10
9100.0
 20
-18410.0
 10
9400.0
 20
-18410.0
 10
9400.0
 20
-19910.0
  0
LWPOLYLINE
  5
17B
100
AcDbEntity
  8
PART_PADS_SMD_TOP
100
AcDbPolyline
 90
        4
 70
         1
 10
9600.0
 20
-19910.0
 10
9600.0
 20
-18410.0
 10
9900.0
 20
-18410.0
 10
9900.0
 20
-19910.0
  0
LWPOLYLINE
  5
17C
100
AcDbEntity
  8
PART_PADS_SMD_TOP
100
AcDbPolyline
 90
        4
 70
         1
 10
10100.0
 20
-19910.0
 10
10100.0
 20
-18410.0
 10
10400.0
 20
-18410.0
 10
10400.0
 20
-19910.0
  0
LWPOLYLINE
  5
17D
100
AcDbEntity
  8
PART_PADS_SMD_TOP
100
AcDbPolyline
 90
        4
 70
         1
 10
10600.0
 20
-19910.0
 10
10600.0
 20
-18410.0
 10
10900.0
 20
-18410.0
 10
10900.0
 20
-19910.0
  0
LWPOLYLINE
  5
17E
100
AcDbEntity
  8
PART_PADS_SMD_TOP
100
AcDbPolyline
 90
        4
 70
         1
 10
11100.0
 20
-19910.0
 10
11100.0
 20
-18410.0
 10
11400.0
 20
-18410.0
 10
11400.0
 20
-19910.0
  0
LWPOLYLINE
  5
17F
100
AcDbEntity
  8
PART_PADS_SMD_TOP
100
AcDbPolyline
 90
        4
 70
         1
 10
11600.0
 20
-19910.0
 10
11600.0
 20
-18410.0
 10
11900.0
 20
-18410.0
 10
11900.0
 20
-19910.0
  0
LWPOLYLINE
  5
180
100
AcDbEntity
  8
PART_PADS_SMD_TOP
100
AcDbPolyline
 90
        4
 70
         1
 10
12100.0
 20
-19910.0
 10
12100.0
 20
-18410.0
 10
12400.0
 20
-18410.0
 10
12400.0
 20
-19910.0
  0
LWPOLYLINE
  5
181
100
AcDbEntity
  8
PART_PADS_SMD_TOP
100
AcDbPolyline
 90
        4
 70
         1
 10
12600.0
 20
-19910.0
 10
12600.0
 20
-18410.0
 10
12900.0
 20
-18410.0
 10
12900.0
 20
-19910.0
  0
LWPOLYLINE
  5
182
100
AcDbEntity
  8
PART_PADS_SMD_TOP
100
AcDbPolyline
 90
        4
 70
         1
 10
13100.0
 20
-19910.0
 10
13100.0
 20
-18410.0
 10
13400.0
 20
-18410.0
 10
13400.0
 20
-19910.0
  0
LWPOLYLINE
  5
183
100
AcDbEntity
  8
PART_PADS_SMD_TOP
100
AcDbPolyline
 90
        4
 70
         1
 10
13600.0
 20
-19910.0
 10
13600.0
 20
-18410.0
 10
13900.0
 20
-18410.0
 10
13900.0
 20
-19910.0
  0
LWPOLYLINE
  5
184
100
AcDbEntity
  8
PART_PADS_SMD_TOP
100
AcDbPolyline
 90
        4
 70
         1
 10
14100.0
 20
-19910.0
 10
14100.0
 20
-18410.0
 10
14400.0
 20
-18410.0
 10
14400.0
 20
-19910.0
  0
LWPOLYLINE
  5
185
100
AcDbEntity
  8
PART_PADS_SMD_TOP
100
AcDbPolyline
 90
        4
 70
         1
 10
14600.0
 20
-19910.0
 10
14600.0
 20
-18410.0
 10
14900.0
 20
-18410.0
 10
14900.0
 20
-19910.0
  0
LWPOLYLINE
  5
186
100
AcDbEntity
  8
PART_PADS_SMD_TOP
100
AcDbPolyline
 90
        4
 70
         1
 10
-14900.0
 20
-13790.0
 10
-14900.0
 20
-12290.0
 10
-14600.0
 20
-12290.0
 10
-14600.0
 20
-13790.0
  0
LWPOLYLINE
  5
187
100
AcDbEntity
  8
PART_PADS_SMD_TOP
100
AcDbPolyline
 90
        4
 70
         1
 10
-14400.0
 20
-13790.0
 10
-14400.0
 20
-12290.0
 10
-14100.0
 20
-12290.0
 10
-14100.0
 20
-13790.0
  0
LWPOLYLINE
  5
188
100
AcDbEntity
  8
PART_PADS_SMD_TOP
100
AcDbPolyline
 90
        4
 70
         1
 10
-13900.0
 20
-13790.0
 10
-13900.0
 20
-12290.0
 10
-13600.0
 20
-12290.0
 10
-13600.0
 20
-13790.0
  0
LWPOLYLINE
  5
189
100
AcDbEntity
  8
PART_PADS_SMD_TOP
100
AcDbPolyline
 90
        4
 70
         1
 10
-13400.0
 20
-13790.0
 10
-13400.0
 20
-12290.0
 10
-13100.0
 20
-12290.0
 10
-13100.0
 20
-13790.0
  0
LWPOLYLINE
  5
18A
100
AcDbEntity
  8
PART_PADS_SMD_TOP
100
AcDbPolyline
 90
        4
 70
         1
 10
-12900.0
 20
-13790.0
 10
-12900.0
 20
-12290.0
 10
-12600.0
 20
-12290.0
 10
-12600.0
 20
-13790.0
  0
LWPOLYLINE
  5
18B
100
AcDbEntity
  8
PART_PADS_SMD_TOP
100
AcDbPolyline
 90
        4
 70
         1
 10
-12400.0
 20
-13790.0
 10
-12400.0
 20
-12290.0
 10
-12100.0
 20
-12290.0
 10
-12100.0
 20
-13790.0
  0
LWPOLYLINE
  5
18C
100
AcDbEntity
  8
PART_PADS_SMD_TOP
100
AcDbPolyline
 90
        4
 70
         1
 10
-11900.0
 20
-13790.0
 10
-11900.0
 20
-12290.0
 10
-11600.0
 20
-12290.0
 10
-11600.0
 20
-13790.0
  0
LWPOLYLINE
  5
18D
100
AcDbEntity
  8
PART_PADS_SMD_TOP
100
AcDbPolyline
 90
        4
 70
         1
 10
-11400.0
 20
-13790.0
 10
-11400.0
 20
-12290.0
 10
-11100.0
 20
-12290.0
 10
-11100.0
 20
-13790.0
  0
LWPOLYLINE
  5
18E
100
AcDbEntity
  8
PART_PADS_SMD_TOP
100
AcDbPolyline
 90
        4
 70
         1
 10
-10900.0
 20
-13790.0
 10
-10900.0
 20
-12290.0
 10
-10600.0
 20
-12290.0
 10
-10600.0
 20
-13790.0
  0
LWPOLYLINE
  5
18F
100
AcDbEntity
  8
PART_PADS_SMD_TOP
100
AcDbPolyline
 90
        4
 70
         1
 10
-10400.0
 20
-13790.0
 10
-10400.0
 20
-12290.0
 10
-10100.0
 20
-12290.0
 10
-10100.0
 20
-13790.0
  0
LWPOLYLINE
  5
190
100
AcDbEntity
  8
PART_PADS_SMD_TOP
100
AcDbPolyline
 90
        4
 70
         1
 10
-9900.0
 20
-13790.0
 10
-9900.0
 20
-12290.0
 10
-9600.0
 20
-12290.0
 10
-9600.0
 20
-13790.0
  0
LWPOLYLINE
  5
191
100
AcDbEntity
  8
PART_PADS_SMD_TOP
100
AcDbPolyline
 90
        4
 70
         1
 10
-9400.0
 20
-13790.0
 10
-9400.0
 20
-12290.0
 10
-9100.0
 20
-12290.0
 10
-9100.0
 20
-13790.0
  0
LWPOLYLINE
  5
192
100
AcDbEntity
  8
PART_PADS_SMD_TOP
100
AcDbPolyline
 90
        4
 70
         1
 10
-8900.0
 20
-13790.0
 10
-8900.0
 20
-12290.0
 10
-8600.0
 20
-12290.0
 10
-8600.0
 20
-13790.0
  0
LWPOLYLINE
  5
193
100
AcDbEntity
  8
PART_PADS_SMD_TOP
100
AcDbPolyline
 90
        4
 70
         1
 10
-8400.0
 20
-13790.0
 10
-8400.0
 20
-12290.0
 10
-8100.0
 20
-12290.0
 10
-8100.0
 20
-13790.0
  0
LWPOLYLINE
  5
194
100
AcDbEntity
  8
PART_PADS_SMD_TOP
100
AcDbPolyline
 90
        4
 70
         1
 10
-7900.0
 20
-13790.0
 10
-7900.0
 20
-12290.0
 10
-7600.0
 20
-12290.0
 10
-7600.0
 20
-13790.0
  0
LWPOLYLINE
  5
195
100
AcDbEntity
  8
PART_PADS_SMD_TOP
100
AcDbPolyline
 90
        4
 70
         1
 10
-7400.0
 20
-13790.0
 10
-7400.0
 20
-12290.0
 10
-7100.0
 20
-12290.0
 10
-7100.0
 20
-13790.0
  0
LWPOLYLINE
  5
196
100
AcDbEntity
  8
PART_PADS_SMD_TOP
100
AcDbPolyline
 90
        4
 70
         1
 10
-6900.0
 20
-13790.0
 10
-6900.0
 20
-12290.0
 10
-6600.0
 20
-12290.0
 10
-6600.0
 20
-13790.0
  0
LWPOLYLINE
  5
197
100
AcDbEntity
  8
PART_PADS_SMD_TOP
100
AcDbPolyline
 90
        4
 70
         1
 10
-6400.0
 20
-13790.0
 10
-6400.0
 20
-12290.0
 10
-6100.0
 20
-12290.0
 10
-6100.0
 20
-13790.0
  0
LWPOLYLINE
  5
198
100
AcDbEntity
  8
PART_PADS_SMD_TOP
100
AcDbPolyline
 90
        4
 70
         1
 10
-5900.0
 20
-13790.0
 10
-5900.0
 20
-12290.0
 10
-5600.0
 20
-12290.0
 10
-5600.0
 20
-13790.0
  0
LWPOLYLINE
  5
199
100
AcDbEntity
  8
PART_PADS_SMD_TOP
100
AcDbPolyline
 90
        4
 70
         1
 10
-5400.0
 20
-13790.0
 10
-5400.0
 20
-12290.0
 10
-5100.0
 20
-12290.0
 10
-5100.0
 20
-13790.0
  0
LWPOLYLINE
  5
19A
100
AcDbEntity
  8
PART_PADS_SMD_TOP
100
AcDbPolyline
 90
        4
 70
         1
 10
-4900.0
 20
-13790.0
 10
-4900.0
 20
-12290.0
 10
-4600.0
 20
-12290.0
 10
-4600.0
 20
-13790.0
  0
LWPOLYLINE
  5
19B
100
AcDbEntity
  8
PART_PADS_SMD_TOP
100
AcDbPolyline
 90
        4
 70
         1
 10
-4400.0
 20
-13790.0
 10
-4400.0
 20
-12290.0
 10
-4100.0
 20
-12290.0
 10
-4100.0
 20
-13790.0
  0
LWPOLYLINE
  5
19C
100
AcDbEntity
  8
PART_PADS_SMD_TOP
100
AcDbPolyline
 90
        4
 70
         1
 10
-3900.0
 20
-13790.0
 10
-3900.0
 20
-12290.0
 10
-3600.0
 20
-12290.0
 10
-3600.0
 20
-13790.0
  0
LWPOLYLINE
  5
19D
100
AcDbEntity
  8
PART_PADS_SMD_TOP
100
AcDbPolyline
 90
        4
 70
         1
 10
-3400.0
 20
-13790.0
 10
-3400.0
 20
-12290.0
 10
-3100.0
 20
-12290.0
 10
-3100.0
 20
-13790.0
  0
LWPOLYLINE
  5
19E
100
AcDbEntity
  8
PART_PADS_SMD_TOP
100
AcDbPolyline
 90
        4
 70
         1
 10
-2900.0
 20
-13790.0
 10
-2900.0
 20
-12290.0
 10
-2600.0
 20
-12290.0
 10
-2600.0
 20
-13790.0
  0
LWPOLYLINE
  5
19F
100
AcDbEntity
  8
PART_PADS_SMD_TOP
100
AcDbPolyline
 90
        4
 70
         1
 10
-2400.0
 20
-13790.0
 10
-2400.0
 20
-12290.0
 10
-2100.0
 20
-12290.0
 10
-2100.0
 20
-13790.0
  0
LWPOLYLINE
  5
1A0
100
AcDbEntity
  8
PART_PADS_SMD_TOP
100
AcDbPolyline
 90
        4
 70
         1
 10
-1900.0
 20
-13790.0
 10
-1900.0
 20
-12290.0
 10
-1600.0
 20
-12290.0
 10
-1600.0
 20
-13790.0
  0
LWPOLYLINE
  5
1A1
100
AcDbEntity
  8
PART_PADS_SMD_TOP
100
AcDbPolyline
 90
        4
 70
         1
 10
-1400.0
 20
-13790.0
 10
-1400.0
 20
-12290.0
 10
-1100.0
 20
-12290.0
 10
-1100.0
 20
-13790.0
  0
LWPOLYLINE
  5
1A2
100
AcDbEntity
  8
PART_PADS_SMD_TOP
100
AcDbPolyline
 90
        4
 70
         1
 10
-900.0
 20
-13790.0
 10
-900.0
 20
-12290.0
 10
-600.0
 20
-12290.0
 10
-600.0
 20
-13790.0
  0
LWPOLYLINE
  5
1A3
100
AcDbEntity
  8
PART_PADS_SMD_TOP
100
AcDbPolyline
 90
        4
 70
         1
 10
-400.0
 20
-13790.0
 10
-400.0
 20
-12290.0
 10
-100.0
 20
-12290.0
 10
-100.0
 20
-13790.0
  0
LWPOLYLINE
  5
1A4
100
AcDbEntity
  8
PART_PADS_SMD_TOP
100
AcDbPolyline
 90
        4
 70
         1
 10
100.0
 20
-13790.0
 10
100.0
 20
-12290.0
 10
400.0
 20
-12290.0
 10
400.0
 20
-13790.0
  0
LWPOLYLINE
  5
1A5
100
AcDbEntity
  8
PART_PADS_SMD_TOP
100
AcDbPolyline
 90
        4
 70
         1
 10
600.0
 20
-13790.0
 10
600.0
 20
-12290.0
 10
900.0
 20
-12290.0
 10
900.0
 20
-13790.0
  0
LWPOLYLINE
  5
1A6
100
AcDbEntity
  8
PART_PADS_SMD_TOP
100
AcDbPolyline
 90
        4
 70
         1
 10
1100.0
 20
-13790.0
 10
1100.0
 20
-12290.0
 10
1400.0
 20
-12290.0
 10
1400.0
 20
-13790.0
  0
LWPOLYLINE
  5
1A7
100
AcDbEntity
  8
PART_PADS_SMD_TOP
100
AcDbPolyline
 90
        4
 70
         1
 10
1600.0
 20
-13790.0
 10
1600.0
 20
-12290.0
 10
1900.0
 20
-12290.0
 10
1900.0
 20
-13790.0
  0
LWPOLYLINE
  5
1A8
100
AcDbEntity
  8
PART_PADS_SMD_TOP
100
AcDbPolyline
 90
        4
 70
         1
 10
2100.0
 20
-13790.0
 10
2100.0
 20
-12290.0
 10
2400.0
 20
-12290.0
 10
2400.0
 20
-13790.0
  0
LWPOLYLINE
  5
1A9
100
AcDbEntity
  8
PART_PADS_SMD_TOP
100
AcDbPolyline
 90
        4
 70
         1
 10
2600.0
 20
-13790.0
 10
2600.0
 20
-12290.0
 10
2900.0
 20
-12290.0
 10
2900.0
 20
-13790.0
  0
LWPOLYLINE
  5
1AA
100
AcDbEntity
  8
PART_PADS_SMD_TOP
100
AcDbPolyline
 90
        4
 70
         1
 10
3100.0
 20
-13790.0
 10
3100.0
 20
-12290.0
 10
3400.0
 20
-12290.0
 10
3400.0
 20
-13790.0
  0
LWPOLYLINE
  5
1AB
100
AcDbEntity
  8
PART_PADS_SMD_TOP
100
AcDbPolyline
 90
        4
 70
         1
 10
3600.0
 20
-13790.0
 10
3600.0
 20
-12290.0
 10
3900.0
 20
-12290.0
 10
3900.0
 20
-13790.0
  0
LWPOLYLINE
  5
1AC
100
AcDbEntity
  8
PART_PADS_SMD_TOP
100
AcDbPolyline
 90
        4
 70
         1
 10
4100.0
 20
-13790.0
 10
4100.0
 20
-12290.0
 10
4400.0
 20
-12290.0
 10
4400.0
 20
-13790.0
  0
LWPOLYLINE
  5
1AD
100
AcDbEntity
  8
PART_PADS_SMD_TOP
100
AcDbPolyline
 90
        4
 70
         1
 10
4600.0
 20
-13790.0
 10
4600.0
 20
-12290.0
 10
4900.0
 20
-12290.0
 10
4900.0
 20
-13790.0
  0
LWPOLYLINE
  5
1AE
100
AcDbEntity
  8
PART_PADS_SMD_TOP
100
AcDbPolyline
 90
        4
 70
         1
 10
5100.0
 20
-13790.0
 10
5100.0
 20
-12290.0
 10
5400.0
 20
-12290.0
 10
5400.0
 20
-13790.0
  0
LWPOLYLINE
  5
1AF
100
AcDbEntity
  8
PART_PADS_SMD_TOP
100
AcDbPolyline
 90
        4
 70
         1
 10
5600.0
 20
-13790.0
 10
5600.0
 20
-12290.0
 10
5900.0
 20
-12290.0
 10
5900.0
 20
-13790.0
  0
LWPOLYLINE
  5
1B0
100
AcDbEntity
  8
PART_PADS_SMD_TOP
100
AcDbPolyline
 90
        4
 70
         1
 10
6100.0
 20
-13790.0
 10
6100.0
 20
-12290.0
 10
6400.0
 20
-12290.0
 10
6400.0
 20
-13790.0
  0
LWPOLYLINE
  5
1B1
100
AcDbEntity
  8
PART_PADS_SMD_TOP
100
AcDbPolyline
 90
        4
 70
         1
 10
6600.0
 20
-13790.0
 10
6600.0
 20
-12290.0
 10
6900.0
 20
-12290.0
 10
6900.0
 20
-13790.0
  0
LWPOLYLINE
  5
1B2
100
AcDbEntity
  8
PART_PADS_SMD_TOP
100
AcDbPolyline
 90
        4
 70
         1
 10
7100.0
 20
-13790.0
 10
7100.0
 20
-12290.0
 10
7400.0
 20
-12290.0
 10
7400.0
 20
-13790.0
  0
LWPOLYLINE
  5
1B3
100
AcDbEntity
  8
PART_PADS_SMD_TOP
100
AcDbPolyline
 90
        4
 70
         1
 10
7600.0
 20
-13790.0
 10
7600.0
 20
-12290.0
 10
7900.0
 20
-12290.0
 10
7900.0
 20
-13790.0
  0
LWPOLYLINE
  5
1B4
100
AcDbEntity
  8
PART_PADS_SMD_TOP
100
AcDbPolyline
 90
        4
 70
         1
 10
8100.0
 20
-13790.0
 10
8100.0
 20
-12290.0
 10
8400.0
 20
-12290.0
 10
8400.0
 20
-13790.0
  0
LWPOLYLINE
  5
1B5
100
AcDbEntity
  8
PART_PADS_SMD_TOP
100
AcDbPolyline
 90
        4
 70
         1
 10
8600.0
 20
-13790.0
 10
8600.0
 20
-12290.0
 10
8900.0
 20
-12290.0
 10
8900.0
 20
-13790.0
  0
LWPOLYLINE
  5
1B6
100
AcDbEntity
  8
PART_PADS_SMD_TOP
100
AcDbPolyline
 90
        4
 70
         1
 10
9100.0
 20
-13790.0
 10
9100.0
 20
-12290.0
 10
9400.0
 20
-12290.0
 10
9400.0
 20
-13790.0
  0
LWPOLYLINE
  5
1B7
100
AcDbEntity
  8
PART_PADS_SMD_TOP
100
AcDbPolyline
 90
        4
 70
         1
 10
9600.0
 20
-13790.0
 10
9600.0
 20
-12290.0
 10
9900.0
 20
-12290.0
 10
9900.0
 20
-13790.0
  0
LWPOLYLINE
  5
1B8
100
AcDbEntity
  8
PART_PADS_SMD_TOP
100
AcDbPolyline
 90
        4
 70
         1
 10
10100.0
 20
-13790.0
 10
10100.0
 20
-12290.0
 10
10400.0
 20
-12290.0
 10
10400.0
 20
-13790.0
  0
LWPOLYLINE
  5
1B9
100
AcDbEntity
  8
PART_PADS_SMD_TOP
100
AcDbPolyline
 90
        4
 70
         1
 10
10600.0
 20
-13790.0
 10
10600.0
 20
-12290.0
 10
10900.0
 20
-12290.0
 10
10900.0
 20
-13790.0
  0
LWPOLYLINE
  5
1BA
100
AcDbEntity
  8
PART_PADS_SMD_TOP
100
AcDbPolyline
 90
        4
 70
         1
 10
11100.0
 20
-13790.0
 10
11100.0
 20
-12290.0
 10
11400.0
 20
-12290.0
 10
11400.0
 20
-13790.0
  0
LWPOLYLINE
  5
1BB
100
AcDbEntity
  8
PART_PADS_SMD_TOP
100
AcDbPolyline
 90
        4
 70
         1
 10
11600.0
 20
-13790.0
 10
11600.0
 20
-12290.0
 10
11900.0
 20
-12290.0
 10
11900.0
 20
-13790.0
  0
LWPOLYLINE
  5
1BC
100
AcDbEntity
  8
PART_PADS_SMD_TOP
100
AcDbPolyline
 90
        4
 70
         1
 10
12100.0
 20
-13790.0
 10
12100.0
 20
-12290.0
 10
12400.0
 20
-12290.0
 10
12400.0
 20
-13790.0
  0
LWPOLYLINE
  5
1BD
100
AcDbEntity
  8
PART_PADS_SMD_TOP
100
AcDbPolyline
 90
        4
 70
         1
 10
12600.0
 20
-13790.0
 10
12600.0
 20
-12290.0
 10
12900.0
 20
-12290.0
 10
12900.0
 20
-13790.0
  0
LWPOLYLINE
  5
1BE
100
AcDbEntity
  8
PART_PADS_SMD_TOP
100
AcDbPolyline
 90
        4
 70
         1
 10
13100.0
 20
-13790.0
 10
13100.0
 20
-12290.0
 10
13400.0
 20
-12290.0
 10
13400.0
 20
-13790.0
  0
LWPOLYLINE
  5
1BF
100
AcDbEntity
  8
PART_PADS_SMD_TOP
100
AcDbPolyline
 90
        4
 70
         1
 10
13600.0
 20
-13790.0
 10
13600.0
 20
-12290.0
 10
13900.0
 20
-12290.0
 10
13900.0
 20
-13790.0
  0
LWPOLYLINE
  5
1C0
100
AcDbEntity
  8
PART_PADS_SMD_TOP
100
AcDbPolyline
 90
        4
 70
         1
 10
14100.0
 20
-13790.0
 10
14100.0
 20
-12290.0
 10
14400.0
 20
-12290.0
 10
14400.0
 20
-13790.0
  0
LWPOLYLINE
  5
1C1
100
AcDbEntity
  8
PART_PADS_SMD_TOP
100
AcDbPolyline
 90
        4
 70
         1
 10
14600.0
 20
-13790.0
 10
14600.0
 20
-12290.0
 10
14900.0
 20
-12290.0
 10
14900.0
 20
-13790.0
  0
LWPOLYLINE
  5
1C2
100
AcDbEntity
  8
PART_PADS_SMD_TOP
100
AcDbPolyline
 90
        4
 70
         1
 10
-12399.998
 20
12289.996
 10
-12399.998
 20
13789.996
 10
-12099.998
 20
13789.996
 10
-12099.998
 20
12289.996
  0
LWPOLYLINE
  5
1C3
100
AcDbEntity
  8
PART_PADS_SMD_TOP
100
AcDbPolyline
 90
        4
 70
         1
 10
-11899.998
 20
12289.996
 10
-11899.998
 20
13789.996
 10
-11599.998
 20
13789.996
 10
-11599.998
 20
12289.996
  0
LWPOLYLINE
  5
1C4
100
AcDbEntity
  8
PART_PADS_SMD_TOP
100
AcDbPolyline
 90
        4
 70
         1
 10
-11399.998
 20
12289.996
 10
-11399.998
 20
13789.996
 10
-11099.998
 20
13789.996
 10
-11099.998
 20
12289.996
  0
LWPOLYLINE
  5
1C5
100
AcDbEntity
  8
PART_PADS_SMD_TOP
100
AcDbPolyline
 90
        4
 70
         1
 10
-10899.998
 20
12289.996
 10
-10899.998
 20
13789.996
 10
-10599.998
 20
13789.996
 10
-10599.998
 20
12289.996
  0
LWPOLYLINE
  5
1C6
100
AcDbEntity
  8
PART_PADS_SMD_TOP
100
AcDbPolyline
 90
        4
 70
         1
 10
-10399.998
 20
12289.996
 10
-10399.998
 20
13789.996
 10
-10099.998
 20
13789.996
 10
-10099.998
 20
12289.996
  0
LWPOLYLINE
  5
1C7
100
AcDbEntity
  8
PART_PADS_SMD_TOP
100
AcDbPolyline
 90
        4
 70
         1
 10
-9899.998
 20
12289.996
 10
-9899.998
 20
13789.996
 10
-9599.998
 20
13789.996
 10
-9599.998
 20
12289.996
  0
LWPOLYLINE
  5
1C8
100
AcDbEntity
  8
PART_PADS_SMD_TOP
100
AcDbPolyline
 90
        4
 70
         1
 10
-9399.998
 20
12289.996
 10
-9399.998
 20
13789.996
 10
-9099.998
 20
13789.996
 10
-9099.998
 20
12289.996
  0
LWPOLYLINE
  5
1C9
100
AcDbEntity
  8
PART_PADS_SMD_TOP
100
AcDbPolyline
 90
        4
 70
         1
 10
-8899.998
 20
12289.996
 10
-8899.998
 20
13789.996
 10
-8599.998
 20
13789.996
 10
-8599.998
 20
12289.996
  0
LWPOLYLINE
  5
1CA
100
AcDbEntity
  8
PART_PADS_SMD_TOP
100
AcDbPolyline
 90
        4
 70
         1
 10
-8399.998
 20
12289.996
 10
-8399.998
 20
13789.996
 10
-8099.998
 20
13789.996
 10
-8099.998
 20
12289.996
  0
LWPOLYLINE
  5
1CB
100
AcDbEntity
  8
PART_PADS_SMD_TOP
100
AcDbPolyline
 90
        4
 70
         1
 10
-7899.998
 20
12289.996
 10
-7899.998
 20
13789.996
 10
-7599.998
 20
13789.996
 10
-7599.998
 20
12289.996
  0
LWPOLYLINE
  5
1CC
100
AcDbEntity
  8
PART_PADS_SMD_TOP
100
AcDbPolyline
 90
        4
 70
         1
 10
-7399.998
 20
12289.996
 10
-7399.998
 20
13789.996
 10
-7099.998
 20
13789.996
 10
-7099.998
 20
12289.996
  0
LWPOLYLINE
  5
1CD
100
AcDbEntity
  8
PART_PADS_SMD_TOP
100
AcDbPolyline
 90
        4
 70
         1
 10
-6899.998
 20
12289.996
 10
-6899.998
 20
13789.996
 10
-6599.998
 20
13789.996
 10
-6599.998
 20
12289.996
  0
LWPOLYLINE
  5
1CE
100
AcDbEntity
  8
PART_PADS_SMD_TOP
100
AcDbPolyline
 90
        4
 70
         1
 10
-6399.998
 20
12289.996
 10
-6399.998
 20
13789.996
 10
-6099.998
 20
13789.996
 10
-6099.998
 20
12289.996
  0
LWPOLYLINE
  5
1CF
100
AcDbEntity
  8
PART_PADS_SMD_TOP
100
AcDbPolyline
 90
        4
 70
         1
 10
-5899.998
 20
12289.996
 10
-5899.998
 20
13789.996
 10
-5599.998
 20
13789.996
 10
-5599.998
 20
12289.996
  0
LWPOLYLINE
  5
1D0
100
AcDbEntity
  8
PART_PADS_SMD_TOP
100
AcDbPolyline
 90
        4
 70
         1
 10
-5399.998
 20
12289.996
 10
-5399.998
 20
13789.996
 10
-5099.998
 20
13789.996
 10
-5099.998
 20
12289.996
  0
LWPOLYLINE
  5
1D1
100
AcDbEntity
  8
PART_PADS_SMD_TOP
100
AcDbPolyline
 90
        4
 70
         1
 10
-4899.998
 20
12289.996
 10
-4899.998
 20
13789.996
 10
-4599.998
 20
13789.996
 10
-4599.998
 20
12289.996
  0
LWPOLYLINE
  5
1D2
100
AcDbEntity
  8
PART_PADS_SMD_TOP
100
AcDbPolyline
 90
        4
 70
         1
 10
-4399.998
 20
12289.996
 10
-4399.998
 20
13789.996
 10
-4099.998
 20
13789.996
 10
-4099.998
 20
12289.996
  0
LWPOLYLINE
  5
1D3
100
AcDbEntity
  8
PART_PADS_SMD_TOP
100
AcDbPolyline
 90
        4
 70
         1
 10
-3899.998
 20
12289.996
 10
-3899.998
 20
13789.996
 10
-3599.998
 20
13789.996
 10
-3599.998
 20
12289.996
  0
LWPOLYLINE
  5
1D4
100
AcDbEntity
  8
PART_PADS_SMD_TOP
100
AcDbPolyline
 90
        4
 70
         1
 10
-3399.998
 20
12289.996
 10
-3399.998
 20
13789.996
 10
-3099.998
 20
13789.996
 10
-3099.998
 20
12289.996
  0
LWPOLYLINE
  5
1D5
100
AcDbEntity
  8
PART_PADS_SMD_TOP
100
AcDbPolyline
 90
        4
 70
         1
 10
-2899.998
 20
12289.996
 10
-2899.998
 20
13789.996
 10
-2599.998
 20
13789.996
 10
-2599.998
 20
12289.996
  0
LWPOLYLINE
  5
1D6
100
AcDbEntity
  8
PART_PADS_SMD_TOP
100
AcDbPolyline
 90
        4
 70
         1
 10
-2399.998
 20
12289.996
 10
-2399.998
 20
13789.996
 10
-2099.998
 20
13789.996
 10
-2099.998
 20
12289.996
  0
LWPOLYLINE
  5
1D7
100
AcDbEntity
  8
PART_PADS_SMD_TOP
100
AcDbPolyline
 90
        4
 70
         1
 10
-1899.998
 20
12289.996
 10
-1899.998
 20
13789.996
 10
-1599.998
 20
13789.996
 10
-1599.998
 20
12289.996
  0
LWPOLYLINE
  5
1D8
100
AcDbEntity
  8
PART_PADS_SMD_TOP
100
AcDbPolyline
 90
        4
 70
         1
 10
-1399.998
 20
12289.996
 10
-1399.998
 20
13789.996
 10
-1099.998
 20
13789.996
 10
-1099.998
 20
12289.996
  0
LWPOLYLINE
  5
1D9
100
AcDbEntity
  8
PART_PADS_SMD_TOP
100
AcDbPolyline
 90
        4
 70
         1
 10
-899.998
 20
12289.996
 10
-899.998
 20
13789.996
 10
-599.998
 20
13789.996
 10
-599.998
 20
12289.996
  0
LWPOLYLINE
  5
1DA
100
AcDbEntity
  8
PART_PADS_SMD_TOP
100
AcDbPolyline
 90
        4
 70
         1
 10
-399.998
 20
12289.996
 10
-399.998
 20
13789.996
 10
-99.998
 20
13789.996
 10
-99.998
 20
12289.996
  0
LWPOLYLINE
  5
1DB
100
AcDbEntity
  8
PART_PADS_SMD_TOP
100
AcDbPolyline
 90
        4
 70
         1
 10
100.002
 20
12289.996
 10
100.002
 20
13789.996
 10
400.002
 20
13789.996
 10
400.002
 20
12289.996
  0
LWPOLYLINE
  5
1DC
100
AcDbEntity
  8
PART_PADS_SMD_TOP
100
AcDbPolyline
 90
        4
 70
         1
 10
600.002
 20
12289.996
 10
600.002
 20
13789.996
 10
900.002
 20
13789.996
 10
900.002
 20
12289.996
  0
LWPOLYLINE
  5
1DD
100
AcDbEntity
  8
PART_PADS_SMD_TOP
100
AcDbPolyline
 90
        4
 70
         1
 10
1100.002
 20
12289.996
 10
1100.002
 20
13789.996
 10
1400.002
 20
13789.996
 10
1400.002
 20
12289.996
  0
LWPOLYLINE
  5
1DE
100
AcDbEntity
  8
PART_PADS_SMD_TOP
100
AcDbPolyline
 90
        4
 70
         1
 10
1600.002
 20
12289.996
 10
1600.002
 20
13789.996
 10
1900.002
 20
13789.996
 10
1900.002
 20
12289.996
  0
LWPOLYLINE
  5
1DF
100
AcDbEntity
  8
PART_PADS_SMD_TOP
100
AcDbPolyline
 90
        4
 70
         1
 10
2100.002
 20
12289.996
 10
2100.002
 20
13789.996
 10
2400.002
 20
13789.996
 10
2400.002
 20
12289.996
  0
LWPOLYLINE
  5
1E0
100
AcDbEntity
  8
PART_PADS_SMD_TOP
100
AcDbPolyline
 90
        4
 70
         1
 10
2600.002
 20
12289.996
 10
2600.002
 20
13789.996
 10
2900.002
 20
13789.996
 10
2900.002
 20
12289.996
  0
LWPOLYLINE
  5
1E1
100
AcDbEntity
  8
PART_PADS_SMD_TOP
100
AcDbPolyline
 90
        4
 70
         1
 10
3100.002
 20
12289.996
 10
3100.002
 20
13789.996
 10
3400.002
 20
13789.996
 10
3400.002
 20
12289.996
  0
LWPOLYLINE
  5
1E2
100
AcDbEntity
  8
PART_PADS_SMD_TOP
100
AcDbPolyline
 90
        4
 70
         1
 10
3600.002
 20
12289.996
 10
3600.002
 20
13789.996
 10
3900.002
 20
13789.996
 10
3900.002
 20
12289.996
  0
LWPOLYLINE
  5
1E3
100
AcDbEntity
  8
PART_PADS_SMD_TOP
100
AcDbPolyline
 90
        4
 70
         1
 10
4100.002
 20
12289.996
 10
4100.002
 20
13789.996
 10
4400.002
 20
13789.996
 10
4400.002
 20
12289.996
  0
LWPOLYLINE
  5
1E4
100
AcDbEntity
  8
PART_PADS_SMD_TOP
100
AcDbPolyline
 90
        4
 70
         1
 10
4600.002
 20
12289.996
 10
4600.002
 20
13789.996
 10
4900.002
 20
13789.996
 10
4900.002
 20
12289.996
  0
LWPOLYLINE
  5
1E5
100
AcDbEntity
  8
PART_PADS_SMD_TOP
100
AcDbPolyline
 90
        4
 70
         1
 10
5100.002
 20
12289.996
 10
5100.002
 20
13789.996
 10
5400.002
 20
13789.996
 10
5400.002
 20
12289.996
  0
LWPOLYLINE
  5
1E6
100
AcDbEntity
  8
PART_PADS_SMD_TOP
100
AcDbPolyline
 90
        4
 70
         1
 10
5600.002
 20
12289.996
 10
5600.002
 20
13789.996
 10
5900.002
 20
13789.996
 10
5900.002
 20
12289.996
  0
LWPOLYLINE
  5
1E7
100
AcDbEntity
  8
PART_PADS_SMD_TOP
100
AcDbPolyline
 90
        4
 70
         1
 10
6100.002
 20
12289.996
 10
6100.002
 20
13789.996
 10
6400.002
 20
13789.996
 10
6400.002
 20
12289.996
  0
LWPOLYLINE
  5
1E8
100
AcDbEntity
  8
PART_PADS_SMD_TOP
100
AcDbPolyline
 90
        4
 70
         1
 10
6600.002
 20
12289.996
 10
6600.002
 20
13789.996
 10
6900.002
 20
13789.996
 10
6900.002
 20
12289.996
  0
LWPOLYLINE
  5
1E9
100
AcDbEntity
  8
PART_PADS_SMD_TOP
100
AcDbPolyline
 90
        4
 70
         1
 10
7100.002
 20
12289.996
 10
7100.002
 20
13789.996
 10
7400.002
 20
13789.996
 10
7400.002
 20
12289.996
  0
LWPOLYLINE
  5
1EA
100
AcDbEntity
  8
PART_PADS_SMD_TOP
100
AcDbPolyline
 90
        4
 70
         1
 10
7600.002
 20
12289.996
 10
7600.002
 20
13789.996
 10
7900.002
 20
13789.996
 10
7900.002
 20
12289.996
  0
LWPOLYLINE
  5
1EB
100
AcDbEntity
  8
PART_PADS_SMD_TOP
100
AcDbPolyline
 90
        4
 70
         1
 10
8100.002
 20
12289.996
 10
8100.002
 20
13789.996
 10
8400.002
 20
13789.996
 10
8400.002
 20
12289.996
  0
LWPOLYLINE
  5
1EC
100
AcDbEntity
  8
PART_PADS_SMD_TOP
100
AcDbPolyline
 90
        4
 70
         1
 10
8600.002
 20
12289.996
 10
8600.002
 20
13789.996
 10
8900.002
 20
13789.996
 10
8900.002
 20
12289.996
  0
LWPOLYLINE
  5
1ED
100
AcDbEntity
  8
PART_PADS_SMD_TOP
100
AcDbPolyline
 90
        4
 70
         1
 10
9100.002
 20
12289.996
 10
9100.002
 20
13789.996
 10
9400.002
 20
13789.996
 10
9400.002
 20
12289.996
  0
LWPOLYLINE
  5
1EE
100
AcDbEntity
  8
PART_PADS_SMD_TOP
100
AcDbPolyline
 90
        4
 70
         1
 10
9600.002
 20
12289.996
 10
9600.002
 20
13789.996
 10
9900.002
 20
13789.996
 10
9900.002
 20
12289.996
  0
LWPOLYLINE
  5
1EF
100
AcDbEntity
  8
PART_PADS_SMD_TOP
100
AcDbPolyline
 90
        4
 70
         1
 10
10100.002
 20
12289.996
 10
10100.002
 20
13789.996
 10
10400.002
 20
13789.996
 10
10400.002
 20
12289.996
  0
LWPOLYLINE
  5
1F0
100
AcDbEntity
  8
PART_PADS_SMD_TOP
100
AcDbPolyline
 90
        4
 70
         1
 10
10600.002
 20
12289.996
 10
10600.002
 20
13789.996
 10
10900.002
 20
13789.996
 10
10900.002
 20
12289.996
  0
LWPOLYLINE
  5
1F1
100
AcDbEntity
  8
PART_PADS_SMD_TOP
100
AcDbPolyline
 90
        4
 70
         1
 10
11100.002
 20
12289.996
 10
11100.002
 20
13789.996
 10
11400.002
 20
13789.996
 10
11400.002
 20
12289.996
  0
LWPOLYLINE
  5
1F2
100
AcDbEntity
  8
PART_PADS_SMD_TOP
100
AcDbPolyline
 90
        4
 70
         1
 10
11600.002
 20
12289.996
 10
11600.002
 20
13789.996
 10
11900.002
 20
13789.996
 10
11900.002
 20
12289.996
  0
LWPOLYLINE
  5
1F3
100
AcDbEntity
  8
PART_PADS_SMD_TOP
100
AcDbPolyline
 90
        4
 70
         1
 10
12100.002
 20
12289.996
 10
12100.002
 20
13789.996
 10
12400.002
 20
13789.996
 10
12400.002
 20
12289.996
  0
LWPOLYLINE
  5
1F4
100
AcDbEntity
  8
PART_PADS_SMD_TOP
100
AcDbPolyline
 90
        4
 70
         1
 10
-12399.998
 20
18409.996
 10
-12399.998
 20
19909.996
 10
-12099.998
 20
19909.996
 10
-12099.998
 20
18409.996
  0
LWPOLYLINE
  5
1F5
100
AcDbEntity
  8
PART_PADS_SMD_TOP
100
AcDbPolyline
 90
        4
 70
         1
 10
-11899.998
 20
18409.996
 10
-11899.998
 20
19909.996
 10
-11599.998
 20
19909.996
 10
-11599.998
 20
18409.996
  0
LWPOLYLINE
  5
1F6
100
AcDbEntity
  8
PART_PADS_SMD_TOP
100
AcDbPolyline
 90
        4
 70
         1
 10
-11399.998
 20
18409.996
 10
-11399.998
 20
19909.996
 10
-11099.998
 20
19909.996
 10
-11099.998
 20
18409.996
  0
LWPOLYLINE
  5
1F7
100
AcDbEntity
  8
PART_PADS_SMD_TOP
100
AcDbPolyline
 90
        4
 70
         1
 10
-10899.998
 20
18409.996
 10
-10899.998
 20
19909.996
 10
-10599.998
 20
19909.996
 10
-10599.998
 20
18409.996
  0
LWPOLYLINE
  5
1F8
100
AcDbEntity
  8
PART_PADS_SMD_TOP
100
AcDbPolyline
 90
        4
 70
         1
 10
-10399.998
 20
18409.996
 10
-10399.998
 20
19909.996
 10
-10099.998
 20
19909.996
 10
-10099.998
 20
18409.996
  0
LWPOLYLINE
  5
1F9
100
AcDbEntity
  8
PART_PADS_SMD_TOP
100
AcDbPolyline
 90
        4
 70
         1
 10
-9899.998
 20
18409.996
 10
-9899.998
 20
19909.996
 10
-9599.998
 20
19909.996
 10
-9599.998
 20
18409.996
  0
LWPOLYLINE
  5
1FA
100
AcDbEntity
  8
PART_PADS_SMD_TOP
100
AcDbPolyline
 90
        4
 70
         1
 10
-9399.998
 20
18409.996
 10
-9399.998
 20
19909.996
 10
-9099.998
 20
19909.996
 10
-9099.998
 20
18409.996
  0
LWPOLYLINE
  5
1FB
100
AcDbEntity
  8
PART_PADS_SMD_TOP
100
AcDbPolyline
 90
        4
 70
         1
 10
-8899.998
 20
18409.996
 10
-8899.998
 20
19909.996
 10
-8599.998
 20
19909.996
 10
-8599.998
 20
18409.996
  0
LWPOLYLINE
  5
1FC
100
AcDbEntity
  8
PART_PADS_SMD_TOP
100
AcDbPolyline
 90
        4
 70
         1
 10
-8399.998
 20
18409.996
 10
-8399.998
 20
19909.996
 10
-8099.998
 20
19909.996
 10
-8099.998
 20
18409.996
  0
LWPOLYLINE
  5
1FD
100
AcDbEntity
  8
PART_PADS_SMD_TOP
100
AcDbPolyline
 90
        4
 70
         1
 10
-7899.998
 20
18409.996
 10
-7899.998
 20
19909.996
 10
-7599.998
 20
19909.996
 10
-7599.998
 20
18409.996
  0
LWPOLYLINE
  5
1FE
100
AcDbEntity
  8
PART_PADS_SMD_TOP
100
AcDbPolyline
 90
        4
 70
         1
 10
-7399.998
 20
18409.996
 10
-7399.998
 20
19909.996
 10
-7099.998
 20
19909.996
 10
-7099.998
 20
18409.996
  0
LWPOLYLINE
  5
1FF
100
AcDbEntity
  8
PART_PADS_SMD_TOP
100
AcDbPolyline
 90
        4
 70
         1
 10
-6899.998
 20
18409.996
 10
-6899.998
 20
19909.996
 10
-6599.998
 20
19909.996
 10
-6599.998
 20
18409.996
  0
LWPOLYLINE
  5
200
100
AcDbEntity
  8
PART_PADS_SMD_TOP
100
AcDbPolyline
 90
        4
 70
         1
 10
-6399.998
 20
18409.996
 10
-6399.998
 20
19909.996
 10
-6099.998
 20
19909.996
 10
-6099.998
 20
18409.996
  0
LWPOLYLINE
  5
201
100
AcDbEntity
  8
PART_PADS_SMD_TOP
100
AcDbPolyline
 90
        4
 70
         1
 10
-5899.998
 20
18409.996
 10
-5899.998
 20
19909.996
 10
-5599.998
 20
19909.996
 10
-5599.998
 20
18409.996
  0
LWPOLYLINE
  5
202
100
AcDbEntity
  8
PART_PADS_SMD_TOP
100
AcDbPolyline
 90
        4
 70
         1
 10
-5399.998
 20
18409.996
 10
-5399.998
 20
19909.996
 10
-5099.998
 20
19909.996
 10
-5099.998
 20
18409.996
  0
LWPOLYLINE
  5
203
100
AcDbEntity
  8
PART_PADS_SMD_TOP
100
AcDbPolyline
 90
        4
 70
         1
 10
-4899.998
 20
18409.996
 10
-4899.998
 20
19909.996
 10
-4599.998
 20
19909.996
 10
-4599.998
 20
18409.996
  0
LWPOLYLINE
  5
204
100
AcDbEntity
  8
PART_PADS_SMD_TOP
100
AcDbPolyline
 90
        4
 70
         1
 10
-4399.998
 20
18409.996
 10
-4399.998
 20
19909.996
 10
-4099.998
 20
19909.996
 10
-4099.998
 20
18409.996
  0
LWPOLYLINE
  5
205
100
AcDbEntity
  8
PART_PADS_SMD_TOP
100
AcDbPolyline
 90
        4
 70
         1
 10
-3899.998
 20
18409.996
 10
-3899.998
 20
19909.996
 10
-3599.998
 20
19909.996
 10
-3599.998
 20
18409.996
  0
LWPOLYLINE
  5
206
100
AcDbEntity
  8
PART_PADS_SMD_TOP
100
AcDbPolyline
 90
        4
 70
         1
 10
-3399.998
 20
18409.996
 10
-3399.998
 20
19909.996
 10
-3099.998
 20
19909.996
 10
-3099.998
 20
18409.996
  0
LWPOLYLINE
  5
207
100
AcDbEntity
  8
PART_PADS_SMD_TOP
100
AcDbPolyline
 90
        4
 70
         1
 10
-2899.998
 20
18409.996
 10
-2899.998
 20
19909.996
 10
-2599.998
 20
19909.996
 10
-2599.998
 20
18409.996
  0
LWPOLYLINE
  5
208
100
AcDbEntity
  8
PART_PADS_SMD_TOP
100
AcDbPolyline
 90
        4
 70
         1
 10
-2399.998
 20
18409.996
 10
-2399.998
 20
19909.996
 10
-2099.998
 20
19909.996
 10
-2099.998
 20
18409.996
  0
LWPOLYLINE
  5
209
100
AcDbEntity
  8
PART_PADS_SMD_TOP
100
AcDbPolyline
 90
        4
 70
         1
 10
-1899.998
 20
18409.996
 10
-1899.998
 20
19909.996
 10
-1599.998
 20
19909.996
 10
-1599.998
 20
18409.996
  0
LWPOLYLINE
  5
20A
100
AcDbEntity
  8
PART_PADS_SMD_TOP
100
AcDbPolyline
 90
        4
 70
         1
 10
-1399.998
 20
18409.996
 10
-1399.998
 20
19909.996
 10
-1099.998
 20
19909.996
 10
-1099.998
 20
18409.996
  0
LWPOLYLINE
  5
20B
100
AcDbEntity
  8
PART_PADS_SMD_TOP
100
AcDbPolyline
 90
        4
 70
         1
 10
-899.998
 20
18409.996
 10
-899.998
 20
19909.996
 10
-599.998
 20
19909.996
 10
-599.998
 20
18409.996
  0
LWPOLYLINE
  5
20C
100
AcDbEntity
  8
PART_PADS_SMD_TOP
100
AcDbPolyline
 90
        4
 70
         1
 10
-399.998
 20
18409.996
 10
-399.998
 20
19909.996
 10
-99.998
 20
19909.996
 10
-99.998
 20
18409.996
  0
LWPOLYLINE
  5
20D
100
AcDbEntity
  8
PART_PADS_SMD_TOP
100
AcDbPolyline
 90
        4
 70
         1
 10
100.002
 20
18409.996
 10
100.002
 20
19909.996
 10
400.002
 20
19909.996
 10
400.002
 20
18409.996
  0
LWPOLYLINE
  5
20E
100
AcDbEntity
  8
PART_PADS_SMD_TOP
100
AcDbPolyline
 90
        4
 70
         1
 10
600.002
 20
18409.996
 10
600.002
 20
19909.996
 10
900.002
 20
19909.996
 10
900.002
 20
18409.996
  0
LWPOLYLINE
  5
20F
100
AcDbEntity
  8
PART_PADS_SMD_TOP
100
AcDbPolyline
 90
        4
 70
         1
 10
1100.002
 20
18409.996
 10
1100.002
 20
19909.996
 10
1400.002
 20
19909.996
 10
1400.002
 20
18409.996
  0
LWPOLYLINE
  5
210
100
AcDbEntity
  8
PART_PADS_SMD_TOP
100
AcDbPolyline
 90
        4
 70
         1
 10
1600.002
 20
18409.996
 10
1600.002
 20
19909.996
 10
1900.002
 20
19909.996
 10
1900.002
 20
18409.996
  0
LWPOLYLINE
  5
211
100
AcDbEntity
  8
PART_PADS_SMD_TOP
100
AcDbPolyline
 90
        4
 70
         1
 10
2100.002
 20
18409.996
 10
2100.002
 20
19909.996
 10
2400.002
 20
19909.996
 10
2400.002
 20
18409.996
  0
LWPOLYLINE
  5
212
100
AcDbEntity
  8
PART_PADS_SMD_TOP
100
AcDbPolyline
 90
        4
 70
         1
 10
2600.002
 20
18409.996
 10
2600.002
 20
19909.996
 10
2900.002
 20
19909.996
 10
2900.002
 20
18409.996
  0
LWPOLYLINE
  5
213
100
AcDbEntity
  8
PART_PADS_SMD_TOP
100
AcDbPolyline
 90
        4
 70
         1
 10
3100.002
 20
18409.996
 10
3100.002
 20
19909.996
 10
3400.002
 20
19909.996
 10
3400.002
 20
18409.996
  0
LWPOLYLINE
  5
214
100
AcDbEntity
  8
PART_PADS_SMD_TOP
100
AcDbPolyline
 90
        4
 70
         1
 10
3600.002
 20
18409.996
 10
3600.002
 20
19909.996
 10
3900.002
 20
19909.996
 10
3900.002
 20
18409.996
  0
LWPOLYLINE
  5
215
100
AcDbEntity
  8
PART_PADS_SMD_TOP
100
AcDbPolyline
 90
        4
 70
         1
 10
4100.002
 20
18409.996
 10
4100.002
 20
19909.996
 10
4400.002
 20
19909.996
 10
4400.002
 20
18409.996
  0
LWPOLYLINE
  5
216
100
AcDbEntity
  8
PART_PADS_SMD_TOP
100
AcDbPolyline
 90
        4
 70
         1
 10
4600.002
 20
18409.996
 10
4600.002
 20
19909.996
 10
4900.002
 20
19909.996
 10
4900.002
 20
18409.996
  0
LWPOLYLINE
  5
217
100
AcDbEntity
  8
PART_PADS_SMD_TOP
100
AcDbPolyline
 90
        4
 70
         1
 10
5100.002
 20
18409.996
 10
5100.002
 20
19909.996
 10
5400.002
 20
19909.996
 10
5400.002
 20
18409.996
  0
LWPOLYLINE
  5
218
100
AcDbEntity
  8
PART_PADS_SMD_TOP
100
AcDbPolyline
 90
        4
 70
         1
 10
5600.002
 20
18409.996
 10
5600.002
 20
19909.996
 10
5900.002
 20
19909.996
 10
5900.002
 20
18409.996
  0
LWPOLYLINE
  5
219
100
AcDbEntity
  8
PART_PADS_SMD_TOP
100
AcDbPolyline
 90
        4
 70
         1
 10
6100.002
 20
18409.996
 10
6100.002
 20
19909.996
 10
6400.002
 20
19909.996
 10
6400.002
 20
18409.996
  0
LWPOLYLINE
  5
21A
100
AcDbEntity
  8
PART_PADS_SMD_TOP
100
AcDbPolyline
 90
        4
 70
         1
 10
6600.002
 20
18409.996
 10
6600.002
 20
19909.996
 10
6900.002
 20
19909.996
 10
6900.002
 20
18409.996
  0
LWPOLYLINE
  5
21B
100
AcDbEntity
  8
PART_PADS_SMD_TOP
100
AcDbPolyline
 90
        4
 70
         1
 10
7100.002
 20
18409.996
 10
7100.002
 20
19909.996
 10
7400.002
 20
19909.996
 10
7400.002
 20
18409.996
  0
LWPOLYLINE
  5
21C
100
AcDbEntity
  8
PART_PADS_SMD_TOP
100
AcDbPolyline
 90
        4
 70
         1
 10
7600.002
 20
18409.996
 10
7600.002
 20
19909.996
 10
7900.002
 20
19909.996
 10
7900.002
 20
18409.996
  0
LWPOLYLINE
  5
21D
100
AcDbEntity
  8
PART_PADS_SMD_TOP
100
AcDbPolyline
 90
        4
 70
         1
 10
8100.002
 20
18409.996
 10
8100.002
 20
19909.996
 10
8400.002
 20
19909.996
 10
8400.002
 20
18409.996
  0
LWPOLYLINE
  5
21E
100
AcDbEntity
  8
PART_PADS_SMD_TOP
100
AcDbPolyline
 90
        4
 70
         1
 10
8600.002
 20
18409.996
 10
8600.002
 20
19909.996
 10
8900.002
 20
19909.996
 10
8900.002
 20
18409.996
  0
LWPOLYLINE
  5
21F
100
AcDbEntity
  8
PART_PADS_SMD_TOP
100
AcDbPolyline
 90
        4
 70
         1
 10
9100.002
 20
18409.996
 10
9100.002
 20
19909.996
 10
9400.002
 20
19909.996
 10
9400.002
 20
18409.996
  0
LWPOLYLINE
  5
220
100
AcDbEntity
  8
PART_PADS_SMD_TOP
100
AcDbPolyline
 90
        4
 70
         1
 10
9600.002
 20
18409.996
 10
9600.002
 20
19909.996
 10
9900.002
 20
19909.996
 10
9900.002
 20
18409.996
  0
LWPOLYLINE
  5
221
100
AcDbEntity
  8
PART_PADS_SMD_TOP
100
AcDbPolyline
 90
        4
 70
         1
 10
10100.002
 20
18409.996
 10
10100.002
 20
19909.996
 10
10400.002
 20
19909.996
 10
10400.002
 20
18409.996
  0
LWPOLYLINE
  5
222
100
AcDbEntity
  8
PART_PADS_SMD_TOP
100
AcDbPolyline
 90
        4
 70
         1
 10
10600.002
 20
18409.996
 10
10600.002
 20
19909.996
 10
10900.002
 20
19909.996
 10
10900.002
 20
18409.996
  0
LWPOLYLINE
  5
223
100
AcDbEntity
  8
PART_PADS_SMD_TOP
100
AcDbPolyline
 90
        4
 70
         1
 10
11100.002
 20
18409.996
 10
11100.002
 20
19909.996
 10
11400.002
 20
19909.996
 10
11400.002
 20
18409.996
  0
LWPOLYLINE
  5
224
100
AcDbEntity
  8
PART_PADS_SMD_TOP
100
AcDbPolyline
 90
        4
 70
         1
 10
11600.002
 20
18409.996
 10
11600.002
 20
19909.996
 10
11900.002
 20
19909.996
 10
11900.002
 20
18409.996
  0
LWPOLYLINE
  5
225
100
AcDbEntity
  8
PART_PADS_SMD_TOP
100
AcDbPolyline
 90
        4
 70
         1
 10
12100.002
 20
18409.996
 10
12100.002
 20
19909.996
 10
12400.002
 20
19909.996
 10
12400.002
 20
18409.996
  0
TEXT
  5
227
100
AcDbEntity
  8
PIN_NUMBERS_TOP
100
AcDbText
 10
-15185.864
 20
-19382.504
 30
0.0
 40
508.0
  1
A1
  7
COURIER_NEW
 72
         1
 11
-14750.0
 21
-19160.0
 31
0.0
100
AcDbText
 73
         2
  0
TEXT
  5
228
100
AcDbEntity
  8
PIN_NUMBERS_TOP
100
AcDbText
 10
-14685.864
 20
-19382.504
 30
0.0
 40
508.0
  1
A2
  7
COURIER_NEW
 72
         1
 11
-14250.0
 21
-19160.0
 31
0.0
100
AcDbText
 73
         2
  0
TEXT
  5
229
100
AcDbEntity
  8
PIN_NUMBERS_TOP
100
AcDbText
 10
-14185.864
 20
-19382.504
 30
0.0
 40
508.0
  1
A3
  7
COURIER_NEW
 72
         1
 11
-13750.0
 21
-19160.0
 31
0.0
100
AcDbText
 73
         2
  0
TEXT
  5
22A
100
AcDbEntity
  8
PIN_NUMBERS_TOP
100
AcDbText
 10
-13685.864
 20
-19382.504
 30
0.0
 40
508.0
  1
A4
  7
COURIER_NEW
 72
         1
 11
-13250.0
 21
-19160.0
 31
0.0
100
AcDbText
 73
         2
  0
TEXT
  5
22B
100
AcDbEntity
  8
PIN_NUMBERS_TOP
100
AcDbText
 10
-13185.864
 20
-19382.504
 30
0.0
 40
508.0
  1
A5
  7
COURIER_NEW
 72
         1
 11
-12750.0
 21
-19160.0
 31
0.0
100
AcDbText
 73
         2
  0
TEXT
  5
22C
100
AcDbEntity
  8
PIN_NUMBERS_TOP
100
AcDbText
 10
-12685.864
 20
-19382.504
 30
0.0
 40
508.0
  1
A6
  7
COURIER_NEW
 72
         1
 11
-12250.0
 21
-19160.0
 31
0.0
100
AcDbText
 73
         2
  0
TEXT
  5
22D
100
AcDbEntity
  8
PIN_NUMBERS_TOP
100
AcDbText
 10
-12185.864
 20
-19382.504
 30
0.0
 40
508.0
  1
A7
  7
COURIER_NEW
 72
         1
 11
-11750.0
 21
-19160.0
 31
0.0
100
AcDbText
 73
         2
  0
TEXT
  5
22E
100
AcDbEntity
  8
PIN_NUMBERS_TOP
100
AcDbText
 10
-11685.864
 20
-19382.504
 30
0.0
 40
508.0
  1
A8
  7
COURIER_NEW
 72
         1
 11
-11250.0
 21
-19160.0
 31
0.0
100
AcDbText
 73
         2
  0
TEXT
  5
22F
100
AcDbEntity
  8
PIN_NUMBERS_TOP
100
AcDbText
 10
-11185.864
 20
-19382.504
 30
0.0
 40
508.0
  1
A9
  7
COURIER_NEW
 72
         1
 11
-10750.0
 21
-19160.0
 31
0.0
100
AcDbText
 73
         2
  0
TEXT
  5
230
100
AcDbEntity
  8
PIN_NUMBERS_TOP
100
AcDbText
 10
-10903.796
 20
-19382.504
 30
0.0
 40
508.0
  1
A10
  7
COURIER_NEW
 72
         1
 11
-10250.0
 21
-19160.0
 31
0.0
100
AcDbText
 73
         2
  0
TEXT
  5
231
100
AcDbEntity
  8
PIN_NUMBERS_TOP
100
AcDbText
 10
-10403.796
 20
-19382.504
 30
0.0
 40
508.0
  1
A11
  7
COURIER_NEW
 72
         1
 11
-9750.0
 21
-19160.0
 31
0.0
100
AcDbText
 73
         2
  0
TEXT
  5
232
100
AcDbEntity
  8
PIN_NUMBERS_TOP
100
AcDbText
 10
-9903.796
 20
-19382.504
 30
0.0
 40
508.0
  1
A12
  7
COURIER_NEW
 72
         1
 11
-9250.0
 21
-19160.0
 31
0.0
100
AcDbText
 73
         2
  0
TEXT
  5
233
100
AcDbEntity
  8
PIN_NUMBERS_TOP
100
AcDbText
 10
-9403.796
 20
-19382.504
 30
0.0
 40
508.0
  1
A13
  7
COURIER_NEW
 72
         1
 11
-8750.0
 21
-19160.0
 31
0.0
100
AcDbText
 73
         2
  0
TEXT
  5
234
100
AcDbEntity
  8
PIN_NUMBERS_TOP
100
AcDbText
 10
-8903.796
 20
-19382.504
 30
0.0
 40
508.0
  1
A14
  7
COURIER_NEW
 72
         1
 11
-8250.0
 21
-19160.0
 31
0.0
100
AcDbText
 73
         2
  0
TEXT
  5
235
100
AcDbEntity
  8
PIN_NUMBERS_TOP
100
AcDbText
 10
-8403.796
 20
-19382.504
 30
0.0
 40
508.0
  1
A15
  7
COURIER_NEW
 72
         1
 11
-7750.0
 21
-19160.0
 31
0.0
100
AcDbText
 73
         2
  0
TEXT
  5
236
100
AcDbEntity
  8
PIN_NUMBERS_TOP
100
AcDbText
 10
-7903.796
 20
-19382.504
 30
0.0
 40
508.0
  1
A16
  7
COURIER_NEW
 72
         1
 11
-7250.0
 21
-19160.0
 31
0.0
100
AcDbText
 73
         2
  0
TEXT
  5
237
100
AcDbEntity
  8
PIN_NUMBERS_TOP
100
AcDbText
 10
-7403.796
 20
-19382.504
 30
0.0
 40
508.0
  1
A17
  7
COURIER_NEW
 72
         1
 11
-6750.0
 21
-19160.0
 31
0.0
100
AcDbText
 73
         2
  0
TEXT
  5
238
100
AcDbEntity
  8
PIN_NUMBERS_TOP
100
AcDbText
 10
-6903.796
 20
-19382.504
 30
0.0
 40
508.0
  1
A18
  7
COURIER_NEW
 72
         1
 11
-6250.0
 21
-19160.0
 31
0.0
100
AcDbText
 73
         2
  0
TEXT
  5
239
100
AcDbEntity
  8
PIN_NUMBERS_TOP
100
AcDbText
 10
-6403.796
 20
-19382.504
 30
0.0
 40
508.0
  1
A19
  7
COURIER_NEW
 72
         1
 11
-5750.0
 21
-19160.0
 31
0.0
100
AcDbText
 73
         2
  0
TEXT
  5
23A
100
AcDbEntity
  8
PIN_NUMBERS_TOP
100
AcDbText
 10
-5903.796
 20
-19382.504
 30
0.0
 40
508.0
  1
A20
  7
COURIER_NEW
 72
         1
 11
-5250.0
 21
-19160.0
 31
0.0
100
AcDbText
 73
         2
  0
TEXT
  5
23B
100
AcDbEntity
  8
PIN_NUMBERS_TOP
100
AcDbText
 10
-5403.796
 20
-19382.504
 30
0.0
 40
508.0
  1
A21
  7
COURIER_NEW
 72
         1
 11
-4750.0
 21
-19160.0
 31
0.0
100
AcDbText
 73
         2
  0
TEXT
  5
23C
100
AcDbEntity
  8
PIN_NUMBERS_TOP
100
AcDbText
 10
-4903.796
 20
-19382.504
 30
0.0
 40
508.0
  1
A22
  7
COURIER_NEW
 72
         1
 11
-4250.0
 21
-19160.0
 31
0.0
100
AcDbText
 73
         2
  0
TEXT
  5
23D
100
AcDbEntity
  8
PIN_NUMBERS_TOP
100
AcDbText
 10
-4403.796
 20
-19382.504
 30
0.0
 40
508.0
  1
A23
  7
COURIER_NEW
 72
         1
 11
-3750.0
 21
-19160.0
 31
0.0
100
AcDbText
 73
         2
  0
TEXT
  5
23E
100
AcDbEntity
  8
PIN_NUMBERS_TOP
100
AcDbText
 10
-3903.796
 20
-19382.504
 30
0.0
 40
508.0
  1
A24
  7
COURIER_NEW
 72
         1
 11
-3250.0
 21
-19160.0
 31
0.0
100
AcDbText
 73
         2
  0
TEXT
  5
23F
100
AcDbEntity
  8
PIN_NUMBERS_TOP
100
AcDbText
 10
-3403.796
 20
-19382.504
 30
0.0
 40
508.0
  1
A25
  7
COURIER_NEW
 72
         1
 11
-2750.0
 21
-19160.0
 31
0.0
100
AcDbText
 73
         2
  0
TEXT
  5
240
100
AcDbEntity
  8
PIN_NUMBERS_TOP
100
AcDbText
 10
-2903.796
 20
-19382.504
 30
0.0
 40
508.0
  1
A26
  7
COURIER_NEW
 72
         1
 11
-2250.0
 21
-19160.0
 31
0.0
100
AcDbText
 73
         2
  0
TEXT
  5
241
100
AcDbEntity
  8
PIN_NUMBERS_TOP
100
AcDbText
 10
-2403.796
 20
-19382.504
 30
0.0
 40
508.0
  1
A27
  7
COURIER_NEW
 72
         1
 11
-1750.0
 21
-19160.0
 31
0.0
100
AcDbText
 73
         2
  0
TEXT
  5
242
100
AcDbEntity
  8
PIN_NUMBERS_TOP
100
AcDbText
 10
-1903.796
 20
-19382.504
 30
0.0
 40
508.0
  1
A28
  7
COURIER_NEW
 72
         1
 11
-1250.0
 21
-19160.0
 31
0.0
100
AcDbText
 73
         2
  0
TEXT
  5
243
100
AcDbEntity
  8
PIN_NUMBERS_TOP
100
AcDbText
 10
-1403.796
 20
-19382.504
 30
0.0
 40
508.0
  1
A29
  7
COURIER_NEW
 72
         1
 11
-750.0
 21
-19160.0
 31
0.0
100
AcDbText
 73
         2
  0
TEXT
  5
244
100
AcDbEntity
  8
PIN_NUMBERS_TOP
100
AcDbText
 10
-903.796
 20
-19382.504
 30
0.0
 40
508.0
  1
A30
  7
COURIER_NEW
 72
         1
 11
-250.0
 21
-19160.0
 31
0.0
100
AcDbText
 73
         2
  0
TEXT
  5
245
100
AcDbEntity
  8
PIN_NUMBERS_TOP
100
AcDbText
 10
-403.796
 20
-19382.504
 30
0.0
 40
508.0
  1
A31
  7
COURIER_NEW
 72
         1
 11
250.0
 21
-19160.0
 31
0.0
100
AcDbText
 73
         2
  0
TEXT
  5
246
100
AcDbEntity
  8
PIN_NUMBERS_TOP
100
AcDbText
 10
96.204
 20
-19382.504
 30
0.0
 40
508.0
  1
A32
  7
COURIER_NEW
 72
         1
 11
750.0
 21
-19160.0
 31
0.0
100
AcDbText
 73
         2
  0
TEXT
  5
247
100
AcDbEntity
  8
PIN_NUMBERS_TOP
100
AcDbText
 10
596.204
 20
-19382.504
 30
0.0
 40
508.0
  1
A33
  7
COURIER_NEW
 72
         1
 11
1250.0
 21
-19160.0
 31
0.0
100
AcDbText
 73
         2
  0
TEXT
  5
248
100
AcDbEntity
  8
PIN_NUMBERS_TOP
100
AcDbText
 10
1096.204
 20
-19382.504
 30
0.0
 40
508.0
  1
A34
  7
COURIER_NEW
 72
         1
 11
1750.0
 21
-19160.0
 31
0.0
100
AcDbText
 73
         2
  0
TEXT
  5
249
100
AcDbEntity
  8
PIN_NUMBERS_TOP
100
AcDbText
 10
1596.204
 20
-19382.504
 30
0.0
 40
508.0
  1
A35
  7
COURIER_NEW
 72
         1
 11
2250.0
 21
-19160.0
 31
0.0
100
AcDbText
 73
         2
  0
TEXT
  5
24A
100
AcDbEntity
  8
PIN_NUMBERS_TOP
100
AcDbText
 10
2096.204
 20
-19382.504
 30
0.0
 40
508.0
  1
A36
  7
COURIER_NEW
 72
         1
 11
2750.0
 21
-19160.0
 31
0.0
100
AcDbText
 73
         2
  0
TEXT
  5
24B
100
AcDbEntity
  8
PIN_NUMBERS_TOP
100
AcDbText
 10
2596.204
 20
-19382.504
 30
0.0
 40
508.0
  1
A37
  7
COURIER_NEW
 72
         1
 11
3250.0
 21
-19160.0
 31
0.0
100
AcDbText
 73
         2
  0
TEXT
  5
24C
100
AcDbEntity
  8
PIN_NUMBERS_TOP
100
AcDbText
 10
3096.204
 20
-19382.504
 30
0.0
 40
508.0
  1
A38
  7
COURIER_NEW
 72
         1
 11
3750.0
 21
-19160.0
 31
0.0
100
AcDbText
 73
         2
  0
TEXT
  5
24D
100
AcDbEntity
  8
PIN_NUMBERS_TOP
100
AcDbText
 10
3596.204
 20
-19382.504
 30
0.0
 40
508.0
  1
A39
  7
COURIER_NEW
 72
         1
 11
4250.0
 21
-19160.0
 31
0.0
100
AcDbText
 73
         2
  0
TEXT
  5
24E
100
AcDbEntity
  8
PIN_NUMBERS_TOP
100
AcDbText
 10
4096.204
 20
-19382.504
 30
0.0
 40
508.0
  1
A40
  7
COURIER_NEW
 72
         1
 11
4750.0
 21
-19160.0
 31
0.0
100
AcDbText
 73
         2
  0
TEXT
  5
24F
100
AcDbEntity
  8
PIN_NUMBERS_TOP
100
AcDbText
 10
4596.204
 20
-19382.504
 30
0.0
 40
508.0
  1
A41
  7
COURIER_NEW
 72
         1
 11
5250.0
 21
-19160.0
 31
0.0
100
AcDbText
 73
         2
  0
TEXT
  5
250
100
AcDbEntity
  8
PIN_NUMBERS_TOP
100
AcDbText
 10
5096.204
 20
-19382.504
 30
0.0
 40
508.0
  1
A42
  7
COURIER_NEW
 72
         1
 11
5750.0
 21
-19160.0
 31
0.0
100
AcDbText
 73
         2
  0
TEXT
  5
251
100
AcDbEntity
  8
PIN_NUMBERS_TOP
100
AcDbText
 10
5596.204
 20
-19382.504
 30
0.0
 40
508.0
  1
A43
  7
COURIER_NEW
 72
         1
 11
6250.0
 21
-19160.0
 31
0.0
100
AcDbText
 73
         2
  0
TEXT
  5
252
100
AcDbEntity
  8
PIN_NUMBERS_TOP
100
AcDbText
 10
6096.204
 20
-19382.504
 30
0.0
 40
508.0
  1
A44
  7
COURIER_NEW
 72
         1
 11
6750.0
 21
-19160.0
 31
0.0
100
AcDbText
 73
         2
  0
TEXT
  5
253
100
AcDbEntity
  8
PIN_NUMBERS_TOP
100
AcDbText
 10
6596.204
 20
-19382.504
 30
0.0
 40
508.0
  1
A45
  7
COURIER_NEW
 72
         1
 11
7250.0
 21
-19160.0
 31
0.0
100
AcDbText
 73
         2
  0
TEXT
  5
254
100
AcDbEntity
  8
PIN_NUMBERS_TOP
100
AcDbText
 10
7096.204
 20
-19382.504
 30
0.0
 40
508.0
  1
A46
  7
COURIER_NEW
 72
         1
 11
7750.0
 21
-19160.0
 31
0.0
100
AcDbText
 73
         2
  0
TEXT
  5
255
100
AcDbEntity
  8
PIN_NUMBERS_TOP
100
AcDbText
 10
7596.204
 20
-19382.504
 30
0.0
 40
508.0
  1
A47
  7
COURIER_NEW
 72
         1
 11
8250.0
 21
-19160.0
 31
0.0
100
AcDbText
 73
         2
  0
TEXT
  5
256
100
AcDbEntity
  8
PIN_NUMBERS_TOP
100
AcDbText
 10
8096.204
 20
-19382.504
 30
0.0
 40
508.0
  1
A48
  7
COURIER_NEW
 72
         1
 11
8750.0
 21
-19160.0
 31
0.0
100
AcDbText
 73
         2
  0
TEXT
  5
257
100
AcDbEntity
  8
PIN_NUMBERS_TOP
100
AcDbText
 10
8596.204
 20
-19382.504
 30
0.0
 40
508.0
  1
A49
  7
COURIER_NEW
 72
         1
 11
9250.0
 21
-19160.0
 31
0.0
100
AcDbText
 73
         2
  0
TEXT
  5
258
100
AcDbEntity
  8
PIN_NUMBERS_TOP
100
AcDbText
 10
9096.204
 20
-19382.504
 30
0.0
 40
508.0
  1
A50
  7
COURIER_NEW
 72
         1
 11
9750.0
 21
-19160.0
 31
0.0
100
AcDbText
 73
         2
  0
TEXT
  5
259
100
AcDbEntity
  8
PIN_NUMBERS_TOP
100
AcDbText
 10
9596.204
 20
-19382.504
 30
0.0
 40
508.0
  1
A51
  7
COURIER_NEW
 72
         1
 11
10250.0
 21
-19160.0
 31
0.0
100
AcDbText
 73
         2
  0
TEXT
  5
25A
100
AcDbEntity
  8
PIN_NUMBERS_TOP
100
AcDbText
 10
10096.204
 20
-19382.504
 30
0.0
 40
508.0
  1
A52
  7
COURIER_NEW
 72
         1
 11
10750.0
 21
-19160.0
 31
0.0
100
AcDbText
 73
         2
  0
TEXT
  5
25B
100
AcDbEntity
  8
PIN_NUMBERS_TOP
100
AcDbText
 10
10596.204
 20
-19382.504
 30
0.0
 40
508.0
  1
A53
  7
COURIER_NEW
 72
         1
 11
11250.0
 21
-19160.0
 31
0.0
100
AcDbText
 73
         2
  0
TEXT
  5
25C
100
AcDbEntity
  8
PIN_NUMBERS_TOP
100
AcDbText
 10
11096.204
 20
-19382.504
 30
0.0
 40
508.0
  1
A54
  7
COURIER_NEW
 72
         1
 11
11750.0
 21
-19160.0
 31
0.0
100
AcDbText
 73
         2
  0
TEXT
  5
25D
100
AcDbEntity
  8
PIN_NUMBERS_TOP
100
AcDbText
 10
11596.204
 20
-19382.504
 30
0.0
 40
508.0
  1
A55
  7
COURIER_NEW
 72
         1
 11
12250.0
 21
-19160.0
 31
0.0
100
AcDbText
 73
         2
  0
TEXT
  5
25E
100
AcDbEntity
  8
PIN_NUMBERS_TOP
100
AcDbText
 10
12096.204
 20
-19382.504
 30
0.0
 40
508.0
  1
A56
  7
COURIER_NEW
 72
         1
 11
12750.0
 21
-19160.0
 31
0.0
100
AcDbText
 73
         2
  0
TEXT
  5
25F
100
AcDbEntity
  8
PIN_NUMBERS_TOP
100
AcDbText
 10
12596.204
 20
-19382.504
 30
0.0
 40
508.0
  1
A57
  7
COURIER_NEW
 72
         1
 11
13250.0
 21
-19160.0
 31
0.0
100
AcDbText
 73
         2
  0
TEXT
  5
260
100
AcDbEntity
  8
PIN_NUMBERS_TOP
100
AcDbText
 10
13096.204
 20
-19382.504
 30
0.0
 40
508.0
  1
A58
  7
COURIER_NEW
 72
         1
 11
13750.0
 21
-19160.0
 31
0.0
100
AcDbText
 73
         2
  0
TEXT
  5
261
100
AcDbEntity
  8
PIN_NUMBERS_TOP
100
AcDbText
 10
13596.204
 20
-19382.504
 30
0.0
 40
508.0
  1
A59
  7
COURIER_NEW
 72
         1
 11
14250.0
 21
-19160.0
 31
0.0
100
AcDbText
 73
         2
  0
TEXT
  5
262
100
AcDbEntity
  8
PIN_NUMBERS_TOP
100
AcDbText
 10
14096.204
 20
-19382.504
 30
0.0
 40
508.0
  1
A60
  7
COURIER_NEW
 72
         1
 11
14750.0
 21
-19160.0
 31
0.0
100
AcDbText
 73
         2
  0
TEXT
  5
263
100
AcDbEntity
  8
PIN_NUMBERS_TOP
100
AcDbText
 10
-15185.864
 20
-13262.504
 30
0.0
 40
508.0
  1
B1
  7
COURIER_NEW
 72
         1
 11
-14750.0
 21
-13040.0
 31
0.0
100
AcDbText
 73
         2
  0
TEXT
  5
264
100
AcDbEntity
  8
PIN_NUMBERS_TOP
100
AcDbText
 10
-14685.864
 20
-13262.504
 30
0.0
 40
508.0
  1
B2
  7
COURIER_NEW
 72
         1
 11
-14250.0
 21
-13040.0
 31
0.0
100
AcDbText
 73
         2
  0
TEXT
  5
265
100
AcDbEntity
  8
PIN_NUMBERS_TOP
100
AcDbText
 10
-14185.864
 20
-13262.504
 30
0.0
 40
508.0
  1
B3
  7
COURIER_NEW
 72
         1
 11
-13750.0
 21
-13040.0
 31
0.0
100
AcDbText
 73
         2
  0
TEXT
  5
266
100
AcDbEntity
  8
PIN_NUMBERS_TOP
100
AcDbText
 10
-13685.864
 20
-13262.504
 30
0.0
 40
508.0
  1
B4
  7
COURIER_NEW
 72
         1
 11
-13250.0
 21
-13040.0
 31
0.0
100
AcDbText
 73
         2
  0
TEXT
  5
267
100
AcDbEntity
  8
PIN_NUMBERS_TOP
100
AcDbText
 10
-13185.864
 20
-13262.504
 30
0.0
 40
508.0
  1
B5
  7
COURIER_NEW
 72
         1
 11
-12750.0
 21
-13040.0
 31
0.0
100
AcDbText
 73
         2
  0
TEXT
  5
268
100
AcDbEntity
  8
PIN_NUMBERS_TOP
100
AcDbText
 10
-12685.864
 20
-13262.504
 30
0.0
 40
508.0
  1
B6
  7
COURIER_NEW
 72
         1
 11
-12250.0
 21
-13040.0
 31
0.0
100
AcDbText
 73
         2
  0
TEXT
  5
269
100
AcDbEntity
  8
PIN_NUMBERS_TOP
100
AcDbText
 10
-12185.864
 20
-13262.504
 30
0.0
 40
508.0
  1
B7
  7
COURIER_NEW
 72
         1
 11
-11750.0
 21
-13040.0
 31
0.0
100
AcDbText
 73
         2
  0
TEXT
  5
26A
100
AcDbEntity
  8
PIN_NUMBERS_TOP
100
AcDbText
 10
-11685.864
 20
-13262.504
 30
0.0
 40
508.0
  1
B8
  7
COURIER_NEW
 72
         1
 11
-11250.0
 21
-13040.0
 31
0.0
100
AcDbText
 73
         2
  0
TEXT
  5
26B
100
AcDbEntity
  8
PIN_NUMBERS_TOP
100
AcDbText
 10
-11185.864
 20
-13262.504
 30
0.0
 40
508.0
  1
B9
  7
COURIER_NEW
 72
         1
 11
-10750.0
 21
-13040.0
 31
0.0
100
AcDbText
 73
         2
  0
TEXT
  5
26C
100
AcDbEntity
  8
PIN_NUMBERS_TOP
100
AcDbText
 10
-10903.796
 20
-13262.504
 30
0.0
 40
508.0
  1
B10
  7
COURIER_NEW
 72
         1
 11
-10250.0
 21
-13040.0
 31
0.0
100
AcDbText
 73
         2
  0
TEXT
  5
26D
100
AcDbEntity
  8
PIN_NUMBERS_TOP
100
AcDbText
 10
-10403.796
 20
-13262.504
 30
0.0
 40
508.0
  1
B11
  7
COURIER_NEW
 72
         1
 11
-9750.0
 21
-13040.0
 31
0.0
100
AcDbText
 73
         2
  0
TEXT
  5
26E
100
AcDbEntity
  8
PIN_NUMBERS_TOP
100
AcDbText
 10
-9903.796
 20
-13262.504
 30
0.0
 40
508.0
  1
B12
  7
COURIER_NEW
 72
         1
 11
-9250.0
 21
-13040.0
 31
0.0
100
AcDbText
 73
         2
  0
TEXT
  5
26F
100
AcDbEntity
  8
PIN_NUMBERS_TOP
100
AcDbText
 10
-9403.796
 20
-13262.504
 30
0.0
 40
508.0
  1
B13
  7
COURIER_NEW
 72
         1
 11
-8750.0
 21
-13040.0
 31
0.0
100
AcDbText
 73
         2
  0
TEXT
  5
270
100
AcDbEntity
  8
PIN_NUMBERS_TOP
100
AcDbText
 10
-8903.796
 20
-13262.504
 30
0.0
 40
508.0
  1
B14
  7
COURIER_NEW
 72
         1
 11
-8250.0
 21
-13040.0
 31
0.0
100
AcDbText
 73
         2
  0
TEXT
  5
271
100
AcDbEntity
  8
PIN_NUMBERS_TOP
100
AcDbText
 10
-8403.796
 20
-13262.504
 30
0.0
 40
508.0
  1
B15
  7
COURIER_NEW
 72
         1
 11
-7750.0
 21
-13040.0
 31
0.0
100
AcDbText
 73
         2
  0
TEXT
  5
272
100
AcDbEntity
  8
PIN_NUMBERS_TOP
100
AcDbText
 10
-7903.796
 20
-13262.504
 30
0.0
 40
508.0
  1
B16
  7
COURIER_NEW
 72
         1
 11
-7250.0
 21
-13040.0
 31
0.0
100
AcDbText
 73
         2
  0
TEXT
  5
273
100
AcDbEntity
  8
PIN_NUMBERS_TOP
100
AcDbText
 10
-7403.796
 20
-13262.504
 30
0.0
 40
508.0
  1
B17
  7
COURIER_NEW
 72
         1
 11
-6750.0
 21
-13040.0
 31
0.0
100
AcDbText
 73
         2
  0
TEXT
  5
274
100
AcDbEntity
  8
PIN_NUMBERS_TOP
100
AcDbText
 10
-6903.796
 20
-13262.504
 30
0.0
 40
508.0
  1
B18
  7
COURIER_NEW
 72
         1
 11
-6250.0
 21
-13040.0
 31
0.0
100
AcDbText
 73
         2
  0
TEXT
  5
275
100
AcDbEntity
  8
PIN_NUMBERS_TOP
100
AcDbText
 10
-6403.796
 20
-13262.504
 30
0.0
 40
508.0
  1
B19
  7
COURIER_NEW
 72
         1
 11
-5750.0
 21
-13040.0
 31
0.0
100
AcDbText
 73
         2
  0
TEXT
  5
276
100
AcDbEntity
  8
PIN_NUMBERS_TOP
100
AcDbText
 10
-5903.796
 20
-13262.504
 30
0.0
 40
508.0
  1
B20
  7
COURIER_NEW
 72
         1
 11
-5250.0
 21
-13040.0
 31
0.0
100
AcDbText
 73
         2
  0
TEXT
  5
277
100
AcDbEntity
  8
PIN_NUMBERS_TOP
100
AcDbText
 10
-5403.796
 20
-13262.504
 30
0.0
 40
508.0
  1
B21
  7
COURIER_NEW
 72
         1
 11
-4750.0
 21
-13040.0
 31
0.0
100
AcDbText
 73
         2
  0
TEXT
  5
278
100
AcDbEntity
  8
PIN_NUMBERS_TOP
100
AcDbText
 10
-4903.796
 20
-13262.504
 30
0.0
 40
508.0
  1
B22
  7
COURIER_NEW
 72
         1
 11
-4250.0
 21
-13040.0
 31
0.0
100
AcDbText
 73
         2
  0
TEXT
  5
279
100
AcDbEntity
  8
PIN_NUMBERS_TOP
100
AcDbText
 10
-4403.796
 20
-13262.504
 30
0.0
 40
508.0
  1
B23
  7
COURIER_NEW
 72
         1
 11
-3750.0
 21
-13040.0
 31
0.0
100
AcDbText
 73
         2
  0
TEXT
  5
27A
100
AcDbEntity
  8
PIN_NUMBERS_TOP
100
AcDbText
 10
-3903.796
 20
-13262.504
 30
0.0
 40
508.0
  1
B24
  7
COURIER_NEW
 72
         1
 11
-3250.0
 21
-13040.0
 31
0.0
100
AcDbText
 73
         2
  0
TEXT
  5
27B
100
AcDbEntity
  8
PIN_NUMBERS_TOP
100
AcDbText
 10
-3403.796
 20
-13262.504
 30
0.0
 40
508.0
  1
B25
  7
COURIER_NEW
 72
         1
 11
-2750.0
 21
-13040.0
 31
0.0
100
AcDbText
 73
         2
  0
TEXT
  5
27C
100
AcDbEntity
  8
PIN_NUMBERS_TOP
100
AcDbText
 10
-2903.796
 20
-13262.504
 30
0.0
 40
508.0
  1
B26
  7
COURIER_NEW
 72
         1
 11
-2250.0
 21
-13040.0
 31
0.0
100
AcDbText
 73
         2
  0
TEXT
  5
27D
100
AcDbEntity
  8
PIN_NUMBERS_TOP
100
AcDbText
 10
-2403.796
 20
-13262.504
 30
0.0
 40
508.0
  1
B27
  7
COURIER_NEW
 72
         1
 11
-1750.0
 21
-13040.0
 31
0.0
100
AcDbText
 73
         2
  0
TEXT
  5
27E
100
AcDbEntity
  8
PIN_NUMBERS_TOP
100
AcDbText
 10
-1903.796
 20
-13262.504
 30
0.0
 40
508.0
  1
B28
  7
COURIER_NEW
 72
         1
 11
-1250.0
 21
-13040.0
 31
0.0
100
AcDbText
 73
         2
  0
TEXT
  5
27F
100
AcDbEntity
  8
PIN_NUMBERS_TOP
100
AcDbText
 10
-1403.796
 20
-13262.504
 30
0.0
 40
508.0
  1
B29
  7
COURIER_NEW
 72
         1
 11
-750.0
 21
-13040.0
 31
0.0
100
AcDbText
 73
         2
  0
TEXT
  5
280
100
AcDbEntity
  8
PIN_NUMBERS_TOP
100
AcDbText
 10
-903.796
 20
-13262.504
 30
0.0
 40
508.0
  1
B30
  7
COURIER_NEW
 72
         1
 11
-250.0
 21
-13040.0
 31
0.0
100
AcDbText
 73
         2
  0
TEXT
  5
281
100
AcDbEntity
  8
PIN_NUMBERS_TOP
100
AcDbText
 10
-403.796
 20
-13262.504
 30
0.0
 40
508.0
  1
B31
  7
COURIER_NEW
 72
         1
 11
250.0
 21
-13040.0
 31
0.0
100
AcDbText
 73
         2
  0
TEXT
  5
282
100
AcDbEntity
  8
PIN_NUMBERS_TOP
100
AcDbText
 10
96.204
 20
-13262.504
 30
0.0
 40
508.0
  1
B32
  7
COURIER_NEW
 72
         1
 11
750.0
 21
-13040.0
 31
0.0
100
AcDbText
 73
         2
  0
TEXT
  5
283
100
AcDbEntity
  8
PIN_NUMBERS_TOP
100
AcDbText
 10
596.204
 20
-13262.504
 30
0.0
 40
508.0
  1
B33
  7
COURIER_NEW
 72
         1
 11
1250.0
 21
-13040.0
 31
0.0
100
AcDbText
 73
         2
  0
TEXT
  5
284
100
AcDbEntity
  8
PIN_NUMBERS_TOP
100
AcDbText
 10
1096.204
 20
-13262.504
 30
0.0
 40
508.0
  1
B34
  7
COURIER_NEW
 72
         1
 11
1750.0
 21
-13040.0
 31
0.0
100
AcDbText
 73
         2
  0
TEXT
  5
285
100
AcDbEntity
  8
PIN_NUMBERS_TOP
100
AcDbText
 10
1596.204
 20
-13262.504
 30
0.0
 40
508.0
  1
B35
  7
COURIER_NEW
 72
         1
 11
2250.0
 21
-13040.0
 31
0.0
100
AcDbText
 73
         2
  0
TEXT
  5
286
100
AcDbEntity
  8
PIN_NUMBERS_TOP
100
AcDbText
 10
2096.204
 20
-13262.504
 30
0.0
 40
508.0
  1
B36
  7
COURIER_NEW
 72
         1
 11
2750.0
 21
-13040.0
 31
0.0
100
AcDbText
 73
         2
  0
TEXT
  5
287
100
AcDbEntity
  8
PIN_NUMBERS_TOP
100
AcDbText
 10
2596.204
 20
-13262.504
 30
0.0
 40
508.0
  1
B37
  7
COURIER_NEW
 72
         1
 11
3250.0
 21
-13040.0
 31
0.0
100
AcDbText
 73
         2
  0
TEXT
  5
288
100
AcDbEntity
  8
PIN_NUMBERS_TOP
100
AcDbText
 10
3096.204
 20
-13262.504
 30
0.0
 40
508.0
  1
B38
  7
COURIER_NEW
 72
         1
 11
3750.0
 21
-13040.0
 31
0.0
100
AcDbText
 73
         2
  0
TEXT
  5
289
100
AcDbEntity
  8
PIN_NUMBERS_TOP
100
AcDbText
 10
3596.204
 20
-13262.504
 30
0.0
 40
508.0
  1
B39
  7
COURIER_NEW
 72
         1
 11
4250.0
 21
-13040.0
 31
0.0
100
AcDbText
 73
         2
  0
TEXT
  5
28A
100
AcDbEntity
  8
PIN_NUMBERS_TOP
100
AcDbText
 10
4096.204
 20
-13262.504
 30
0.0
 40
508.0
  1
B40
  7
COURIER_NEW
 72
         1
 11
4750.0
 21
-13040.0
 31
0.0
100
AcDbText
 73
         2
  0
TEXT
  5
28B
100
AcDbEntity
  8
PIN_NUMBERS_TOP
100
AcDbText
 10
4596.204
 20
-13262.504
 30
0.0
 40
508.0
  1
B41
  7
COURIER_NEW
 72
         1
 11
5250.0
 21
-13040.0
 31
0.0
100
AcDbText
 73
         2
  0
TEXT
  5
28C
100
AcDbEntity
  8
PIN_NUMBERS_TOP
100
AcDbText
 10
5096.204
 20
-13262.504
 30
0.0
 40
508.0
  1
B42
  7
COURIER_NEW
 72
         1
 11
5750.0
 21
-13040.0
 31
0.0
100
AcDbText
 73
         2
  0
TEXT
  5
28D
100
AcDbEntity
  8
PIN_NUMBERS_TOP
100
AcDbText
 10
5596.204
 20
-13262.504
 30
0.0
 40
508.0
  1
B43
  7
COURIER_NEW
 72
         1
 11
6250.0
 21
-13040.0
 31
0.0
100
AcDbText
 73
         2
  0
TEXT
  5
28E
100
AcDbEntity
  8
PIN_NUMBERS_TOP
100
AcDbText
 10
6096.204
 20
-13262.504
 30
0.0
 40
508.0
  1
B44
  7
COURIER_NEW
 72
         1
 11
6750.0
 21
-13040.0
 31
0.0
100
AcDbText
 73
         2
  0
TEXT
  5
28F
100
AcDbEntity
  8
PIN_NUMBERS_TOP
100
AcDbText
 10
6596.204
 20
-13262.504
 30
0.0
 40
508.0
  1
B45
  7
COURIER_NEW
 72
         1
 11
7250.0
 21
-13040.0
 31
0.0
100
AcDbText
 73
         2
  0
TEXT
  5
290
100
AcDbEntity
  8
PIN_NUMBERS_TOP
100
AcDbText
 10
7096.204
 20
-13262.504
 30
0.0
 40
508.0
  1
B46
  7
COURIER_NEW
 72
         1
 11
7750.0
 21
-13040.0
 31
0.0
100
AcDbText
 73
         2
  0
TEXT
  5
291
100
AcDbEntity
  8
PIN_NUMBERS_TOP
100
AcDbText
 10
7596.204
 20
-13262.504
 30
0.0
 40
508.0
  1
B47
  7
COURIER_NEW
 72
         1
 11
8250.0
 21
-13040.0
 31
0.0
100
AcDbText
 73
         2
  0
TEXT
  5
292
100
AcDbEntity
  8
PIN_NUMBERS_TOP
100
AcDbText
 10
8096.204
 20
-13262.504
 30
0.0
 40
508.0
  1
B48
  7
COURIER_NEW
 72
         1
 11
8750.0
 21
-13040.0
 31
0.0
100
AcDbText
 73
         2
  0
TEXT
  5
293
100
AcDbEntity
  8
PIN_NUMBERS_TOP
100
AcDbText
 10
8596.204
 20
-13262.504
 30
0.0
 40
508.0
  1
B49
  7
COURIER_NEW
 72
         1
 11
9250.0
 21
-13040.0
 31
0.0
100
AcDbText
 73
         2
  0
TEXT
  5
294
100
AcDbEntity
  8
PIN_NUMBERS_TOP
100
AcDbText
 10
9096.204
 20
-13262.504
 30
0.0
 40
508.0
  1
B50
  7
COURIER_NEW
 72
         1
 11
9750.0
 21
-13040.0
 31
0.0
100
AcDbText
 73
         2
  0
TEXT
  5
295
100
AcDbEntity
  8
PIN_NUMBERS_TOP
100
AcDbText
 10
9596.204
 20
-13262.504
 30
0.0
 40
508.0
  1
B51
  7
COURIER_NEW
 72
         1
 11
10250.0
 21
-13040.0
 31
0.0
100
AcDbText
 73
         2
  0
TEXT
  5
296
100
AcDbEntity
  8
PIN_NUMBERS_TOP
100
AcDbText
 10
10096.204
 20
-13262.504
 30
0.0
 40
508.0
  1
B52
  7
COURIER_NEW
 72
         1
 11
10750.0
 21
-13040.0
 31
0.0
100
AcDbText
 73
         2
  0
TEXT
  5
297
100
AcDbEntity
  8
PIN_NUMBERS_TOP
100
AcDbText
 10
10596.204
 20
-13262.504
 30
0.0
 40
508.0
  1
B53
  7
COURIER_NEW
 72
         1
 11
11250.0
 21
-13040.0
 31
0.0
100
AcDbText
 73
         2
  0
TEXT
  5
298
100
AcDbEntity
  8
PIN_NUMBERS_TOP
100
AcDbText
 10
11096.204
 20
-13262.504
 30
0.0
 40
508.0
  1
B54
  7
COURIER_NEW
 72
         1
 11
11750.0
 21
-13040.0
 31
0.0
100
AcDbText
 73
         2
  0
TEXT
  5
299
100
AcDbEntity
  8
PIN_NUMBERS_TOP
100
AcDbText
 10
11596.204
 20
-13262.504
 30
0.0
 40
508.0
  1
B55
  7
COURIER_NEW
 72
         1
 11
12250.0
 21
-13040.0
 31
0.0
100
AcDbText
 73
         2
  0
TEXT
  5
29A
100
AcDbEntity
  8
PIN_NUMBERS_TOP
100
AcDbText
 10
12096.204
 20
-13262.504
 30
0.0
 40
508.0
  1
B56
  7
COURIER_NEW
 72
         1
 11
12750.0
 21
-13040.0
 31
0.0
100
AcDbText
 73
         2
  0
TEXT
  5
29B
100
AcDbEntity
  8
PIN_NUMBERS_TOP
100
AcDbText
 10
12596.204
 20
-13262.504
 30
0.0
 40
508.0
  1
B57
  7
COURIER_NEW
 72
         1
 11
13250.0
 21
-13040.0
 31
0.0
100
AcDbText
 73
         2
  0
TEXT
  5
29C
100
AcDbEntity
  8
PIN_NUMBERS_TOP
100
AcDbText
 10
13096.204
 20
-13262.504
 30
0.0
 40
508.0
  1
B58
  7
COURIER_NEW
 72
         1
 11
13750.0
 21
-13040.0
 31
0.0
100
AcDbText
 73
         2
  0
TEXT
  5
29D
100
AcDbEntity
  8
PIN_NUMBERS_TOP
100
AcDbText
 10
13596.204
 20
-13262.504
 30
0.0
 40
508.0
  1
B59
  7
COURIER_NEW
 72
         1
 11
14250.0
 21
-13040.0
 31
0.0
100
AcDbText
 73
         2
  0
TEXT
  5
29E
100
AcDbEntity
  8
PIN_NUMBERS_TOP
100
AcDbText
 10
14096.204
 20
-13262.504
 30
0.0
 40
508.0
  1
B60
  7
COURIER_NEW
 72
         1
 11
14750.0
 21
-13040.0
 31
0.0
100
AcDbText
 73
         2
  0
TEXT
  5
29F
100
AcDbEntity
  8
PIN_NUMBERS_TOP
100
AcDbText
 10
-12685.862
 20
12817.492
 30
0.0
 40
508.0
  1
C1
  7
COURIER_NEW
 72
         1
 11
-12249.998
 21
13039.996
 31
0.0
100
AcDbText
 73
         2
  0
TEXT
  5
2A0
100
AcDbEntity
  8
PIN_NUMBERS_TOP
100
AcDbText
 10
-12185.862
 20
12817.492
 30
0.0
 40
508.0
  1
C2
  7
COURIER_NEW
 72
         1
 11
-11749.998
 21
13039.996
 31
0.0
100
AcDbText
 73
         2
  0
TEXT
  5
2A1
100
AcDbEntity
  8
PIN_NUMBERS_TOP
100
AcDbText
 10
-11685.862
 20
12817.492
 30
0.0
 40
508.0
  1
C3
  7
COURIER_NEW
 72
         1
 11
-11249.998
 21
13039.996
 31
0.0
100
AcDbText
 73
         2
  0
TEXT
  5
2A2
100
AcDbEntity
  8
PIN_NUMBERS_TOP
100
AcDbText
 10
-11185.862
 20
12817.492
 30
0.0
 40
508.0
  1
C4
  7
COURIER_NEW
 72
         1
 11
-10749.998
 21
13039.996
 31
0.0
100
AcDbText
 73
         2
  0
TEXT
  5
2A3
100
AcDbEntity
  8
PIN_NUMBERS_TOP
100
AcDbText
 10
-10685.862
 20
12817.492
 30
0.0
 40
508.0
  1
C5
  7
COURIER_NEW
 72
         1
 11
-10249.998
 21
13039.996
 31
0.0
100
AcDbText
 73
         2
  0
TEXT
  5
2A4
100
AcDbEntity
  8
PIN_NUMBERS_TOP
100
AcDbText
 10
-10185.862
 20
12817.492
 30
0.0
 40
508.0
  1
C6
  7
COURIER_NEW
 72
         1
 11
-9749.998
 21
13039.996
 31
0.0
100
AcDbText
 73
         2
  0
TEXT
  5
2A5
100
AcDbEntity
  8
PIN_NUMBERS_TOP
100
AcDbText
 10
-9685.862
 20
12817.492
 30
0.0
 40
508.0
  1
C7
  7
COURIER_NEW
 72
         1
 11
-9249.998
 21
13039.996
 31
0.0
100
AcDbText
 73
         2
  0
TEXT
  5
2A6
100
AcDbEntity
  8
PIN_NUMBERS_TOP
100
AcDbText
 10
-9185.862
 20
12817.492
 30
0.0
 40
508.0
  1
C8
  7
COURIER_NEW
 72
         1
 11
-8749.998
 21
13039.996
 31
0.0
100
AcDbText
 73
         2
  0
TEXT
  5
2A7
100
AcDbEntity
  8
PIN_NUMBERS_TOP
100
AcDbText
 10
-8685.862
 20
12817.492
 30
0.0
 40
508.0
  1
C9
  7
COURIER_NEW
 72
         1
 11
-8249.998
 21
13039.996
 31
0.0
100
AcDbText
 73
         2
  0
TEXT
  5
2A8
100
AcDbEntity
  8
PIN_NUMBERS_TOP
100
AcDbText
 10
-8403.794
 20
12817.492
 30
0.0
 40
508.0
  1
C10
  7
COURIER_NEW
 72
         1
 11
-7749.998
 21
13039.996
 31
0.0
100
AcDbText
 73
         2
  0
TEXT
  5
2A9
100
AcDbEntity
  8
PIN_NUMBERS_TOP
100
AcDbText
 10
-7903.794
 20
12817.492
 30
0.0
 40
508.0
  1
C11
  7
COURIER_NEW
 72
         1
 11
-7249.998
 21
13039.996
 31
0.0
100
AcDbText
 73
         2
  0
TEXT
  5
2AA
100
AcDbEntity
  8
PIN_NUMBERS_TOP
100
AcDbText
 10
-7403.794
 20
12817.492
 30
0.0
 40
508.0
  1
C12
  7
COURIER_NEW
 72
         1
 11
-6749.998
 21
13039.996
 31
0.0
100
AcDbText
 73
         2
  0
TEXT
  5
2AB
100
AcDbEntity
  8
PIN_NUMBERS_TOP
100
AcDbText
 10
-6903.794
 20
12817.492
 30
0.0
 40
508.0
  1
C13
  7
COURIER_NEW
 72
         1
 11
-6249.998
 21
13039.996
 31
0.0
100
AcDbText
 73
         2
  0
TEXT
  5
2AC
100
AcDbEntity
  8
PIN_NUMBERS_TOP
100
AcDbText
 10
-6403.794
 20
12817.492
 30
0.0
 40
508.0
  1
C14
  7
COURIER_NEW
 72
         1
 11
-5749.998
 21
13039.996
 31
0.0
100
AcDbText
 73
         2
  0
TEXT
  5
2AD
100
AcDbEntity
  8
PIN_NUMBERS_TOP
100
AcDbText
 10
-5903.794
 20
12817.492
 30
0.0
 40
508.0
  1
C15
  7
COURIER_NEW
 72
         1
 11
-5249.998
 21
13039.996
 31
0.0
100
AcDbText
 73
         2
  0
TEXT
  5
2AE
100
AcDbEntity
  8
PIN_NUMBERS_TOP
100
AcDbText
 10
-5403.794
 20
12817.492
 30
0.0
 40
508.0
  1
C16
  7
COURIER_NEW
 72
         1
 11
-4749.998
 21
13039.996
 31
0.0
100
AcDbText
 73
         2
  0
TEXT
  5
2AF
100
AcDbEntity
  8
PIN_NUMBERS_TOP
100
AcDbText
 10
-4903.794
 20
12817.492
 30
0.0
 40
508.0
  1
C17
  7
COURIER_NEW
 72
         1
 11
-4249.998
 21
13039.996
 31
0.0
100
AcDbText
 73
         2
  0
TEXT
  5
2B0
100
AcDbEntity
  8
PIN_NUMBERS_TOP
100
AcDbText
 10
-4403.794
 20
12817.492
 30
0.0
 40
508.0
  1
C18
  7
COURIER_NEW
 72
         1
 11
-3749.998
 21
13039.996
 31
0.0
100
AcDbText
 73
         2
  0
TEXT
  5
2B1
100
AcDbEntity
  8
PIN_NUMBERS_TOP
100
AcDbText
 10
-3903.794
 20
12817.492
 30
0.0
 40
508.0
  1
C19
  7
COURIER_NEW
 72
         1
 11
-3249.998
 21
13039.996
 31
0.0
100
AcDbText
 73
         2
  0
TEXT
  5
2B2
100
AcDbEntity
  8
PIN_NUMBERS_TOP
100
AcDbText
 10
-3403.794
 20
12817.492
 30
0.0
 40
508.0
  1
C20
  7
COURIER_NEW
 72
         1
 11
-2749.998
 21
13039.996
 31
0.0
100
AcDbText
 73
         2
  0
TEXT
  5
2B3
100
AcDbEntity
  8
PIN_NUMBERS_TOP
100
AcDbText
 10
-2903.794
 20
12817.492
 30
0.0
 40
508.0
  1
C21
  7
COURIER_NEW
 72
         1
 11
-2249.998
 21
13039.996
 31
0.0
100
AcDbText
 73
         2
  0
TEXT
  5
2B4
100
AcDbEntity
  8
PIN_NUMBERS_TOP
100
AcDbText
 10
-2403.794
 20
12817.492
 30
0.0
 40
508.0
  1
C22
  7
COURIER_NEW
 72
         1
 11
-1749.998
 21
13039.996
 31
0.0
100
AcDbText
 73
         2
  0
TEXT
  5
2B5
100
AcDbEntity
  8
PIN_NUMBERS_TOP
100
AcDbText
 10
-1903.794
 20
12817.492
 30
0.0
 40
508.0
  1
C23
  7
COURIER_NEW
 72
         1
 11
-1249.998
 21
13039.996
 31
0.0
100
AcDbText
 73
         2
  0
TEXT
  5
2B6
100
AcDbEntity
  8
PIN_NUMBERS_TOP
100
AcDbText
 10
-1403.794
 20
12817.492
 30
0.0
 40
508.0
  1
C24
  7
COURIER_NEW
 72
         1
 11
-749.998
 21
13039.996
 31
0.0
100
AcDbText
 73
         2
  0
TEXT
  5
2B7
100
AcDbEntity
  8
PIN_NUMBERS_TOP
100
AcDbText
 10
-903.794
 20
12817.492
 30
0.0
 40
508.0
  1
C25
  7
COURIER_NEW
 72
         1
 11
-249.998
 21
13039.996
 31
0.0
100
AcDbText
 73
         2
  0
TEXT
  5
2B8
100
AcDbEntity
  8
PIN_NUMBERS_TOP
100
AcDbText
 10
-403.794
 20
12817.492
 30
0.0
 40
508.0
  1
C26
  7
COURIER_NEW
 72
         1
 11
250.002
 21
13039.996
 31
0.0
100
AcDbText
 73
         2
  0
TEXT
  5
2B9
100
AcDbEntity
  8
PIN_NUMBERS_TOP
100
AcDbText
 10
96.206
 20
12817.492
 30
0.0
 40
508.0
  1
C27
  7
COURIER_NEW
 72
         1
 11
750.002
 21
13039.996
 31
0.0
100
AcDbText
 73
         2
  0
TEXT
  5
2BA
100
AcDbEntity
  8
PIN_NUMBERS_TOP
100
AcDbText
 10
596.206
 20
12817.492
 30
0.0
 40
508.0
  1
C28
  7
COURIER_NEW
 72
         1
 11
1250.002
 21
13039.996
 31
0.0
100
AcDbText
 73
         2
  0
TEXT
  5
2BB
100
AcDbEntity
  8
PIN_NUMBERS_TOP
100
AcDbText
 10
1096.206
 20
12817.492
 30
0.0
 40
508.0
  1
C29
  7
COURIER_NEW
 72
         1
 11
1750.002
 21
13039.996
 31
0.0
100
AcDbText
 73
         2
  0
TEXT
  5
2BC
100
AcDbEntity
  8
PIN_NUMBERS_TOP
100
AcDbText
 10
1596.206
 20
12817.492
 30
0.0
 40
508.0
  1
C30
  7
COURIER_NEW
 72
         1
 11
2250.002
 21
13039.996
 31
0.0
100
AcDbText
 73
         2
  0
TEXT
  5
2BD
100
AcDbEntity
  8
PIN_NUMBERS_TOP
100
AcDbText
 10
2096.206
 20
12817.492
 30
0.0
 40
508.0
  1
C31
  7
COURIER_NEW
 72
         1
 11
2750.002
 21
13039.996
 31
0.0
100
AcDbText
 73
         2
  0
TEXT
  5
2BE
100
AcDbEntity
  8
PIN_NUMBERS_TOP
100
AcDbText
 10
2596.206
 20
12817.492
 30
0.0
 40
508.0
  1
C32
  7
COURIER_NEW
 72
         1
 11
3250.002
 21
13039.996
 31
0.0
100
AcDbText
 73
         2
  0
TEXT
  5
2BF
100
AcDbEntity
  8
PIN_NUMBERS_TOP
100
AcDbText
 10
3096.206
 20
12817.492
 30
0.0
 40
508.0
  1
C33
  7
COURIER_NEW
 72
         1
 11
3750.002
 21
13039.996
 31
0.0
100
AcDbText
 73
         2
  0
TEXT
  5
2C0
100
AcDbEntity
  8
PIN_NUMBERS_TOP
100
AcDbText
 10
3596.206
 20
12817.492
 30
0.0
 40
508.0
  1
C34
  7
COURIER_NEW
 72
         1
 11
4250.002
 21
13039.996
 31
0.0
100
AcDbText
 73
         2
  0
TEXT
  5
2C1
100
AcDbEntity
  8
PIN_NUMBERS_TOP
100
AcDbText
 10
4096.206
 20
12817.492
 30
0.0
 40
508.0
  1
C35
  7
COURIER_NEW
 72
         1
 11
4750.002
 21
13039.996
 31
0.0
100
AcDbText
 73
         2
  0
TEXT
  5
2C2
100
AcDbEntity
  8
PIN_NUMBERS_TOP
100
AcDbText
 10
4596.206
 20
12817.492
 30
0.0
 40
508.0
  1
C36
  7
COURIER_NEW
 72
         1
 11
5250.002
 21
13039.996
 31
0.0
100
AcDbText
 73
         2
  0
TEXT
  5
2C3
100
AcDbEntity
  8
PIN_NUMBERS_TOP
100
AcDbText
 10
5096.206
 20
12817.492
 30
0.0
 40
508.0
  1
C37
  7
COURIER_NEW
 72
         1
 11
5750.002
 21
13039.996
 31
0.0
100
AcDbText
 73
         2
  0
TEXT
  5
2C4
100
AcDbEntity
  8
PIN_NUMBERS_TOP
100
AcDbText
 10
5596.206
 20
12817.492
 30
0.0
 40
508.0
  1
C38
  7
COURIER_NEW
 72
         1
 11
6250.002
 21
13039.996
 31
0.0
100
AcDbText
 73
         2
  0
TEXT
  5
2C5
100
AcDbEntity
  8
PIN_NUMBERS_TOP
100
AcDbText
 10
6096.206
 20
12817.492
 30
0.0
 40
508.0
  1
C39
  7
COURIER_NEW
 72
         1
 11
6750.002
 21
13039.996
 31
0.0
100
AcDbText
 73
         2
  0
TEXT
  5
2C6
100
AcDbEntity
  8
PIN_NUMBERS_TOP
100
AcDbText
 10
6596.206
 20
12817.492
 30
0.0
 40
508.0
  1
C40
  7
COURIER_NEW
 72
         1
 11
7250.002
 21
13039.996
 31
0.0
100
AcDbText
 73
         2
  0
TEXT
  5
2C7
100
AcDbEntity
  8
PIN_NUMBERS_TOP
100
AcDbText
 10
7096.206
 20
12817.492
 30
0.0
 40
508.0
  1
C41
  7
COURIER_NEW
 72
         1
 11
7750.002
 21
13039.996
 31
0.0
100
AcDbText
 73
         2
  0
TEXT
  5
2C8
100
AcDbEntity
  8
PIN_NUMBERS_TOP
100
AcDbText
 10
7596.206
 20
12817.492
 30
0.0
 40
508.0
  1
C42
  7
COURIER_NEW
 72
         1
 11
8250.002
 21
13039.996
 31
0.0
100
AcDbText
 73
         2
  0
TEXT
  5
2C9
100
AcDbEntity
  8
PIN_NUMBERS_TOP
100
AcDbText
 10
8096.206
 20
12817.492
 30
0.0
 40
508.0
  1
C43
  7
COURIER_NEW
 72
         1
 11
8750.002
 21
13039.996
 31
0.0
100
AcDbText
 73
         2
  0
TEXT
  5
2CA
100
AcDbEntity
  8
PIN_NUMBERS_TOP
100
AcDbText
 10
8596.206
 20
12817.492
 30
0.0
 40
508.0
  1
C44
  7
COURIER_NEW
 72
         1
 11
9250.002
 21
13039.996
 31
0.0
100
AcDbText
 73
         2
  0
TEXT
  5
2CB
100
AcDbEntity
  8
PIN_NUMBERS_TOP
100
AcDbText
 10
9096.206
 20
12817.492
 30
0.0
 40
508.0
  1
C45
  7
COURIER_NEW
 72
         1
 11
9750.002
 21
13039.996
 31
0.0
100
AcDbText
 73
         2
  0
TEXT
  5
2CC
100
AcDbEntity
  8
PIN_NUMBERS_TOP
100
AcDbText
 10
9596.206
 20
12817.492
 30
0.0
 40
508.0
  1
C46
  7
COURIER_NEW
 72
         1
 11
10250.002
 21
13039.996
 31
0.0
100
AcDbText
 73
         2
  0
TEXT
  5
2CD
100
AcDbEntity
  8
PIN_NUMBERS_TOP
100
AcDbText
 10
10096.206
 20
12817.492
 30
0.0
 40
508.0
  1
C47
  7
COURIER_NEW
 72
         1
 11
10750.002
 21
13039.996
 31
0.0
100
AcDbText
 73
         2
  0
TEXT
  5
2CE
100
AcDbEntity
  8
PIN_NUMBERS_TOP
100
AcDbText
 10
10596.206
 20
12817.492
 30
0.0
 40
508.0
  1
C48
  7
COURIER_NEW
 72
         1
 11
11250.002
 21
13039.996
 31
0.0
100
AcDbText
 73
         2
  0
TEXT
  5
2CF
100
AcDbEntity
  8
PIN_NUMBERS_TOP
100
AcDbText
 10
11096.206
 20
12817.492
 30
0.0
 40
508.0
  1
C49
  7
COURIER_NEW
 72
         1
 11
11750.002
 21
13039.996
 31
0.0
100
AcDbText
 73
         2
  0
TEXT
  5
2D0
100
AcDbEntity
  8
PIN_NUMBERS_TOP
100
AcDbText
 10
11596.206
 20
12817.492
 30
0.0
 40
508.0
  1
C50
  7
COURIER_NEW
 72
         1
 11
12250.002
 21
13039.996
 31
0.0
100
AcDbText
 73
         2
  0
TEXT
  5
2D1
100
AcDbEntity
  8
PIN_NUMBERS_TOP
100
AcDbText
 10
-12685.862
 20
18937.492
 30
0.0
 40
508.0
  1
D1
  7
COURIER_NEW
 72
         1
 11
-12249.998
 21
19159.996
 31
0.0
100
AcDbText
 73
         2
  0
TEXT
  5
2D2
100
AcDbEntity
  8
PIN_NUMBERS_TOP
100
AcDbText
 10
-12185.862
 20
18937.492
 30
0.0
 40
508.0
  1
D2
  7
COURIER_NEW
 72
         1
 11
-11749.998
 21
19159.996
 31
0.0
100
AcDbText
 73
         2
  0
TEXT
  5
2D3
100
AcDbEntity
  8
PIN_NUMBERS_TOP
100
AcDbText
 10
-11685.862
 20
18937.492
 30
0.0
 40
508.0
  1
D3
  7
COURIER_NEW
 72
         1
 11
-11249.998
 21
19159.996
 31
0.0
100
AcDbText
 73
         2
  0
TEXT
  5
2D4
100
AcDbEntity
  8
PIN_NUMBERS_TOP
100
AcDbText
 10
-11185.862
 20
18937.492
 30
0.0
 40
508.0
  1
D4
  7
COURIER_NEW
 72
         1
 11
-10749.998
 21
19159.996
 31
0.0
100
AcDbText
 73
         2
  0
TEXT
  5
2D5
100
AcDbEntity
  8
PIN_NUMBERS_TOP
100
AcDbText
 10
-10685.862
 20
18937.492
 30
0.0
 40
508.0
  1
D5
  7
COURIER_NEW
 72
         1
 11
-10249.998
 21
19159.996
 31
0.0
100
AcDbText
 73
         2
  0
TEXT
  5
2D6
100
AcDbEntity
  8
PIN_NUMBERS_TOP
100
AcDbText
 10
-10185.862
 20
18937.492
 30
0.0
 40
508.0
  1
D6
  7
COURIER_NEW
 72
         1
 11
-9749.998
 21
19159.996
 31
0.0
100
AcDbText
 73
         2
  0
TEXT
  5
2D7
100
AcDbEntity
  8
PIN_NUMBERS_TOP
100
AcDbText
 10
-9685.862
 20
18937.492
 30
0.0
 40
508.0
  1
D7
  7
COURIER_NEW
 72
         1
 11
-9249.998
 21
19159.996
 31
0.0
100
AcDbText
 73
         2
  0
TEXT
  5
2D8
100
AcDbEntity
  8
PIN_NUMBERS_TOP
100
AcDbText
 10
-9185.862
 20
18937.492
 30
0.0
 40
508.0
  1
D8
  7
COURIER_NEW
 72
         1
 11
-8749.998
 21
19159.996
 31
0.0
100
AcDbText
 73
         2
  0
TEXT
  5
2D9
100
AcDbEntity
  8
PIN_NUMBERS_TOP
100
AcDbText
 10
-8685.862
 20
18937.492
 30
0.0
 40
508.0
  1
D9
  7
COURIER_NEW
 72
         1
 11
-8249.998
 21
19159.996
 31
0.0
100
AcDbText
 73
         2
  0
TEXT
  5
2DA
100
AcDbEntity
  8
PIN_NUMBERS_TOP
100
AcDbText
 10
-8403.794
 20
18937.492
 30
0.0
 40
508.0
  1
D10
  7
COURIER_NEW
 72
         1
 11
-7749.998
 21
19159.996
 31
0.0
100
AcDbText
 73
         2
  0
TEXT
  5
2DB
100
AcDbEntity
  8
PIN_NUMBERS_TOP
100
AcDbText
 10
-7903.794
 20
18937.492
 30
0.0
 40
508.0
  1
D11
  7
COURIER_NEW
 72
         1
 11
-7249.998
 21
19159.996
 31
0.0
100
AcDbText
 73
         2
  0
TEXT
  5
2DC
100
AcDbEntity
  8
PIN_NUMBERS_TOP
100
AcDbText
 10
-7403.794
 20
18937.492
 30
0.0
 40
508.0
  1
D12
  7
COURIER_NEW
 72
         1
 11
-6749.998
 21
19159.996
 31
0.0
100
AcDbText
 73
         2
  0
TEXT
  5
2DD
100
AcDbEntity
  8
PIN_NUMBERS_TOP
100
AcDbText
 10
-6903.794
 20
18937.492
 30
0.0
 40
508.0
  1
D13
  7
COURIER_NEW
 72
         1
 11
-6249.998
 21
19159.996
 31
0.0
100
AcDbText
 73
         2
  0
TEXT
  5
2DE
100
AcDbEntity
  8
PIN_NUMBERS_TOP
100
AcDbText
 10
-6403.794
 20
18937.492
 30
0.0
 40
508.0
  1
D14
  7
COURIER_NEW
 72
         1
 11
-5749.998
 21
19159.996
 31
0.0
100
AcDbText
 73
         2
  0
TEXT
  5
2DF
100
AcDbEntity
  8
PIN_NUMBERS_TOP
100
AcDbText
 10
-5903.794
 20
18937.492
 30
0.0
 40
508.0
  1
D15
  7
COURIER_NEW
 72
         1
 11
-5249.998
 21
19159.996
 31
0.0
100
AcDbText
 73
         2
  0
TEXT
  5
2E0
100
AcDbEntity
  8
PIN_NUMBERS_TOP
100
AcDbText
 10
-5403.794
 20
18937.492
 30
0.0
 40
508.0
  1
D16
  7
COURIER_NEW
 72
         1
 11
-4749.998
 21
19159.996
 31
0.0
100
AcDbText
 73
         2
  0
TEXT
  5
2E1
100
AcDbEntity
  8
PIN_NUMBERS_TOP
100
AcDbText
 10
-4903.794
 20
18937.492
 30
0.0
 40
508.0
  1
D17
  7
COURIER_NEW
 72
         1
 11
-4249.998
 21
19159.996
 31
0.0
100
AcDbText
 73
         2
  0
TEXT
  5
2E2
100
AcDbEntity
  8
PIN_NUMBERS_TOP
100
AcDbText
 10
-4403.794
 20
18937.492
 30
0.0
 40
508.0
  1
D18
  7
COURIER_NEW
 72
         1
 11
-3749.998
 21
19159.996
 31
0.0
100
AcDbText
 73
         2
  0
TEXT
  5
2E3
100
AcDbEntity
  8
PIN_NUMBERS_TOP
100
AcDbText
 10
-3903.794
 20
18937.492
 30
0.0
 40
508.0
  1
D19
  7
COURIER_NEW
 72
         1
 11
-3249.998
 21
19159.996
 31
0.0
100
AcDbText
 73
         2
  0
TEXT
  5
2E4
100
AcDbEntity
  8
PIN_NUMBERS_TOP
100
AcDbText
 10
-3403.794
 20
18937.492
 30
0.0
 40
508.0
  1
D20
  7
COURIER_NEW
 72
         1
 11
-2749.998
 21
19159.996
 31
0.0
100
AcDbText
 73
         2
  0
TEXT
  5
2E5
100
AcDbEntity
  8
PIN_NUMBERS_TOP
100
AcDbText
 10
-2903.794
 20
18937.492
 30
0.0
 40
508.0
  1
D21
  7
COURIER_NEW
 72
         1
 11
-2249.998
 21
19159.996
 31
0.0
100
AcDbText
 73
         2
  0
TEXT
  5
2E6
100
AcDbEntity
  8
PIN_NUMBERS_TOP
100
AcDbText
 10
-2403.794
 20
18937.492
 30
0.0
 40
508.0
  1
D22
  7
COURIER_NEW
 72
         1
 11
-1749.998
 21
19159.996
 31
0.0
100
AcDbText
 73
         2
  0
TEXT
  5
2E7
100
AcDbEntity
  8
PIN_NUMBERS_TOP
100
AcDbText
 10
-1903.794
 20
18937.492
 30
0.0
 40
508.0
  1
D23
  7
COURIER_NEW
 72
         1
 11
-1249.998
 21
19159.996
 31
0.0
100
AcDbText
 73
         2
  0
TEXT
  5
2E8
100
AcDbEntity
  8
PIN_NUMBERS_TOP
100
AcDbText
 10
-1403.794
 20
18937.492
 30
0.0
 40
508.0
  1
D24
  7
COURIER_NEW
 72
         1
 11
-749.998
 21
19159.996
 31
0.0
100
AcDbText
 73
         2
  0
TEXT
  5
2E9
100
AcDbEntity
  8
PIN_NUMBERS_TOP
100
AcDbText
 10
-903.794
 20
18937.492
 30
0.0
 40
508.0
  1
D25
  7
COURIER_NEW
 72
         1
 11
-249.998
 21
19159.996
 31
0.0
100
AcDbText
 73
         2
  0
TEXT
  5
2EA
100
AcDbEntity
  8
PIN_NUMBERS_TOP
100
AcDbText
 10
-403.794
 20
18937.492
 30
0.0
 40
508.0
  1
D26
  7
COURIER_NEW
 72
         1
 11
250.002
 21
19159.996
 31
0.0
100
AcDbText
 73
         2
  0
TEXT
  5
2EB
100
AcDbEntity
  8
PIN_NUMBERS_TOP
100
AcDbText
 10
96.206
 20
18937.492
 30
0.0
 40
508.0
  1
D27
  7
COURIER_NEW
 72
         1
 11
750.002
 21
19159.996
 31
0.0
100
AcDbText
 73
         2
  0
TEXT
  5
2EC
100
AcDbEntity
  8
PIN_NUMBERS_TOP
100
AcDbText
 10
596.206
 20
18937.492
 30
0.0
 40
508.0
  1
D28
  7
COURIER_NEW
 72
         1
 11
1250.002
 21
19159.996
 31
0.0
100
AcDbText
 73
         2
  0
TEXT
  5
2ED
100
AcDbEntity
  8
PIN_NUMBERS_TOP
100
AcDbText
 10
1096.206
 20
18937.492
 30
0.0
 40
508.0
  1
D29
  7
COURIER_NEW
 72
         1
 11
1750.002
 21
19159.996
 31
0.0
100
AcDbText
 73
         2
  0
TEXT
  5
2EE
100
AcDbEntity
  8
PIN_NUMBERS_TOP
100
AcDbText
 10
1596.206
 20
18937.492
 30
0.0
 40
508.0
  1
D30
  7
COURIER_NEW
 72
         1
 11
2250.002
 21
19159.996
 31
0.0
100
AcDbText
 73
         2
  0
TEXT
  5
2EF
100
AcDbEntity
  8
PIN_NUMBERS_TOP
100
AcDbText
 10
2096.206
 20
18937.492
 30
0.0
 40
508.0
  1
D31
  7
COURIER_NEW
 72
         1
 11
2750.002
 21
19159.996
 31
0.0
100
AcDbText
 73
         2
  0
TEXT
  5
2F0
100
AcDbEntity
  8
PIN_NUMBERS_TOP
100
AcDbText
 10
2596.206
 20
18937.492
 30
0.0
 40
508.0
  1
D32
  7
COURIER_NEW
 72
         1
 11
3250.002
 21
19159.996
 31
0.0
100
AcDbText
 73
         2
  0
TEXT
  5
2F1
100
AcDbEntity
  8
PIN_NUMBERS_TOP
100
AcDbText
 10
3096.206
 20
18937.492
 30
0.0
 40
508.0
  1
D33
  7
COURIER_NEW
 72
         1
 11
3750.002
 21
19159.996
 31
0.0
100
AcDbText
 73
         2
  0
TEXT
  5
2F2
100
AcDbEntity
  8
PIN_NUMBERS_TOP
100
AcDbText
 10
3596.206
 20
18937.492
 30
0.0
 40
508.0
  1
D34
  7
COURIER_NEW
 72
         1
 11
4250.002
 21
19159.996
 31
0.0
100
AcDbText
 73
         2
  0
TEXT
  5
2F3
100
AcDbEntity
  8
PIN_NUMBERS_TOP
100
AcDbText
 10
4096.206
 20
18937.492
 30
0.0
 40
508.0
  1
D35
  7
COURIER_NEW
 72
         1
 11
4750.002
 21
19159.996
 31
0.0
100
AcDbText
 73
         2
  0
TEXT
  5
2F4
100
AcDbEntity
  8
PIN_NUMBERS_TOP
100
AcDbText
 10
4596.206
 20
18937.492
 30
0.0
 40
508.0
  1
D36
  7
COURIER_NEW
 72
         1
 11
5250.002
 21
19159.996
 31
0.0
100
AcDbText
 73
         2
  0
TEXT
  5
2F5
100
AcDbEntity
  8
PIN_NUMBERS_TOP
100
AcDbText
 10
5096.206
 20
18937.492
 30
0.0
 40
508.0
  1
D37
  7
COURIER_NEW
 72
         1
 11
5750.002
 21
19159.996
 31
0.0
100
AcDbText
 73
         2
  0
TEXT
  5
2F6
100
AcDbEntity
  8
PIN_NUMBERS_TOP
100
AcDbText
 10
5596.206
 20
18937.492
 30
0.0
 40
508.0
  1
D38
  7
COURIER_NEW
 72
         1
 11
6250.002
 21
19159.996
 31
0.0
100
AcDbText
 73
         2
  0
TEXT
  5
2F7
100
AcDbEntity
  8
PIN_NUMBERS_TOP
100
AcDbText
 10
6096.206
 20
18937.492
 30
0.0
 40
508.0
  1
D39
  7
COURIER_NEW
 72
         1
 11
6750.002
 21
19159.996
 31
0.0
100
AcDbText
 73
         2
  0
TEXT
  5
2F8
100
AcDbEntity
  8
PIN_NUMBERS_TOP
100
AcDbText
 10
6596.206
 20
18937.492
 30
0.0
 40
508.0
  1
D40
  7
COURIER_NEW
 72
         1
 11
7250.002
 21
19159.996
 31
0.0
100
AcDbText
 73
         2
  0
TEXT
  5
2F9
100
AcDbEntity
  8
PIN_NUMBERS_TOP
100
AcDbText
 10
7096.206
 20
18937.492
 30
0.0
 40
508.0
  1
D41
  7
COURIER_NEW
 72
         1
 11
7750.002
 21
19159.996
 31
0.0
100
AcDbText
 73
         2
  0
TEXT
  5
2FA
100
AcDbEntity
  8
PIN_NUMBERS_TOP
100
AcDbText
 10
7596.206
 20
18937.492
 30
0.0
 40
508.0
  1
D42
  7
COURIER_NEW
 72
         1
 11
8250.002
 21
19159.996
 31
0.0
100
AcDbText
 73
         2
  0
TEXT
  5
2FB
100
AcDbEntity
  8
PIN_NUMBERS_TOP
100
AcDbText
 10
8096.206
 20
18937.492
 30
0.0
 40
508.0
  1
D43
  7
COURIER_NEW
 72
         1
 11
8750.002
 21
19159.996
 31
0.0
100
AcDbText
 73
         2
  0
TEXT
  5
2FC
100
AcDbEntity
  8
PIN_NUMBERS_TOP
100
AcDbText
 10
8596.206
 20
18937.492
 30
0.0
 40
508.0
  1
D44
  7
COURIER_NEW
 72
         1
 11
9250.002
 21
19159.996
 31
0.0
100
AcDbText
 73
         2
  0
TEXT
  5
2FD
100
AcDbEntity
  8
PIN_NUMBERS_TOP
100
AcDbText
 10
9096.206
 20
18937.492
 30
0.0
 40
508.0
  1
D45
  7
COURIER_NEW
 72
         1
 11
9750.002
 21
19159.996
 31
0.0
100
AcDbText
 73
         2
  0
TEXT
  5
2FE
100
AcDbEntity
  8
PIN_NUMBERS_TOP
100
AcDbText
 10
9596.206
 20
18937.492
 30
0.0
 40
508.0
  1
D46
  7
COURIER_NEW
 72
         1
 11
10250.002
 21
19159.996
 31
0.0
100
AcDbText
 73
         2
  0
TEXT
  5
2FF
100
AcDbEntity
  8
PIN_NUMBERS_TOP
100
AcDbText
 10
10096.206
 20
18937.492
 30
0.0
 40
508.0
  1
D47
  7
COURIER_NEW
 72
         1
 11
10750.002
 21
19159.996
 31
0.0
100
AcDbText
 73
         2
  0
TEXT
  5
300
100
AcDbEntity
  8
PIN_NUMBERS_TOP
100
AcDbText
 10
10596.206
 20
18937.492
 30
0.0
 40
508.0
  1
D48
  7
COURIER_NEW
 72
         1
 11
11250.002
 21
19159.996
 31
0.0
100
AcDbText
 73
         2
  0
TEXT
  5
301
100
AcDbEntity
  8
PIN_NUMBERS_TOP
100
AcDbText
 10
11096.206
 20
18937.492
 30
0.0
 40
508.0
  1
D49
  7
COURIER_NEW
 72
         1
 11
11750.002
 21
19159.996
 31
0.0
100
AcDbText
 73
         2
  0
TEXT
  5
302
100
AcDbEntity
  8
PIN_NUMBERS_TOP
100
AcDbText
 10
11596.206
 20
18937.492
 30
0.0
 40
508.0
  1
D50
  7
COURIER_NEW
 72
         1
 11
12250.002
 21
19159.996
 31
0.0
100
AcDbText
 73
         2
  0
TEXT
  5
303
100
AcDbEntity
  8
PIN_NUMBERS_TOP
100
AcDbText
 10
-21717.932
 20
18277.496
 30
0.0
 40
508.0
  1
3
  7
COURIER_NEW
 72
         1
 11
-21500.0
 21
18500.0
 31
0.0
100
AcDbText
 73
         2
  0
TEXT
  5
304
100
AcDbEntity
  8
PIN_NUMBERS_TOP
100
AcDbText
 10
21282.068
 20
18277.496
 30
0.0
 40
508.0
  1
4
  7
COURIER_NEW
 72
         1
 11
21500.0
 21
18500.0
 31
0.0
100
AcDbText
 73
         2
  0
TEXT
  5
305
100
AcDbEntity
  8
PIN_NUMBERS_TOP
100
AcDbText
 10
-21717.932
 20
-18722.504
 30
0.0
 40
508.0
  1
1
  7
COURIER_NEW
 72
         1
 11
-21500.0
 21
-18500.0
 31
0.0
100
AcDbText
 73
         2
  0
TEXT
  5
306
100
AcDbEntity
  8
PIN_NUMBERS_TOP
100
AcDbText
 10
21282.068
 20
-18722.504
 30
0.0
 40
508.0
  1
2
  7
COURIER_NEW
 72
         1
 11
21500.0
 21
-18500.0
 31
0.0
100
AcDbText
 73
         2
  0
ENDSEC
  0
SECTION
  2
OBJECTS
  0
DICTIONARY
  5
19
100
AcDbDictionary
  3
ACAD_GROUP
350
1A
  3
ACAD_MLINESTYLE
350
1B
  0
DICTIONARY
  5
1A
102
{ACAD_REACTORS
330
19
102
}
100
AcDbDictionary
  0
DICTIONARY
  5
1B
102
{ACAD_REACTORS
330
19
102
}
100
AcDbDictionary
  3
STANDARD
350
1C
  0
MLINESTYLE
  5
1C
102
{ACAD_REACTORS
330
1B
102
}
100
AcDbMlineStyle
  2
STANDARD
 70
         0
  3

 62
         0
 51
90.0
 52
90.0
 71
         2
 49
0.5
 62
       256
  6
BYLAYER
 49
-0.5
 62
       256
  6
BYLAYER
  0
DICTIONARY
  5
22
102
{ACAD_REACTORS
330
19
102
}
100
AcDbDictionary
  0
ENDSEC
  0
EOF
