  0
SECTION
  2
HEADER
  9
$ACADVER
  1
AC1014
  9
$ACADMAINTVER
 70
         0
  9
$DWGCODEPAGE
  3
ANSI_1252
  9
$INSBASE
 10
0.0
 20
0.0
 30
0.0
  9
$EXTMIN
 10
0.0
 20
0.0
 30
0.0
  9
$EXTMAX
 10
26900.0
 20
75990.0
 30
0.0
  9
$LIMMIN
 10
0.0
 20
0.0
  9
$LIMMAX
 10
0.0
 20
0.0
  9
$ORTHOMODE
 70
         0
  9
$REGENMODE
 70
         1
  9
$FILLMODE
 70
         1
  9
$QTEXTMODE
 70
         0
  9
$MIRRTEXT
 70
         1
  9
$DRAGMODE
 70
         2
  9
$LTSCALE
 40
1.0
  9
$OSMODE
 70
         0
  9
$ATTMODE
 70
         1
  9
$TEXTSIZE
 40
0.2
  9
$TRACEWID
 40
0.05
  9
$TEXTSTYLE
  7
STANDARD
  9
$CLAYER
  8
0
  9
$CELTYPE
  6
CONTINUOUS
  9
$CECOLOR
 62
       256
  9
$CELTSCALE
 40
1.0
  9
$DELOBJ
 70
         1
  9
$DISPSILH
 70
         0
  9
$DIMSCALE
 40
1.0
  9
$DIMASZ
 40
0.18
  9
$DIMEXO
 40
0.0625
  9
$DIMDLI
 40
0.38
  9
$DIMRND
 40
0.0
  9
$DIMDLE
 40
0.0
  9
$DIMEXE
 40
0.18
  9
$DIMTP
 40
0.0
  9
$DIMTM
 40
0.0
  9
$DIMTXT
 40
0.18
  9
$DIMCEN
 40
0.09
  9
$DIMTSZ
 40
0.0
  9
$DIMTOL
 70
         0
  9
$DIMLIM
 70
         0
  9
$DIMTIH
 70
         1
  9
$DIMTOH
 70
         1
  9
$DIMSE1
 70
         0
  9
$DIMSE2
 70
         0
  9
$DIMTAD
 70
         0
  9
$DIMZIN
 70
         0
  9
$DIMBLK
  1

  9
$DIMASO
 70
         1
  9
$DIMSHO
 70
         1
  9
$DIMPOST
  1

  9
$DIMAPOST
  1

  9
$DIMALT
 70
         0
  9
$DIMALTD
 70
         2
  9
$DIMALTF
 40
25.4
  9
$DIMLFAC
 40
1.0
  9
$DIMTOFL
 70
         0
  9
$DIMTVP
 40
0.0
  9
$DIMTIX
 70
         0
  9
$DIMSOXD
 70
         0
  9
$DIMSAH
 70
         0
  9
$DIMBLK1
  1

  9
$DIMBLK2
  1

  9
$DIMSTYLE
  2
STANDARD
  9
$DIMCLRD
 70
         0
  9
$DIMCLRE
 70
         0
  9
$DIMCLRT
 70
         0
  9
$DIMTFAC
 40
1.0
  9
$DIMGAP
 40
0.09
  9
$DIMJUST
 70
         0
  9
$DIMSD1
 70
         0
  9
$DIMSD2
 70
         0
  9
$DIMTOLJ
 70
         1
  9
$DIMTZIN
 70
         0
  9
$DIMALTZ
 70
         0
  9
$DIMALTTZ
 70
         0
  9
$DIMFIT
 70
         3
  9
$DIMUPT
 70
         0
  9
$DIMUNIT
 70
         2
  9
$DIMDEC
 70
         4
  9
$DIMTDEC
 70
         4
  9
$DIMALTU
 70
         2
  9
$DIMALTTD
 70
         2
  9
$DIMTXSTY
  7
STANDARD
  9
$DIMAUNIT
 70
         0
  9
$LUNITS
 70
         2
  9
$LUPREC
 70
         4
  9
$SKETCHINC
 40
0.1
  9
$FILLETRAD
 40
0.0
  9
$AUNITS
 70
         0
  9
$AUPREC
 70
         0
  9
$MENU
  1
acad
  9
$ELEVATION
 40
0.0
  9
$PELEVATION
 40
0.0
  9
$THICKNESS
 40
0.0
  9
$LIMCHECK
 70
         0
  9
$BLIPMODE
 70
         1
  9
$CHAMFERA
 40
0.0
  9
$CHAMFERB
 40
0.0
  9
$CHAMFERC
 40
0.0
  9
$CHAMFERD
 40
0.0
  9
$SKPOLY
 70
         0
  9
$TDCREATE
 40
2456567.611331019
  9
$TDUPDATE
 40
0.000000000
  9
$TDINDWG
 40
0.0000000000
  9
$TDUSRTIMER
 40
0.0000000000
  9
$USRTIMER
 70
         1
  9
$ANGBASE
 50
0.0
  9
$ANGDIR
 70
         0
  9
$PDMODE
 70
         0
  9
$PDSIZE
 40
0.0
  9
$PLINEWID
 40
0.0
  9
$COORDS
 70
         0
  9
$SPLFRAME
 70
         0
  9
$SPLINETYPE
 70
         6
  9
$SPLINESEGS
 70
         8
  9
$ATTDIA
 70
         0
  9
$ATTREQ
 70
         1
  9
$HANDLING
 70
         1
  9
$HANDSEED
  5
353
  9
$SURFTAB1
 70
         6
  9
$SURFTAB2
 70
         6
  9
$SURFTYPE
 70
         6
  9
$SURFU
 70
         6
  9
$SURFV
 70
         6
  9
$UCSNAME
  2

  9
$UCSORG
 10
0.0
 20
0.0
 30
0.0
  9
$UCSXDIR
 10
1.0
 20
0.0
 30
0.0
  9
$UCSYDIR
 10
0.0
 20
1.0
 30
0.0
  9
$PUCSNAME
  2

  9
$PUCSORG
 10
0.0
 20
0.0
 30
0.0
  9
$PUCSXDIR
 10
1.0
 20
0.0
 30
0.0
  9
$PUCSYDIR
 10
0.0
 20
1.0
 30
0.0
  9
$USERI1
 70
        -4
  9
$USERI2
 70
         0
  9
$USERI3
 70
         0
  9
$USERI4
 70
         0
  9
$USERI5
 70
         0
  9
$USERR1
 40
0.0
  9
$USERR2
 40
0.0
  9
$USERR3
 40
0.0
  9
$USERR4
 40
0.0
  9
$USERR5
 40
0.0
  9
$WORLDVIEW
 70
         1
  9
$SHADEDGE
 70
         3
  9
$SHADEDIF
 70
        70
  9
$TILEMODE
 70
         1
  9
$MAXACTVP
 70
        16
  9
$PINSBASE
 10
0.0
 20
0.0
 30
0.0
  9
$PLIMCHECK
 70
         0
  9
$PEXTMIN
 10
1.0000000000E+20
 20
1.0000000000E+20
 30
1.0000000000E+20
  9
$PEXTMAX
 10
-1.0000000000E+20
 20
-1.0000000000E+20
 30
-1.0000000000E+20
  9
$PLIMMIN
 10
0.0
 20
0.0
  9
$PLIMMAX
 10
12.0
 20
9.0
  9
$UNITMODE
 70
         0
  9
$VISRETAIN
 70
         0
  9
$PLINEGEN
 70
         1
  9
$PSLTSCALE
 70
         0
  9
$TREEDEPTH
 70
      3020
  9
$PICKSTYLE
 70
         1
  9
$CMLSTYLE
  2
STANDARD
  9
$CMLJUST
 70
         0
  9
$CMLSCALE
 40
1.0
  9
$PROXYGRAPHICS
 70
         0
  9
$MEASUREMENT
 70
         0
  0
ENDSEC
  0
SECTION
  2
CLASSES
  0
CLASS
  1
LWPOLYLINE
  2
AcDbPolyline
  3
"AutoCAD"
 90
        0
280
         0
281
         1
  0
CLASS
  1
IMAGE
  2
AcDbRasterImage
  3
ISM
 90
      127
280
         0
281
         1
  0
CLASS
  1
OLE2FRAME
  2
AcDbOle2Frame
  3
""
 90
        0
280
         0
281
         1
  0
CLASS
  1
HATCH
  2
AcDbHatch
  3
"ACAD_SEDONA"
 90
        0
280
         0
281
         1
  0
CLASS
  1
DICTIONARYVAR
  2
AcDbDictionaryVar
  3
"AutoCAD"
 90
        0
280
         0
281
         0
  0
CLASS
  1
RASTERVARIABLES
  2
AcDbRasterVariables
  3
ISM
 90
        0
280
         0
281
         0
  0
CLASS
  1
IMAGEDEF
  2
AcDbRasterImageDef
  3
ISM
 90
        0
280
         0
281
         0
  0
CLASS
  1
IMAGEDEF_REACTOR
  2
AcDbRasterImageDefReactor
  3
ISM
 90
        1
280
         0
281
         0
  0
CLASS
  1
IDBUFFER
  2
AcDbIdBuffer
  3
"Acad"
 90
        0
280
         0
281
         0
  0
CLASS
  1
SPATIAL_FILTER
  2
AcDbSpatialFilter
  3
"Acad"
 90
        0
280
         0
281
         0
  0
CLASS
  1
XRECORD
  2
AcDbXrecord
  3
"<Built In>"
 90
        0
280
         0
281
         0
  0
CLASS
  1
SORTENTSTABLE
  2
AcDbSortentsTable
  3
"AutoCAD"
 90
        0
280
         0
281
         0
  0
CLASS
  1
LAYER_INDEX
  2
AcDbLayerIndex
  3
"Acad"
 90
        0
280
         0
281
         0
  0
CLASS
  1
SPATIAL_INDEX
  2
AcDbSpatialIndex
  3
"Acad"
 90
        0
280
         0
281
         0
  0
CLASS
  1
OBJECT_PTR
  2
CAseDLPNTableRecord
  3
"ASE-LPNTableRecord"
 90
        1
280
         0
281
         0
  0
CLASS
  1
LAYOUT
  2
AcDbLayout
  3
"AutoCAD 2000"
 90
        0
280
         0
281
         0
  0
CLASS
  1
PLOTSETTINGS
  2
AcDbPlotSettings
  3
"AutoCAD 2000"
 90
        0
280
         0
281
         0
  0
CLASS
  1
ACDBDICTIONARYWDFLT
  2
AcDbDictionaryWithDefault
  3
"AutoCAD 2000"
 90
        0
280
         0
281
         0
  0
CLASS
  1
ACDBPLACEHOLDER
  2
AcDbPlaceHolder
  3
"AutoCAD 2000"
 90
        0
280
         0
281
         0
  0
CLASS
  1
VBA_PROJECT
  2
AcDbVbaProject
  3
"acadvba"
 90
        0
280
         0
281
         0
  0
CLASS
  1
WIPEOUT
  2
AcDbWipeout
  3
WipeOut|AutoCAD Express Tool|expresstools@autodesk.com
 90
      127
280
         0
281
         1
  0
CLASS
  1
WIPEOUTVARIABLES
  2
AcDbWipeoutVariables
  3
WipeOut|AutoCAD Express Tool|expresstools@autodesk.com
 90
        0
280
         0
281
         0
  0
CLASS
  1
RTEXT
  2
RText
  3
RText|AutoCAD Express Tool|expresstools@autodesk.com
 90
        0
280
         0
281
         1
  0
CLASS
  1
ARCALIGNEDTEXT
  2
AcDbArcAlignedText
  3
ATEXT|AutoCAD Express Tool|expresstools@autodesk.com
 90
        0
280
         0
281
         1
  0
ENDSEC
  0
SECTION
  2
TABLES
  0
TABLE
  2
VPORT
  5
7
100
AcDbSymbolTable
 70
         1
  0
VPORT
  5
15
100
AcDbSymbolTableRecord
100
AcDbViewportTableRecord
  2
*ACTIVE
 70
         0
 10
0.0
 20
0.0
 11
1.0
 21
1.0
 12
6.591288
 22
4.579184
 13
0.0
 23
0.0
 14
1.0
 24
1.0
 15
0.0
 25
0.0
 16
0.0
 26
0.0
 36
1.0
 17
0.0
 27
0.0
 37
0.0
 40
9.158369
 41
0.688564
 42
50.0
 43
0.0
 44
0.0
 50
0.0
 51
0.0
 71
         0
 72
       100
 73
         1
 74
         1
 75
         0
 76
         0
 77
         0
 78
         0
  0
ENDTAB
  0
TABLE
  2
LTYPE
  5
4
100
AcDbSymbolTable
 70
         3
  0
LTYPE
  5
11
100
AcDbSymbolTableRecord
100
AcDbLinetypeTableRecord
  2
BYBLOCK
 70
        64
  3

 72
        65
 73
         0
 40
0.0
  0
LTYPE
  5
12
100
AcDbSymbolTableRecord
100
AcDbLinetypeTableRecord
  2
BYLAYER
 70
        64
  3

 72
        65
 73
         0
 40
0.0
  0
LTYPE
  5
13
100
AcDbSymbolTableRecord
100
AcDbLinetypeTableRecord
  2
CONTINUOUS
 70
        64
  3
Solid line
 72
        65
 73
         0
 40
0.0
  0
ENDTAB
  0
TABLE
  2
LAYER
  5
2
100
AcDbSymbolTable
 70
         7
  0
LAYER
  5
14
100
AcDbSymbolTableRecord
100
AcDbLayerTableRecord
  2
0
 70
         0
 62
         7
  6
CONTINUOUS
  0
LAYER
  5
24
100
AcDbSymbolTableRecord
100
AcDbLayerTableRecord
  2
ASSEMBLY_OUTLINES_BTM
 70
         0
 62
       244
  6
CONTINUOUS
  0
LAYER
  5
25
100
AcDbSymbolTableRecord
100
AcDbLayerTableRecord
  2
ASSEMBLY_OUTLINES_TOP
 70
         0
 62
       104
  6
CONTINUOUS
  0
LAYER
  5
26
100
AcDbSymbolTableRecord
100
AcDbLayerTableRecord
  2
ASSEMBLY_REF_DES_TOP
 70
         0
 62
        30
  6
CONTINUOUS
  0
LAYER
  5
27
100
AcDbSymbolTableRecord
100
AcDbLayerTableRecord
  2
BOARD_OUTLINE
 70
         0
 62
        10
  6
CONTINUOUS
  0
LAYER
  5
28
100
AcDbSymbolTableRecord
100
AcDbLayerTableRecord
  2
SOLDERMASK_PADS_BTM
 70
         0
 62
       151
  6
CONTINUOUS
  0
LAYER
  5
29
100
AcDbSymbolTableRecord
100
AcDbLayerTableRecord
  2
SOLDERMASK_PADS_TOP
 70
         0
 62
        81
  6
CONTINUOUS
  0
ENDTAB
  0
TABLE
  2
STYLE
  5
3
100
AcDbSymbolTable
 70
         2
  0
STYLE
  5
17
100
AcDbSymbolTableRecord
100
AcDbTextStyleTableRecord
  2
STANDARD
 70
         0
 40
0.0
 41
1.0
 50
0.0
 71
         0
 42
0.0
  3
txt
  4

  0
STYLE
  5
57
100
AcDbSymbolTableRecord
100
AcDbTextStyleTableRecord
  2
ARIAL
 70
         0
 40
0.0
 41
1.0
 50
0.0
 71
         0
 42
0.0
  3
ARIAL.TTF
  4

  0
ENDTAB
  0
TABLE
  2
VIEW
  5
5
100
AcDbSymbolTable
 70
         0
  0
ENDTAB
  0
TABLE
  2
UCS
  5
6
100
AcDbSymbolTable
 70
         0
  0
ENDTAB
  0
TABLE
  2
APPID
  5
8
100
AcDbSymbolTable
 70
         1
  0
APPID
  5
16
100
AcDbSymbolTableRecord
100
AcDbRegAppTableRecord
  2
ACAD
 70
         0
  0
ENDTAB
  0
TABLE
  2
DIMSTYLE
  5
9
100
AcDbSymbolTable
 70
         1
  0
DIMSTYLE
105
18
100
AcDbSymbolTableRecord
100
AcDbDimStyleTableRecord
  2
STANDARD
 70
         0
  3

  4

  5

  6

  7

 40
1.0
 41
0.18
 42
0.0625
 43
0.38
 44
0.18
 45
0.0
 46
0.0
 47
0.0
 48
0.0
 71
         0
 72
         0
 73
         1
 74
         1
 75
         0
 76
         0
 77
         0
 78
         0
140
0.18
141
0.09
142
0.0
143
25.4
144
1.0
145
0.0
146
1.0
147
0.09
170
         0
171
         2
172
         0
173
         0
174
         0
175
         0
176
         0
177
         0
178
         0
270
         2
271
         4
272
         4
273
         2
274
         2
275
         0
280
         0
281
         0
282
         0
283
         1
284
         0
285
         0
286
         0
287
         3
288
         0
340
17
  0
ENDTAB
  0
TABLE
  2
BLOCK_RECORD
  5
1
100
AcDbSymbolTable
 70
         0
  0
BLOCK_RECORD
  5
A
100
AcDbSymbolTableRecord
100
AcDbBlockTableRecord
  2
*MODEL_SPACE
  0
BLOCK_RECORD
  5
B
100
AcDbSymbolTableRecord
100
AcDbBlockTableRecord
  2
*PAPER_SPACE
  0
ENDTAB
  0
ENDSEC
  0
SECTION
  2
BLOCKS
  0
BLOCK
  5
D
100
AcDbEntity
  8
0
100
AcDbBlockBegin
  2
*MODEL_SPACE
 70
         0
 10
0.0
 20
0.0
 30
0.0
  3
*MODEL_SPACE
  1

  0
ENDBLK
  5
E
100
AcDbEntity
  8
0
100
AcDbBlockEnd
  0
BLOCK
  5
F
100
AcDbEntity
 67
         1
  8
0
100
AcDbBlockBegin
  2
*PAPER_SPACE
 70
         0
 10
0.0
 20
0.0
 30
0.0
  3
*PAPER_SPACE
  1

  0
ENDBLK
  5
10
100
AcDbEntity
 67
         1
  8
0
100
AcDbBlockEnd
  0
ENDSEC
  0
SECTION
  2
ENTITIES
  0
LWPOLYLINE
  5
2A
100
AcDbEntity
  8
ASSEMBLY_OUTLINES_BTM
100
AcDbPolyline
 90
        5
 70
         1
 43
200.0
 10
6500.0
 20
50930.0
 10
2500.0
 20
50930.0
 10
2500.0
 20
10930.0
 10
5500.0
 20
10930.0
 10
6500.0
 20
11930.0
  0
LWPOLYLINE
  5
2B
100
AcDbEntity
  8
ASSEMBLY_OUTLINES_BTM
100
AcDbPolyline
 90
        5
 70
         1
 43
200.0
 10
21900.0
 20
2400.0
 10
21900.0
 20
6400.0
 10
5700.0
 20
6400.0
 10
5700.0
 20
3400.0
 10
6700.0
 20
2400.0
  0
LWPOLYLINE
  5
2C
100
AcDbEntity
  8
ASSEMBLY_OUTLINES_TOP
100
AcDbPolyline
 90
        4
 70
         0
 43
250.0
 10
17831.0
 20
36603.0
 10
17631.0
 20
36603.0
 10
17631.0
 20
36203.0
 10
17831.0
 20
36203.0
  0
LWPOLYLINE
  5
2D
100
AcDbEntity
  8
ASSEMBLY_OUTLINES_TOP
100
AcDbPolyline
 90
        4
 70
         0
 43
250.0
 10
17811.0
 20
37523.0
 10
17611.0
 20
37523.0
 10
17611.0
 20
37123.0
 10
17811.0
 20
37123.0
  0
LWPOLYLINE
  5
2E
100
AcDbEntity
  8
ASSEMBLY_OUTLINES_TOP
100
AcDbPolyline
 90
        2
 70
         0
 43
100.0
 10
9070.0
 20
71792.0
 10
12270.4
 20
71792.0
  0
LWPOLYLINE
  5
2F
100
AcDbEntity
  8
ASSEMBLY_OUTLINES_TOP
100
AcDbPolyline
 90
        2
 70
         0
 43
100.0
 10
13170.5
 20
71792.0
 10
16370.9
 20
71792.0
  0
LWPOLYLINE
  5
30
100
AcDbEntity
  8
ASSEMBLY_OUTLINES_TOP
100
AcDbPolyline
 90
        2
 70
         0
 43
100.0
 10
17271.0
 20
71792.0
 10
20471.4
 20
71792.0
  0
LWPOLYLINE
  5
31
100
AcDbEntity
  8
ASSEMBLY_OUTLINES_TOP
100
AcDbPolyline
 90
        2
 70
         0
 43
100.0
 10
21371.5
 20
71792.0
 10
24070.0
 20
71792.0
  0
LWPOLYLINE
  5
32
100
AcDbEntity
  8
ASSEMBLY_OUTLINES_TOP
100
AcDbPolyline
 90
        4
 70
         1
 43
100.0
 10
9070.0
 20
60850.0
 10
9070.0
 20
73000.0
 10
24070.0
 20
73000.0
 10
24070.0
 20
60850.0
  0
LWPOLYLINE
  5
33
100
AcDbEntity
  8
ASSEMBLY_OUTLINES_TOP
100
AcDbPolyline
 90
        2
 70
         0
 43
150.0
 10
16570.0
 20
73375.0
 10
16570.0
 20
75915.0
  0
LWPOLYLINE
  5
34
100
AcDbEntity
  8
ASSEMBLY_OUTLINES_TOP
100
AcDbPolyline
 90
        2
 70
         0
 43
150.0
 10
16570.0
 20
73375.0
 10
16062.0
 20
74137.0
  0
LWPOLYLINE
  5
35
100
AcDbEntity
  8
ASSEMBLY_OUTLINES_TOP
100
AcDbPolyline
 90
        2
 70
         0
 43
150.0
 10
16570.0
 20
73375.0
 10
17078.0
 20
74137.0
  0
LWPOLYLINE
  5
36
100
AcDbEntity
  8
ASSEMBLY_OUTLINES_TOP
100
AcDbPolyline
 90
        4
 70
         0
 43
250.0
 10
20850.0
 20
33050.0
 10
20850.0
 20
33250.0
 10
20450.0
 20
33250.0
 10
20450.0
 20
33050.0
  0
LWPOLYLINE
  5
37
100
AcDbEntity
  8
ASSEMBLY_OUTLINES_TOP
100
AcDbPolyline
 90
        4
 70
         0
 43
250.0
 10
21740.0
 20
33040.0
 10
21740.0
 20
33240.0
 10
21340.0
 20
33240.0
 10
21340.0
 20
33040.0
  0
LWPOLYLINE
  5
38
100
AcDbEntity
  8
ASSEMBLY_OUTLINES_TOP
100
AcDbPolyline
 90
        4
 70
         0
 43
250.0
 10
18450.0
 20
25640.0
 10
18250.0
 20
25640.0
 10
18250.0
 20
25240.0
 10
18450.0
 20
25240.0
  0
LWPOLYLINE
  5
39
100
AcDbEntity
  8
ASSEMBLY_OUTLINES_TOP
100
AcDbPolyline
 90
        4
 70
         0
 43
250.0
 10
18450.0
 20
24760.0
 10
18250.0
 20
24760.0
 10
18250.0
 20
24360.0
 10
18450.0
 20
24360.0
  0
LWPOLYLINE
  5
3A
100
AcDbEntity
  8
ASSEMBLY_OUTLINES_TOP
100
AcDbPolyline
 90
        4
 70
         0
 43
250.0
 10
12650.0
 20
23870.0
 10
12850.0
 20
23870.0
 10
12850.0
 20
24270.0
 10
12650.0
 20
24270.0
  0
LWPOLYLINE
  5
3B
100
AcDbEntity
  8
ASSEMBLY_OUTLINES_TOP
100
AcDbPolyline
 90
        4
 70
         0
 43
250.0
 10
12670.0
 20
24740.0
 10
12870.0
 20
24740.0
 10
12870.0
 20
25140.0
 10
12670.0
 20
25140.0
  0
LWPOLYLINE
  5
3C
100
AcDbEntity
  8
ASSEMBLY_OUTLINES_TOP
100
AcDbPolyline
 90
        4
 70
         0
 43
250.0
 10
9570.0
 20
31130.0
 10
9570.0
 20
31330.0
 10
9170.0
 20
31330.0
 10
9170.0
 20
31130.0
  0
LWPOLYLINE
  5
3D
100
AcDbEntity
  8
ASSEMBLY_OUTLINES_TOP
100
AcDbPolyline
 90
        4
 70
         0
 43
250.0
 10
8650.0
 20
31130.0
 10
8650.0
 20
31330.0
 10
8250.0
 20
31330.0
 10
8250.0
 20
31130.0
  0
LWPOLYLINE
  5
3E
100
AcDbEntity
  8
ASSEMBLY_OUTLINES_TOP
100
AcDbPolyline
 90
        4
 70
         0
 43
250.0
 10
10980.0
 20
36130.0
 10
11180.0
 20
36130.0
 10
11180.0
 20
36530.0
 10
10980.0
 20
36530.0
  0
LWPOLYLINE
  5
3F
100
AcDbEntity
  8
ASSEMBLY_OUTLINES_TOP
100
AcDbPolyline
 90
        4
 70
         0
 43
250.0
 10
10980.0
 20
37040.0
 10
11180.0
 20
37040.0
 10
11180.0
 20
37440.0
 10
10980.0
 20
37440.0
  0
LWPOLYLINE
  5
40
100
AcDbEntity
  8
ASSEMBLY_OUTLINES_TOP
100
AcDbPolyline
 90
        4
 70
         0
 43
250.0
 10
14540.0
 20
12790.0
 10
14740.0
 20
12790.0
 10
14740.0
 20
13190.0
 10
14540.0
 20
13190.0
  0
LWPOLYLINE
  5
41
100
AcDbEntity
  8
ASSEMBLY_OUTLINES_TOP
100
AcDbPolyline
 90
        4
 70
         0
 43
250.0
 10
18220.0
 20
13250.0
 10
18020.0
 20
13250.0
 10
18020.0
 20
12850.0
 10
18220.0
 20
12850.0
  0
LWPOLYLINE
  5
42
100
AcDbEntity
  8
ASSEMBLY_OUTLINES_TOP
100
AcDbPolyline
 90
        4
 70
         0
 43
250.0
 10
24520.0
 20
29490.0
 10
24520.0
 20
29290.0
 10
24920.0
 20
29290.0
 10
24920.0
 20
29490.0
  0
LWPOLYLINE
  5
43
100
AcDbEntity
  8
ASSEMBLY_OUTLINES_TOP
100
AcDbPolyline
 90
        4
 70
         0
 43
250.0
 10
24560.0
 20
36780.0
 10
24560.0
 20
36580.0
 10
24960.0
 20
36580.0
 10
24960.0
 20
36780.0
  0
LWPOLYLINE
  5
44
100
AcDbEntity
  8
ASSEMBLY_OUTLINES_TOP
100
AcDbPolyline
 90
        4
 70
         0
 43
250.0
 10
21690.0
 20
36190.0
 10
21690.0
 20
35990.0
 10
22090.0
 20
35990.0
 10
22090.0
 20
36190.0
  0
LWPOLYLINE
  5
45
100
AcDbEntity
  8
ASSEMBLY_OUTLINES_TOP
100
AcDbPolyline
 90
        4
 70
         0
 43
250.0
 10
21580.0
 20
28250.0
 10
21580.0
 20
28050.0
 10
21980.0
 20
28050.0
 10
21980.0
 20
28250.0
  0
LWPOLYLINE
  5
46
100
AcDbEntity
  8
ASSEMBLY_OUTLINES_TOP
100
AcDbPolyline
 90
        4
 70
         0
 43
250.0
 10
7690.0
 20
8170.0
 10
7490.0
 20
8170.0
 10
7490.0
 20
7770.0
 10
7690.0
 20
7770.0
  0
LWPOLYLINE
  5
47
100
AcDbEntity
  8
ASSEMBLY_OUTLINES_TOP
100
AcDbPolyline
 90
        4
 70
         0
 43
250.0
 10
13650.0
 20
21410.0
 10
13450.0
 20
21410.0
 10
13450.0
 20
21010.0
 10
13650.0
 20
21010.0
  0
LWPOLYLINE
  5
48
100
AcDbEntity
  8
ASSEMBLY_OUTLINES_TOP
100
AcDbPolyline
 90
        4
 70
         1
 43
150.0
 10
1350.0
 20
61700.0
 10
1350.0
 20
64700.0
 10
4850.0
 20
64700.0
 10
4850.0
 20
61700.0
  0
LWPOLYLINE
  5
49
100
AcDbEntity
  8
ASSEMBLY_OUTLINES_TOP
100
AcDbPolyline
 90
        4
 70
         0
 43
100.0
 10
7220.0
 20
34620.0
 10
9290.0
 20
34620.0
 10
9290.0
 20
33910.0
 10
7220.0
 20
33910.0
  0
LWPOLYLINE
  5
4A
100
AcDbEntity
  8
ASSEMBLY_OUTLINES_TOP
100
AcDbPolyline
 90
        2
 70
         0
 43
100.0
 10
7060.0
 20
34110.0
 10
7060.0
 20
34430.0
  0
LWPOLYLINE
  5
4B
100
AcDbEntity
  8
ASSEMBLY_OUTLINES_TOP
100
AcDbPolyline
 90
        4
 70
         0
 43
250.0
 10
8280.0
 20
35280.0
 10
8480.0
 20
35280.0
 10
8480.0
 20
35680.0
 10
8280.0
 20
35680.0
  0
LWPOLYLINE
  5
4C
100
AcDbEntity
  8
ASSEMBLY_OUTLINES_TOP
100
AcDbPolyline
 90
        4
 70
         0
 43
250.0
 10
8480.0
 20
36630.0
 10
8280.0
 20
36630.0
 10
8280.0
 20
36230.0
 10
8480.0
 20
36230.0
  0
LWPOLYLINE
  5
4D
100
AcDbEntity
  8
ASSEMBLY_OUTLINES_TOP
100
AcDbPolyline
 90
        4
 70
         0
 43
250.0
 10
23330.0
 20
31410.0
 10
23330.0
 20
31610.0
 10
22930.0
 20
31610.0
 10
22930.0
 20
31410.0
  0
LWPOLYLINE
  5
4E
100
AcDbEntity
  8
ASSEMBLY_OUTLINES_TOP
100
AcDbPolyline
 90
        4
 70
         0
 43
250.0
 10
14440.0
 20
36950.0
 10
14640.0
 20
36950.0
 10
14640.0
 20
37350.0
 10
14440.0
 20
37350.0
  0
LWPOLYLINE
  5
4F
100
AcDbEntity
  8
ASSEMBLY_OUTLINES_TOP
100
AcDbPolyline
 90
        4
 70
         0
 43
250.0
 10
14390.0
 20
37860.0
 10
14590.0
 20
37860.0
 10
14590.0
 20
38260.0
 10
14390.0
 20
38260.0
  0
CIRCLE
  5
50
100
AcDbEntity
  8
ASSEMBLY_OUTLINES_TOP
100
AcDbCircle
 10
11898.0
 20
27658.0
 30
0.0
 40
508.0
  0
HATCH
  5
51
100
AcDbEntity
  8
ASSEMBLY_OUTLINES_TOP
100
AcDbHatch
 10
0.0
 20
0.0
 30
0.0
210
0.0
220
0.0
230
1.0
  2
SOLID
 70
         1
 71
         1
 91
        1
 92
        1
 93
        1
 72
         2
 10
11898.0
 20
27658.0
 40
508.0
 50
0.0
 51
360.0
 73
         1
 97
        1
330
50
 75
         0
 76
         1
 98
        1
 10
0.0
 20
0.0
  0
LWPOLYLINE
  5
52
100
AcDbEntity
  8
ASSEMBLY_OUTLINES_TOP
100
AcDbPolyline
 90
        5
 70
         1
 43
100.0
 10
19700.0
 20
26460.0
 10
11050.0
 20
26460.0
 10
10700.0
 20
26810.0
 10
10700.0
 20
35460.0
 10
19700.0
 20
35460.0
  0
LWPOLYLINE
  5
53
100
AcDbEntity
  8
ASSEMBLY_OUTLINES_TOP
100
AcDbPolyline
 90
        4
 70
         1
 43
100.0
 10
11200.0
 20
33760.0
 10
11200.0
 20
34960.0
 10
19200.0
 20
34960.0
 10
19200.0
 20
33760.0
  0
LWPOLYLINE
  5
54
100
AcDbEntity
  8
ASSEMBLY_OUTLINES_TOP
100
AcDbPolyline
 90
        4
 70
         1
 43
100.0
 10
11200.0
 20
26960.0
 10
11200.0
 20
34960.0
 10
12400.0
 20
34960.0
 10
12400.0
 20
26960.0
  0
LWPOLYLINE
  5
55
100
AcDbEntity
  8
ASSEMBLY_OUTLINES_TOP
100
AcDbPolyline
 90
        4
 70
         1
 43
100.0
 10
18000.0
 20
26960.0
 10
18000.0
 20
34960.0
 10
19200.0
 20
34960.0
 10
19200.0
 20
26960.0
  0
LWPOLYLINE
  5
56
100
AcDbEntity
  8
ASSEMBLY_OUTLINES_TOP
100
AcDbPolyline
 90
        4
 70
         1
 43
100.0
 10
11200.0
 20
26960.0
 10
11200.0
 20
28060.0
 10
19200.0
 20
28060.0
 10
19200.0
 20
26960.0
  0
TEXT
  5
58
100
AcDbEntity
  8
ASSEMBLY_OUTLINES_TOP
100
AcDbText
 10
12130.0
 20
28866.0
 30
0.0
 40
800.0
  1
No Vias
 50
90.0
  7
ARIAL
 11
11298.0
 21
28866.0
 31
0.0
100
AcDbText
 73
         3
  0
TEXT
  5
59
100
AcDbEntity
  8
ASSEMBLY_OUTLINES_TOP
100
AcDbText
 10
17201.66
 20
27997.54
 30
0.0
 40
800.0
  1
No Vias
 50
180.0
  7
ARIAL
 11
17201.66
 21
27165.54
 31
0.0
100
AcDbText
 73
         3
  0
TEXT
  5
5A
100
AcDbEntity
  8
ASSEMBLY_OUTLINES_TOP
100
AcDbText
 10
19030.0
 20
28866.0
 30
0.0
 40
800.0
  1
No Vias
 50
90.0
  7
ARIAL
 11
18198.0
 21
28866.0
 31
0.0
100
AcDbText
 73
         3
  0
TEXT
  5
5B
100
AcDbEntity
  8
ASSEMBLY_OUTLINES_TOP
100
AcDbText
 10
17101.66
 20
34897.54
 30
0.0
 40
800.0
  1
No Vias
 50
180.0
  7
ARIAL
 11
17101.66
 21
34065.54
 31
0.0
100
AcDbText
 73
         3
  0
LWPOLYLINE
  5
5C
100
AcDbEntity
  8
ASSEMBLY_OUTLINES_TOP
100
AcDbPolyline
 90
        4
 70
         0
 43
100.0
 10
7200.0
 20
32920.0
 10
9270.0
 20
32920.0
 10
9270.0
 20
32210.0
 10
7200.0
 20
32210.0
  0
LWPOLYLINE
  5
5D
100
AcDbEntity
  8
ASSEMBLY_OUTLINES_TOP
100
AcDbPolyline
 90
        2
 70
         0
 43
100.0
 10
7040.0
 20
32410.0
 10
7040.0
 20
32730.0
  0
LWPOLYLINE
  5
5E
100
AcDbEntity
  8
ASSEMBLY_OUTLINES_TOP
100
AcDbPolyline
 90
        4
 70
         0
 43
250.0
 10
19330.0
 20
37350.0
 10
19330.0
 20
37550.0
 10
18930.0
 20
37550.0
 10
18930.0
 20
37350.0
  0
LWPOLYLINE
  5
5F
100
AcDbEntity
  8
ASSEMBLY_OUTLINES_TOP
100
AcDbPolyline
 90
        4
 70
         0
 43
250.0
 10
10280.0
 20
55650.0
 10
10480.0
 20
55650.0
 10
10480.0
 20
56050.0
 10
10280.0
 20
56050.0
  0
LWPOLYLINE
  5
60
100
AcDbEntity
  8
ASSEMBLY_OUTLINES_TOP
100
AcDbPolyline
 90
        4
 70
         0
 43
250.0
 10
17520.0
 20
41170.0
 10
17520.0
 20
40970.0
 10
17920.0
 20
40970.0
 10
17920.0
 20
41170.0
  0
LWPOLYLINE
  5
61
100
AcDbEntity
  8
ASSEMBLY_OUTLINES_TOP
100
AcDbPolyline
 90
        4
 70
         0
 43
250.0
 10
22590.0
 20
55390.0
 10
22390.0
 20
55390.0
 10
22390.0
 20
54990.0
 10
22590.0
 20
54990.0
  0
LWPOLYLINE
  5
62
100
AcDbEntity
  8
ASSEMBLY_OUTLINES_TOP
100
AcDbPolyline
 90
        4
 70
         0
 43
250.0
 10
19670.0
 20
21410.0
 10
19470.0
 20
21410.0
 10
19470.0
 20
21010.0
 10
19670.0
 20
21010.0
  0
LWPOLYLINE
  5
63
100
AcDbEntity
  8
ASSEMBLY_OUTLINES_TOP
100
AcDbPolyline
 90
        4
 70
         0
 43
250.0
 10
9590.0
 20
19400.0
 10
9390.0
 20
19400.0
 10
9390.0
 20
19000.0
 10
9590.0
 20
19000.0
  0
LWPOLYLINE
  5
64
100
AcDbEntity
  8
ASSEMBLY_OUTLINES_TOP
100
AcDbPolyline
 90
        4
 70
         0
 43
250.0
 10
9460.0
 20
15120.0
 10
9260.0
 20
15120.0
 10
9260.0
 20
14720.0
 10
9460.0
 20
14720.0
  0
LWPOLYLINE
  5
65
100
AcDbEntity
  8
ASSEMBLY_OUTLINES_TOP
100
AcDbPolyline
 90
        4
 70
         0
 43
200.0
 10
21130.0
 20
15250.0
 10
21130.0
 20
14850.0
 10
19930.0
 20
14850.0
 10
19930.0
 20
15250.0
  0
LWPOLYLINE
  5
66
100
AcDbEntity
  8
ASSEMBLY_OUTLINES_TOP
100
AcDbPolyline
 90
        4
 70
         0
 43
250.0
 10
18820.0
 20
15130.0
 10
18820.0
 20
14930.0
 10
19220.0
 20
14930.0
 10
19220.0
 20
15130.0
  0
LWPOLYLINE
  5
67
100
AcDbEntity
  8
ASSEMBLY_OUTLINES_TOP
100
AcDbPolyline
 90
        4
 70
         0
 43
100.0
 10
15480.0
 20
18820.0
 10
17550.0
 20
18820.0
 10
17550.0
 20
18110.0
 10
15480.0
 20
18110.0
  0
LWPOLYLINE
  5
68
100
AcDbEntity
  8
ASSEMBLY_OUTLINES_TOP
100
AcDbPolyline
 90
        2
 70
         0
 43
100.0
 10
15320.0
 20
18310.0
 10
15320.0
 20
18630.0
  0
LWPOLYLINE
  5
69
100
AcDbEntity
  8
ASSEMBLY_OUTLINES_TOP
100
AcDbPolyline
 90
        4
 70
         1
 43
200.0
 10
15590.0
 20
14050.0
 10
15590.0
 20
17050.0
 10
17190.0
 20
17050.0
 10
17190.0
 20
14050.0
  0
CIRCLE
  5
6A
100
AcDbEntity
  8
ASSEMBLY_OUTLINES_TOP
100
AcDbCircle
 10
16790.0
 20
14550.0
 30
0.0
 40
300.0
  0
HATCH
  5
6B
100
AcDbEntity
  8
ASSEMBLY_OUTLINES_TOP
100
AcDbHatch
 10
0.0
 20
0.0
 30
0.0
210
0.0
220
0.0
230
1.0
  2
SOLID
 70
         1
 71
         1
 91
        1
 92
        1
 93
        1
 72
         2
 10
16790.0
 20
14550.0
 40
300.0
 50
0.0
 51
360.0
 73
         1
 97
        1
330
6A
 75
         0
 76
         1
 98
        1
 10
0.0
 20
0.0
  0
LWPOLYLINE
  5
6C
100
AcDbEntity
  8
ASSEMBLY_OUTLINES_TOP
100
AcDbPolyline
 90
        4
 70
         0
 43
250.0
 10
19670.0
 20
17630.0
 10
19470.0
 20
17630.0
 10
19470.0
 20
17230.0
 10
19670.0
 20
17230.0
  0
LWPOLYLINE
  5
6D
100
AcDbEntity
  8
ASSEMBLY_OUTLINES_TOP
100
AcDbPolyline
 90
        4
 70
         0
 43
250.0
 10
24650.0
 20
19590.0
 10
24650.0
 20
19390.0
 10
25050.0
 20
19390.0
 10
25050.0
 20
19590.0
  0
LWPOLYLINE
  5
6E
100
AcDbEntity
  8
ASSEMBLY_OUTLINES_TOP
100
AcDbPolyline
 90
        4
 70
         1
 43
100.0
 10
15230.0
 20
44480.0
 10
15230.0
 20
45480.0
 10
17230.0
 20
45480.0
 10
17230.0
 20
44480.0
  0
LWPOLYLINE
  5
6F
100
AcDbEntity
  8
ASSEMBLY_OUTLINES_TOP
100
AcDbPolyline
 90
        4
 70
         0
 43
250.0
 10
21150.0
 20
43740.0
 10
21150.0
 20
43940.0
 10
20750.0
 20
43940.0
 10
20750.0
 20
43740.0
  0
LWPOLYLINE
  5
70
100
AcDbEntity
  8
ASSEMBLY_OUTLINES_TOP
100
AcDbPolyline
 90
        4
 70
         0
 43
250.0
 10
20195.999
 20
43740.0
 10
20195.999
 20
43940.0
 10
19795.999
 20
43940.0
 10
19795.999
 20
43740.0
  0
LWPOLYLINE
  5
71
100
AcDbEntity
  8
ASSEMBLY_OUTLINES_TOP
100
AcDbPolyline
 90
        4
 70
         0
 43
250.0
 10
19241.998
 20
43740.0
 10
19241.998
 20
43940.0
 10
18841.998
 20
43940.0
 10
18841.998
 20
43740.0
  0
LWPOLYLINE
  5
72
100
AcDbEntity
  8
ASSEMBLY_OUTLINES_TOP
100
AcDbPolyline
 90
        4
 70
         0
 43
250.0
 10
18287.997
 20
43740.0
 10
18287.997
 20
43940.0
 10
17887.997
 20
43940.0
 10
17887.997
 20
43740.0
  0
LWPOLYLINE
  5
73
100
AcDbEntity
  8
ASSEMBLY_OUTLINES_TOP
100
AcDbPolyline
 90
        4
 70
         1
 43
100.0
 10
12450.0
 20
44480.0
 10
12450.0
 20
45480.0
 10
14450.0
 20
45480.0
 10
14450.0
 20
44480.0
  0
LWPOLYLINE
  5
74
100
AcDbEntity
  8
ASSEMBLY_OUTLINES_TOP
100
AcDbPolyline
 90
        4
 70
         0
 43
250.0
 10
9280.0
 20
11410.0
 10
9080.0
 20
11410.0
 10
9080.0
 20
11010.0
 10
9280.0
 20
11010.0
  0
LWPOLYLINE
  5
75
100
AcDbEntity
  8
ASSEMBLY_OUTLINES_TOP
100
AcDbPolyline
 90
        4
 70
         0
 43
250.0
 10
10880.0
 20
41380.0
 10
10680.0
 20
41380.0
 10
10680.0
 20
40980.0
 10
10880.0
 20
40980.0
  0
LWPOLYLINE
  5
76
100
AcDbEntity
  8
ASSEMBLY_OUTLINES_TOP
100
AcDbPolyline
 90
        4
 70
         0
 43
250.0
 10
18380.0
 20
8170.0
 10
18180.0
 20
8170.0
 10
18180.0
 20
7770.0
 10
18380.0
 20
7770.0
  0
LWPOLYLINE
  5
77
100
AcDbEntity
  8
ASSEMBLY_OUTLINES_TOP
100
AcDbPolyline
 90
        4
 70
         0
 43
250.0
 10
8310.0
 20
51180.0
 10
8310.0
 20
50980.0
 10
8710.0
 20
50980.0
 10
8710.0
 20
51180.0
  0
LWPOLYLINE
  5
78
100
AcDbEntity
  8
ASSEMBLY_OUTLINES_TOP
100
AcDbPolyline
 90
        4
 70
         0
 43
250.0
 10
8310.0
 20
47470.0
 10
8310.0
 20
47270.0
 10
8710.0
 20
47270.0
 10
8710.0
 20
47470.0
  0
LWPOLYLINE
  5
79
100
AcDbEntity
  8
ASSEMBLY_OUTLINES_TOP
100
AcDbPolyline
 90
        4
 70
         0
 43
250.0
 10
3960.0
 20
52790.0
 10
3760.0
 20
52790.0
 10
3760.0
 20
52390.0
 10
3960.0
 20
52390.0
  0
LWPOLYLINE
  5
7A
100
AcDbEntity
  8
ASSEMBLY_OUTLINES_TOP
100
AcDbPolyline
 90
        4
 70
         0
 43
250.0
 10
19980.0
 20
56340.0
 10
19780.0
 20
56340.0
 10
19780.0
 20
55940.0
 10
19980.0
 20
55940.0
  0
LWPOLYLINE
  5
7B
100
AcDbEntity
  8
ASSEMBLY_OUTLINES_TOP
100
AcDbPolyline
 90
        4
 70
         0
 43
250.0
 10
20790.0
 20
57540.0
 10
20590.0
 20
57540.0
 10
20590.0
 20
57140.0
 10
20790.0
 20
57140.0
  0
LWPOLYLINE
  5
7C
100
AcDbEntity
  8
ASSEMBLY_OUTLINES_TOP
100
AcDbPolyline
 90
        4
 70
         0
 43
250.0
 10
21340.0
 20
58270.0
 10
21540.0
 20
58270.0
 10
21540.0
 20
58670.0
 10
21340.0
 20
58670.0
  0
LWPOLYLINE
  5
7D
100
AcDbEntity
  8
ASSEMBLY_OUTLINES_TOP
100
AcDbPolyline
 90
        4
 70
         0
 43
250.0
 10
19280.0
 20
54920.0
 10
19080.0
 20
54920.0
 10
19080.0
 20
54520.0
 10
19280.0
 20
54520.0
  0
LWPOLYLINE
  5
7E
100
AcDbEntity
  8
ASSEMBLY_OUTLINES_TOP
100
AcDbPolyline
 90
        4
 70
         0
 43
250.0
 10
9550.0
 20
54240.0
 10
9750.0
 20
54240.0
 10
9750.0
 20
54640.0
 10
9550.0
 20
54640.0
  0
LWPOLYLINE
  5
7F
100
AcDbEntity
  8
ASSEMBLY_OUTLINES_TOP
100
AcDbPolyline
 90
        6
 70
         0
 43
150.0
 10
11320.0
 20
43660.0
 10
10220.0
 20
43660.0
 10
10020.0
 20
43460.0
 10
10020.0
 20
42460.0
 10
10220.0
 20
42260.0
 10
11320.0
 20
42260.0
  0
LWPOLYLINE
  5
80
100
AcDbEntity
  8
ASSEMBLY_OUTLINES_TOP
100
AcDbPolyline
 90
        4
 70
         0
 43
250.0
 10
10090.0
 20
44750.0
 10
9890.0
 20
44750.0
 10
9890.0
 20
44350.0
 10
10090.0
 20
44350.0
  0
LWPOLYLINE
  5
81
100
AcDbEntity
  8
ASSEMBLY_OUTLINES_TOP
100
AcDbPolyline
 90
        4
 70
         0
 43
250.0
 10
11260.0
 20
45760.0
 10
11060.0
 20
45760.0
 10
11060.0
 20
45360.0
 10
11260.0
 20
45360.0
  0
LWPOLYLINE
  5
82
100
AcDbEntity
  8
ASSEMBLY_OUTLINES_TOP
100
AcDbPolyline
 90
        6
 70
         1
 10
9900.0
 20
52210.0
 10
19600.0
 20
52210.0
 10
19700.0
 20
52110.0
 10
19700.0
 20
47810.0
 10
10762.0
 20
47810.0
 10
9900.0
 20
48672.0
  0
TEXT
  5
83
100
AcDbEntity
  8
ASSEMBLY_REF_DES_TOP
100
AcDbText
 10
16682.2
 20
35987.0
 30
0.0
 40
800.0
  1
C13
  7
ARIAL
 72
         1
 11
17731.0
 21
36403.0
 31
0.0
100
AcDbText
 73
         2
  0
TEXT
  5
84
100
AcDbEntity
  8
ASSEMBLY_REF_DES_TOP
100
AcDbText
 10
16980.2
 20
36907.0
 30
0.0
 40
800.0
  1
C5
  7
ARIAL
 72
         1
 11
17711.0
 21
37323.0
 31
0.0
100
AcDbText
 73
         2
  0
TEXT
  5
85
100
AcDbEntity
  8
ASSEMBLY_REF_DES_TOP
100
AcDbText
 10
15870.8
 20
64426.0
 30
0.0
 40
800.0
  1
X3
  7
ARIAL
 72
         1
 11
16570.0
 21
64842.0
 31
0.0
100
AcDbText
 73
         2
  0
TEXT
  5
86
100
AcDbEntity
  8
ASSEMBLY_REF_DES_TOP
100
AcDbText
 10
20234.0
 20
33880.8
 30
0.0
 40
800.0
  1
C6
 50
270.0
  7
ARIAL
 72
         1
 11
20650.0
 21
33150.0
 31
0.0
100
AcDbText
 73
         2
  0
TEXT
  5
87
100
AcDbEntity
  8
ASSEMBLY_REF_DES_TOP
100
AcDbText
 10
21124.0
 20
33870.8
 30
0.0
 40
800.0
  1
C2
 50
270.0
  7
ARIAL
 72
         1
 11
21540.0
 21
33140.0
 31
0.0
100
AcDbText
 73
         2
  0
TEXT
  5
88
100
AcDbEntity
  8
ASSEMBLY_REF_DES_TOP
100
AcDbText
 10
17619.2
 20
25024.0
 30
0.0
 40
800.0
  1
C1
  7
ARIAL
 72
         1
 11
18350.0
 21
25440.0
 31
0.0
100
AcDbText
 73
         2
  0
TEXT
  5
89
100
AcDbEntity
  8
ASSEMBLY_REF_DES_TOP
100
AcDbText
 10
17301.2
 20
24144.0
 30
0.0
 40
800.0
  1
C14
  7
ARIAL
 72
         1
 11
18350.0
 21
24560.0
 31
0.0
100
AcDbText
 73
         2
  0
TEXT
  5
8A
100
AcDbEntity
  8
ASSEMBLY_REF_DES_TOP
100
AcDbText
 10
11701.2
 20
23654.0
 30
0.0
 40
800.0
  1
C16
  7
ARIAL
 72
         1
 11
12750.0
 21
24070.0
 31
0.0
100
AcDbText
 73
         2
  0
TEXT
  5
8B
100
AcDbEntity
  8
ASSEMBLY_REF_DES_TOP
100
AcDbText
 10
12039.2
 20
24524.0
 30
0.0
 40
800.0
  1
C3
  7
ARIAL
 72
         1
 11
12770.0
 21
24940.0
 31
0.0
100
AcDbText
 73
         2
  0
TEXT
  5
8C
100
AcDbEntity
  8
ASSEMBLY_REF_DES_TOP
100
AcDbText
 10
8954.0
 20
32278.8
 30
0.0
 40
800.0
  1
C18
 50
270.0
  7
ARIAL
 72
         1
 11
9370.0
 21
31230.0
 31
0.0
100
AcDbText
 73
         2
  0
TEXT
  5
8D
100
AcDbEntity
  8
ASSEMBLY_REF_DES_TOP
100
AcDbText
 10
8034.0
 20
31960.8
 30
0.0
 40
800.0
  1
C8
 50
270.0
  7
ARIAL
 72
         1
 11
8450.0
 21
31230.0
 31
0.0
100
AcDbText
 73
         2
  0
TEXT
  5
8E
100
AcDbEntity
  8
ASSEMBLY_REF_DES_TOP
100
AcDbText
 10
10031.2
 20
35914.0
 30
0.0
 40
800.0
  1
C17
  7
ARIAL
 72
         1
 11
11080.0
 21
36330.0
 31
0.0
100
AcDbText
 73
         2
  0
TEXT
  5
8F
100
AcDbEntity
  8
ASSEMBLY_REF_DES_TOP
100
AcDbText
 10
10349.2
 20
36824.0
 30
0.0
 40
800.0
  1
C4
  7
ARIAL
 72
         1
 11
11080.0
 21
37240.0
 31
0.0
100
AcDbText
 73
         2
  0
TEXT
  5
90
100
AcDbEntity
  8
ASSEMBLY_REF_DES_TOP
100
AcDbText
 10
13591.2
 20
12574.0
 30
0.0
 40
800.0
  1
C37
  7
ARIAL
 72
         1
 11
14640.0
 21
12990.0
 31
0.0
100
AcDbText
 73
         2
  0
TEXT
  5
91
100
AcDbEntity
  8
ASSEMBLY_REF_DES_TOP
100
AcDbText
 10
17071.2
 20
12634.0
 30
0.0
 40
800.0
  1
C21
  7
ARIAL
 72
         1
 11
18120.0
 21
13050.0
 31
0.0
100
AcDbText
 73
         2
  0
TEXT
  5
92
100
AcDbEntity
  8
ASSEMBLY_REF_DES_TOP
100
AcDbText
 10
24304.0
 20
30438.8
 30
0.0
 40
800.0
  1
C25
 50
270.0
  7
ARIAL
 72
         1
 11
24720.0
 21
29390.0
 31
0.0
100
AcDbText
 73
         2
  0
TEXT
  5
93
100
AcDbEntity
  8
ASSEMBLY_REF_DES_TOP
100
AcDbText
 10
24344.0
 20
37728.8
 30
0.0
 40
800.0
  1
C22
 50
270.0
  7
ARIAL
 72
         1
 11
24760.0
 21
36680.0
 31
0.0
100
AcDbText
 73
         2
  0
TEXT
  5
94
100
AcDbEntity
  8
ASSEMBLY_REF_DES_TOP
100
AcDbText
 10
21474.0
 20
37138.8
 30
0.0
 40
800.0
  1
C40
 50
270.0
  7
ARIAL
 72
         1
 11
21890.0
 21
36090.0
 31
0.0
100
AcDbText
 73
         2
  0
TEXT
  5
95
100
AcDbEntity
  8
ASSEMBLY_REF_DES_TOP
100
AcDbText
 10
21364.0
 20
29198.8
 30
0.0
 40
800.0
  1
C41
 50
270.0
  7
ARIAL
 72
         1
 11
21780.0
 21
28150.0
 31
0.0
100
AcDbText
 73
         2
  0
TEXT
  5
96
100
AcDbEntity
  8
ASSEMBLY_REF_DES_TOP
100
AcDbText
 10
6541.2
 20
7554.0
 30
0.0
 40
800.0
  1
C20
  7
ARIAL
 72
         1
 11
7590.0
 21
7970.0
 31
0.0
100
AcDbText
 73
         2
  0
TEXT
  5
97
100
AcDbEntity
  8
ASSEMBLY_REF_DES_TOP
100
AcDbText
 10
12501.2
 20
20794.0
 30
0.0
 40
800.0
  1
C36
  7
ARIAL
 72
         1
 11
13550.0
 21
21210.0
 31
0.0
100
AcDbText
 73
         2
  0
TEXT
  5
98
100
AcDbEntity
  8
ASSEMBLY_REF_DES_TOP
100
AcDbText
 10
2051.2
 20
62784.0
 30
0.0
 40
800.0
  1
C46
  7
ARIAL
 72
         1
 11
3100.0
 21
63200.0
 31
0.0
100
AcDbText
 73
         2
  0
TEXT
  5
99
100
AcDbEntity
  8
ASSEMBLY_REF_DES_TOP
100
AcDbText
 10
7569.75
 20
33854.0
 30
0.0
 40
800.0
  1
J1
  7
ARIAL
 72
         1
 11
8173.75
 21
34270.0
 31
0.0
100
AcDbText
 73
         2
  0
TEXT
  5
9A
100
AcDbEntity
  8
ASSEMBLY_REF_DES_TOP
100
AcDbText
 10
7649.2
 20
35064.0
 30
0.0
 40
800.0
  1
R2
  7
ARIAL
 72
         1
 11
8380.0
 21
35480.0
 31
0.0
100
AcDbText
 73
         2
  0
TEXT
  5
9B
100
AcDbEntity
  8
ASSEMBLY_REF_DES_TOP
100
AcDbText
 10
7649.2
 20
36014.0
 30
0.0
 40
800.0
  1
R6
  7
ARIAL
 72
         1
 11
8380.0
 21
36430.0
 31
0.0
100
AcDbText
 73
         2
  0
TEXT
  5
9C
100
AcDbEntity
  8
ASSEMBLY_REF_DES_TOP
100
AcDbText
 10
22714.0
 20
32240.8
 30
0.0
 40
800.0
  1
R7
 50
270.0
  7
ARIAL
 72
         1
 11
23130.0
 21
31510.0
 31
0.0
100
AcDbText
 73
         2
  0
TEXT
  5
9D
100
AcDbEntity
  8
ASSEMBLY_REF_DES_TOP
100
AcDbText
 10
13809.2
 20
36734.0
 30
0.0
 40
800.0
  1
C7
  7
ARIAL
 72
         1
 11
14540.0
 21
37150.0
 31
0.0
100
AcDbText
 73
         2
  0
TEXT
  5
9E
100
AcDbEntity
  8
ASSEMBLY_REF_DES_TOP
100
AcDbText
 10
13441.2
 20
37644.0
 30
0.0
 40
800.0
  1
C15
  7
ARIAL
 72
         1
 11
14490.0
 21
38060.0
 31
0.0
100
AcDbText
 73
         2
  0
TEXT
  5
9F
100
AcDbEntity
  8
ASSEMBLY_REF_DES_TOP
100
AcDbText
 10
14784.0
 20
31690.8
 30
0.0
 40
800.0
  1
U1
 50
270.0
  7
ARIAL
 72
         1
 11
15200.0
 21
30960.0
 31
0.0
100
AcDbText
 73
         2
  0
TEXT
  5
A0
100
AcDbEntity
  8
ASSEMBLY_REF_DES_TOP
100
AcDbText
 10
7549.75
 20
32154.0
 30
0.0
 40
800.0
  1
J2
  7
ARIAL
 72
         1
 11
8153.75
 21
32570.0
 31
0.0
100
AcDbText
 73
         2
  0
TEXT
  5
A1
100
AcDbEntity
  8
ASSEMBLY_REF_DES_TOP
100
AcDbText
 10
18714.0
 20
38180.8
 30
0.0
 40
800.0
  1
R3
 50
270.0
  7
ARIAL
 72
         1
 11
19130.0
 21
37450.0
 31
0.0
100
AcDbText
 73
         2
  0
TEXT
  5
A2
100
AcDbEntity
  8
ASSEMBLY_REF_DES_TOP
100
AcDbText
 10
9649.2
 20
55434.0
 30
0.0
 40
800.0
  1
C9
  7
ARIAL
 72
         1
 11
10380.0
 21
55850.0
 31
0.0
100
AcDbText
 73
         2
  0
TEXT
  5
A3
100
AcDbEntity
  8
ASSEMBLY_REF_DES_TOP
100
AcDbText
 10
17304.0
 20
42118.8
 30
0.0
 40
800.0
  1
C23
 50
270.0
  7
ARIAL
 72
         1
 11
17720.0
 21
41070.0
 31
0.0
100
AcDbText
 73
         2
  0
TEXT
  5
A4
100
AcDbEntity
  8
ASSEMBLY_REF_DES_TOP
100
AcDbText
 10
21441.2
 20
54774.0
 30
0.0
 40
800.0
  1
C30
  7
ARIAL
 72
         1
 11
22490.0
 21
55190.0
 31
0.0
100
AcDbText
 73
         2
  0
TEXT
  5
A5
100
AcDbEntity
  8
ASSEMBLY_REF_DES_TOP
100
AcDbText
 10
18521.2
 20
20794.0
 30
0.0
 40
800.0
  1
C38
  7
ARIAL
 72
         1
 11
19570.0
 21
21210.0
 31
0.0
100
AcDbText
 73
         2
  0
TEXT
  5
A6
100
AcDbEntity
  8
ASSEMBLY_REF_DES_TOP
100
AcDbText
 10
8441.2
 20
18784.0
 30
0.0
 40
800.0
  1
C35
  7
ARIAL
 72
         1
 11
9490.0
 21
19200.0
 31
0.0
100
AcDbText
 73
         2
  0
TEXT
  5
A7
100
AcDbEntity
  8
ASSEMBLY_REF_DES_TOP
100
AcDbText
 10
8311.2
 20
14504.0
 30
0.0
 40
800.0
  1
C42
  7
ARIAL
 72
         1
 11
9360.0
 21
14920.0
 31
0.0
100
AcDbText
 73
         2
  0
TEXT
  5
A8
100
AcDbEntity
  8
ASSEMBLY_REF_DES_TOP
100
AcDbText
 10
20114.0
 20
16098.8
 30
0.0
 40
800.0
  1
C45
 50
270.0
  7
ARIAL
 72
         1
 11
20530.0
 21
15050.0
 31
0.0
100
AcDbText
 73
         2
  0
TEXT
  5
A9
100
AcDbEntity
  8
ASSEMBLY_REF_DES_TOP
100
AcDbText
 10
18604.0
 20
16078.8
 30
0.0
 40
800.0
  1
C44
 50
270.0
  7
ARIAL
 72
         1
 11
19020.0
 21
15030.0
 31
0.0
100
AcDbText
 73
         2
  0
TEXT
  5
AA
100
AcDbEntity
  8
ASSEMBLY_REF_DES_TOP
100
AcDbText
 10
15829.75
 20
18054.0
 30
0.0
 40
800.0
  1
J3
  7
ARIAL
 72
         1
 11
16433.75
 21
18470.0
 31
0.0
100
AcDbText
 73
         2
  0
TEXT
  5
AB
100
AcDbEntity
  8
ASSEMBLY_REF_DES_TOP
100
AcDbText
 10
15974.0
 20
16280.8
 30
0.0
 40
800.0
  1
U3
 50
270.0
  7
ARIAL
 72
         1
 11
16390.0
 21
15550.0
 31
0.0
100
AcDbText
 73
         2
  0
TEXT
  5
AC
100
AcDbEntity
  8
ASSEMBLY_REF_DES_TOP
100
AcDbText
 10
18839.2
 20
17014.0
 30
0.0
 40
800.0
  1
R5
  7
ARIAL
 72
         1
 11
19570.0
 21
17430.0
 31
0.0
100
AcDbText
 73
         2
  0
TEXT
  5
AD
100
AcDbEntity
  8
ASSEMBLY_REF_DES_TOP
100
AcDbText
 10
24434.0
 20
20538.8
 30
0.0
 40
800.0
  1
C26
 50
270.0
  7
ARIAL
 72
         1
 11
24850.0
 21
19490.0
 31
0.0
100
AcDbText
 73
         2
  0
TEXT
  5
AE
100
AcDbEntity
  8
ASSEMBLY_REF_DES_TOP
100
AcDbText
 10
15594.0
 20
44564.0
 30
0.0
 40
800.0
  1
L2
  7
ARIAL
 72
         1
 11
16230.0
 21
44980.0
 31
0.0
100
AcDbText
 73
         2
  0
TEXT
  5
AF
100
AcDbEntity
  8
ASSEMBLY_REF_DES_TOP
100
AcDbText
 10
20534.0
 20
44888.8
 30
0.0
 40
800.0
  1
R13
 50
270.0
  7
ARIAL
 72
         1
 11
20950.0
 21
43840.0
 31
0.0
100
AcDbText
 73
         2
  0
TEXT
  5
B0
100
AcDbEntity
  8
ASSEMBLY_REF_DES_TOP
100
AcDbText
 10
19579.999
 20
44570.8
 30
0.0
 40
800.0
  1
R8
 50
270.0
  7
ARIAL
 72
         1
 11
19995.999
 21
43840.0
 31
0.0
100
AcDbText
 73
         2
  0
TEXT
  5
B1
100
AcDbEntity
  8
ASSEMBLY_REF_DES_TOP
100
AcDbText
 10
18625.998
 20
44570.8
 30
0.0
 40
800.0
  1
R9
 50
270.0
  7
ARIAL
 72
         1
 11
19041.998
 21
43840.0
 31
0.0
100
AcDbText
 73
         2
  0
TEXT
  5
B2
100
AcDbEntity
  8
ASSEMBLY_REF_DES_TOP
100
AcDbText
 10
17671.997
 20
44888.8
 30
0.0
 40
800.0
  1
R10
 50
270.0
  7
ARIAL
 72
         1
 11
18087.997
 21
43840.0
 31
0.0
100
AcDbText
 73
         2
  0
TEXT
  5
B3
100
AcDbEntity
  8
ASSEMBLY_REF_DES_TOP
100
AcDbText
 10
12814.0
 20
44564.0
 30
0.0
 40
800.0
  1
L1
  7
ARIAL
 72
         1
 11
13450.0
 21
44980.0
 31
0.0
100
AcDbText
 73
         2
  0
TEXT
  5
B4
100
AcDbEntity
  8
ASSEMBLY_REF_DES_TOP
100
AcDbText
 10
8131.2
 20
10794.0
 30
0.0
 40
800.0
  1
C39
  7
ARIAL
 72
         1
 11
9180.0
 21
11210.0
 31
0.0
100
AcDbText
 73
         2
  0
TEXT
  5
B5
100
AcDbEntity
  8
ASSEMBLY_REF_DES_TOP
100
AcDbText
 10
9731.2
 20
40764.0
 30
0.0
 40
800.0
  1
C24
  7
ARIAL
 72
         1
 11
10780.0
 21
41180.0
 31
0.0
100
AcDbText
 73
         2
  0
TEXT
  5
B6
100
AcDbEntity
  8
ASSEMBLY_REF_DES_TOP
100
AcDbText
 10
17231.2
 20
7554.0
 30
0.0
 40
800.0
  1
C19
  7
ARIAL
 72
         1
 11
18280.0
 21
7970.0
 31
0.0
100
AcDbText
 73
         2
  0
TEXT
  5
B7
100
AcDbEntity
  8
ASSEMBLY_REF_DES_TOP
100
AcDbText
 10
8094.0
 20
52128.8
 30
0.0
 40
800.0
  1
C29
 50
270.0
  7
ARIAL
 72
         1
 11
8510.0
 21
51080.0
 31
0.0
100
AcDbText
 73
         2
  0
TEXT
  5
B8
100
AcDbEntity
  8
ASSEMBLY_REF_DES_TOP
100
AcDbText
 10
8094.0
 20
48418.8
 30
0.0
 40
800.0
  1
C28
 50
270.0
  7
ARIAL
 72
         1
 11
8510.0
 21
47370.0
 31
0.0
100
AcDbText
 73
         2
  0
TEXT
  5
B9
100
AcDbEntity
  8
ASSEMBLY_REF_DES_TOP
100
AcDbText
 10
2811.2
 20
52174.0
 30
0.0
 40
800.0
  1
C27
  7
ARIAL
 72
         1
 11
3860.0
 21
52590.0
 31
0.0
100
AcDbText
 73
         2
  0
TEXT
  5
BA
100
AcDbEntity
  8
ASSEMBLY_REF_DES_TOP
100
AcDbText
 10
18831.2
 20
55724.0
 30
0.0
 40
800.0
  1
R11
  7
ARIAL
 72
         1
 11
19880.0
 21
56140.0
 31
0.0
100
AcDbText
 73
         2
  0
TEXT
  5
BB
100
AcDbEntity
  8
ASSEMBLY_REF_DES_TOP
100
AcDbText
 10
19641.2
 20
56924.0
 30
0.0
 40
800.0
  1
R12
  7
ARIAL
 72
         1
 11
20690.0
 21
57340.0
 31
0.0
100
AcDbText
 73
         2
  0
TEXT
  5
BC
100
AcDbEntity
  8
ASSEMBLY_REF_DES_TOP
100
AcDbText
 10
20709.2
 20
58054.0
 30
0.0
 40
800.0
  1
R4
  7
ARIAL
 72
         1
 11
21440.0
 21
58470.0
 31
0.0
100
AcDbText
 73
         2
  0
TEXT
  5
BD
100
AcDbEntity
  8
ASSEMBLY_REF_DES_TOP
100
AcDbText
 10
18449.2
 20
54304.0
 30
0.0
 40
800.0
  1
R1
  7
ARIAL
 72
         1
 11
19180.0
 21
54720.0
 31
0.0
100
AcDbText
 73
         2
  0
TEXT
  5
BE
100
AcDbEntity
  8
ASSEMBLY_REF_DES_TOP
100
AcDbText
 10
8601.2
 20
54024.0
 30
0.0
 40
800.0
  1
C11
  7
ARIAL
 72
         1
 11
9650.0
 21
54440.0
 31
0.0
100
AcDbText
 73
         2
  0
TEXT
  5
BF
100
AcDbEntity
  8
ASSEMBLY_REF_DES_TOP
100
AcDbText
 10
9571.2
 20
42544.0
 30
0.0
 40
800.0
  1
C43
  7
ARIAL
 72
         1
 11
10620.0
 21
42960.0
 31
0.0
100
AcDbText
 73
         2
  0
TEXT
  5
C0
100
AcDbEntity
  8
ASSEMBLY_REF_DES_TOP
100
AcDbText
 10
8941.2
 20
44134.0
 30
0.0
 40
800.0
  1
C10
  7
ARIAL
 72
         1
 11
9990.0
 21
44550.0
 31
0.0
100
AcDbText
 73
         2
  0
TEXT
  5
C1
100
AcDbEntity
  8
ASSEMBLY_REF_DES_TOP
100
AcDbText
 10
10111.2
 20
45144.0
 30
0.0
 40
800.0
  1
C12
  7
ARIAL
 72
         1
 11
11160.0
 21
45560.0
 31
0.0
100
AcDbText
 73
         2
  0
TEXT
  5
C2
100
AcDbEntity
  8
ASSEMBLY_REF_DES_TOP
100
AcDbText
 10
14384.0
 20
50740.8
 30
0.0
 40
800.0
  1
U2
 50
270.0
  7
ARIAL
 72
         1
 11
14800.0
 21
50010.0
 31
0.0
100
AcDbText
 73
         2
  0
TEXT
  5
C3
100
AcDbEntity
  8
ASSEMBLY_REF_DES_TOP
100
AcDbText
 10
13284.0
 20
5417.2
 30
0.0
 40
800.0
  1
X71
 50
270.0
  7
ARIAL
 72
         1
 11
13700.0
 21
4400.0
 31
0.0
100
AcDbText
 73
         2
  0
TEXT
  5
C4
100
AcDbEntity
  8
ASSEMBLY_REF_DES_TOP
100
AcDbText
 10
2300.8
 20
68584.0
 30
0.0
 40
800.0
  1
X4
  7
ARIAL
 72
         1
 11
3000.0
 21
69000.0
 31
0.0
100
AcDbText
 73
         2
  0
TEXT
  5
C5
100
AcDbEntity
  8
ASSEMBLY_REF_DES_TOP
100
AcDbText
 10
23300.8
 20
44584.0
 30
0.0
 40
800.0
  1
X5
  7
ARIAL
 72
         1
 11
24000.0
 21
45000.0
 31
0.0
100
AcDbText
 73
         2
  0
TEXT
  5
C6
100
AcDbEntity
  8
ASSEMBLY_REF_DES_TOP
100
AcDbText
 10
23300.8
 20
2584.0
 30
0.0
 40
800.0
  1
X7
  7
ARIAL
 72
         1
 11
24000.0
 21
3000.0
 31
0.0
100
AcDbText
 73
         2
  0
TEXT
  5
C7
100
AcDbEntity
  8
ASSEMBLY_REF_DES_TOP
100
AcDbText
 10
2100.8
 20
2584.0
 30
0.0
 40
800.0
  1
X6
  7
ARIAL
 72
         1
 11
2800.0
 21
3000.0
 31
0.0
100
AcDbText
 73
         2
  0
TEXT
  5
C8
100
AcDbEntity
  8
ASSEMBLY_REF_DES_TOP
100
AcDbText
 10
3482.8
 20
30514.0
 30
0.0
 40
800.0
  1
X70
  7
ARIAL
 72
         1
 11
4500.0
 21
30930.0
 31
0.0
100
AcDbText
 73
         2
  0
LWPOLYLINE
  5
C9
100
AcDbEntity
  8
BOARD_OUTLINE
100
AcDbPolyline
 90
        4
 70
         1
 43
150.0
 10
0.0
 20
0.0
 10
0.0
 20
72000.0
 10
26900.0
 20
72000.0
 10
26900.0
 20
0.0
  0
CIRCLE
  5
CA
100
AcDbEntity
  8
SOLDERMASK_PADS_BTM
100
AcDbCircle
 10
5409.624
 20
60948.885
 30
0.0
 40
140.0
  0
CIRCLE
  5
CB
100
AcDbEntity
  8
SOLDERMASK_PADS_BTM
100
AcDbCircle
 10
18135.444
 20
38165.415
 30
0.0
 40
140.0
  0
CIRCLE
  5
CC
100
AcDbEntity
  8
SOLDERMASK_PADS_BTM
100
AcDbCircle
 10
12171.883
 20
23342.245
 30
0.0
 40
140.0
  0
CIRCLE
  5
CD
100
AcDbEntity
  8
SOLDERMASK_PADS_BTM
100
AcDbCircle
 10
21633.988
 20
15864.246
 30
0.0
 40
140.0
  0
CIRCLE
  5
CE
100
AcDbEntity
  8
SOLDERMASK_PADS_BTM
100
AcDbCircle
 10
14197.163
 20
12262.072
 30
0.0
 40
140.0
  0
CIRCLE
  5
CF
100
AcDbEntity
  8
SOLDERMASK_PADS_BTM
100
AcDbCircle
 10
18635.837
 20
12324.4
 30
0.0
 40
140.0
  0
CIRCLE
  5
D0
100
AcDbEntity
  8
SOLDERMASK_PADS_BTM
100
AcDbCircle
 10
18681.473
 20
8695.114
 30
0.0
 40
140.0
  0
CIRCLE
  5
D1
100
AcDbEntity
  8
SOLDERMASK_PADS_BTM
100
AcDbCircle
 10
25446.897
 20
29916.339
 30
0.0
 40
140.0
  0
CIRCLE
  5
D2
100
AcDbEntity
  8
SOLDERMASK_PADS_BTM
100
AcDbCircle
 10
25550.382
 20
37190.154
 30
0.0
 40
140.0
  0
CIRCLE
  5
D3
100
AcDbEntity
  8
SOLDERMASK_PADS_BTM
100
AcDbCircle
 10
22622.25
 20
36469.032
 30
0.0
 40
140.0
  0
CIRCLE
  5
D4
100
AcDbEntity
  8
SOLDERMASK_PADS_BTM
100
AcDbCircle
 10
22684.0
 20
28550.0
 30
0.0
 40
140.0
  0
CIRCLE
  5
D5
100
AcDbEntity
  8
SOLDERMASK_PADS_BTM
100
AcDbCircle
 10
14050.951
 20
20451.576
 30
0.0
 40
140.0
  0
CIRCLE
  5
D6
100
AcDbEntity
  8
SOLDERMASK_PADS_BTM
100
AcDbCircle
 10
7988.311
 20
8695.114
 30
0.0
 40
140.0
  0
CIRCLE
  5
D7
100
AcDbEntity
  8
SOLDERMASK_PADS_BTM
100
AcDbCircle
 10
3183.904
 20
59874.059
 30
0.0
 40
140.0
  0
CIRCLE
  5
D8
100
AcDbEntity
  8
SOLDERMASK_PADS_BTM
100
AcDbCircle
 10
8053.982
 20
37197.578
 30
0.0
 40
140.0
  0
CIRCLE
  5
D9
100
AcDbEntity
  8
SOLDERMASK_PADS_BTM
100
AcDbCircle
 10
20885.231
 20
27672.708
 30
0.0
 40
140.0
  0
CIRCLE
  5
DA
100
AcDbEntity
  8
SOLDERMASK_PADS_BTM
100
AcDbCircle
 10
19143.32
 20
38532.575
 30
0.0
 40
140.0
  0
CIRCLE
  5
DB
100
AcDbEntity
  8
SOLDERMASK_PADS_BTM
100
AcDbCircle
 10
11120.902
 20
48220.069
 30
0.0
 40
140.0
  0
CIRCLE
  5
DC
100
AcDbEntity
  8
SOLDERMASK_PADS_BTM
100
AcDbCircle
 10
13800.0
 20
48219.308
 30
0.0
 40
140.0
  0
CIRCLE
  5
DD
100
AcDbEntity
  8
SOLDERMASK_PADS_BTM
100
AcDbCircle
 10
12300.0
 20
48420.227
 30
0.0
 40
140.0
  0
CIRCLE
  5
DE
100
AcDbEntity
  8
SOLDERMASK_PADS_BTM
100
AcDbCircle
 10
15300.0
 20
48434.668
 30
0.0
 40
140.0
  0
CIRCLE
  5
DF
100
AcDbEntity
  8
SOLDERMASK_PADS_BTM
100
AcDbCircle
 10
16800.0
 20
48340.448
 30
0.0
 40
140.0
  0
CIRCLE
  5
E0
100
AcDbEntity
  8
SOLDERMASK_PADS_BTM
100
AcDbCircle
 10
12318.742
 20
51791.95
 30
0.0
 40
140.0
  0
CIRCLE
  5
E1
100
AcDbEntity
  8
SOLDERMASK_PADS_BTM
100
AcDbCircle
 10
16792.775
 20
54133.63
 30
0.0
 40
140.0
  0
CIRCLE
  5
E2
100
AcDbEntity
  8
SOLDERMASK_PADS_BTM
100
AcDbCircle
 10
13845.643
 20
54181.486
 30
0.0
 40
140.0
  0
CIRCLE
  5
E3
100
AcDbEntity
  8
SOLDERMASK_PADS_BTM
100
AcDbCircle
 10
9955.917
 20
56575.665
 30
0.0
 40
140.0
  0
CIRCLE
  5
E4
100
AcDbEntity
  8
SOLDERMASK_PADS_BTM
100
AcDbCircle
 10
9215.617
 20
53681.765
 30
0.0
 40
140.0
  0
CIRCLE
  5
E5
100
AcDbEntity
  8
SOLDERMASK_PADS_BTM
100
AcDbCircle
 10
15383.017
 20
51607.232
 30
0.0
 40
140.0
  0
CIRCLE
  5
E6
100
AcDbEntity
  8
SOLDERMASK_PADS_BTM
100
AcDbCircle
 10
11300.0
 20
54417.265
 30
0.0
 40
140.0
  0
CIRCLE
  5
E7
100
AcDbEntity
  8
SOLDERMASK_PADS_BTM
100
AcDbCircle
 10
9609.333
 20
11938.974
 30
0.0
 40
140.0
  0
CIRCLE
  5
E8
100
AcDbEntity
  8
SOLDERMASK_PADS_BTM
100
AcDbCircle
 10
9770.853
 20
15653.934
 30
0.0
 40
140.0
  0
CIRCLE
  5
E9
100
AcDbEntity
  8
SOLDERMASK_PADS_BTM
100
AcDbCircle
 10
9918.913
 20
18453.614
 30
0.0
 40
140.0
  0
CIRCLE
  5
EA
100
AcDbEntity
  8
SOLDERMASK_PADS_BTM
100
AcDbCircle
 10
25581.492
 20
19920.735
 30
0.0
 40
140.0
  0
CIRCLE
  5
EB
100
AcDbEntity
  8
SOLDERMASK_PADS_BTM
100
AcDbCircle
 10
18624.0
 20
41470.0
 30
0.0
 40
140.0
  0
CIRCLE
  5
EC
100
AcDbEntity
  8
SOLDERMASK_PADS_BTM
100
AcDbCircle
 10
23669.0
 20
55190.0
 30
0.0
 40
140.0
  0
CIRCLE
  5
ED
100
AcDbEntity
  8
SOLDERMASK_PADS_BTM
100
AcDbCircle
 10
22619.0
 20
58470.0
 30
0.0
 40
140.0
  0
CIRCLE
  5
EE
100
AcDbEntity
  8
SOLDERMASK_PADS_BTM
100
AcDbCircle
 10
10680.0
 20
38085.559
 30
0.0
 40
140.0
  0
CIRCLE
  5
EF
100
AcDbEntity
  8
SOLDERMASK_PADS_BTM
100
AcDbCircle
 10
10604.021
 20
35592.503
 30
0.0
 40
140.0
  0
CIRCLE
  5
F0
100
AcDbEntity
  8
SOLDERMASK_PADS_BTM
100
AcDbCircle
 10
7654.013
 20
31028.682
 30
0.0
 40
140.0
  0
CIRCLE
  5
F1
100
AcDbEntity
  8
SOLDERMASK_PADS_BTM
100
AcDbCircle
 10
20212.093
 20
21939.754
 30
0.0
 40
140.0
  0
CIRCLE
  5
F2
100
AcDbEntity
  8
SOLDERMASK_PADS_BTM
100
AcDbCircle
 10
18705.322
 20
23818.702
 30
0.0
 40
140.0
  0
CIRCLE
  5
F3
100
AcDbEntity
  8
SOLDERMASK_PADS_BTM
100
AcDbCircle
 10
22417.411
 20
32720.715
 30
0.0
 40
140.0
  0
CIRCLE
  5
F4
100
AcDbEntity
  8
SOLDERMASK_PADS_BTM
100
AcDbCircle
 10
21024.235
 20
32077.755
 30
0.0
 40
140.0
  0
CIRCLE
  5
F5
100
AcDbEntity
  8
SOLDERMASK_PADS_BTM
100
AcDbCircle
 10
14143.479
 20
38821.646
 30
0.0
 40
140.0
  0
CIRCLE
  5
F6
100
AcDbEntity
  8
SOLDERMASK_PADS_BTM
100
AcDbCircle
 10
12567.157
 20
59588.505
 30
0.0
 40
140.0
  0
CIRCLE
  5
F7
100
AcDbEntity
  8
SOLDERMASK_PADS_BTM
100
AcDbCircle
 10
14036.088
 20
63227.978
 30
0.0
 40
140.0
  0
CIRCLE
  5
F8
100
AcDbEntity
  8
SOLDERMASK_PADS_BTM
100
AcDbCircle
 10
15582.197
 20
59601.965
 30
0.0
 40
140.0
  0
CIRCLE
  5
F9
100
AcDbEntity
  8
SOLDERMASK_PADS_BTM
100
AcDbCircle
 10
17168.238
 20
63227.978
 30
0.0
 40
140.0
  0
CIRCLE
  5
FA
100
AcDbEntity
  8
SOLDERMASK_PADS_BTM
100
AcDbCircle
 10
20112.459
 20
63219.029
 30
0.0
 40
140.0
  0
CIRCLE
  5
FB
100
AcDbEntity
  8
SOLDERMASK_PADS_BTM
100
AcDbCircle
 10
7775.951
 20
47749.08
 30
0.0
 40
140.0
  0
CIRCLE
  5
FC
100
AcDbEntity
  8
SOLDERMASK_PADS_BTM
100
AcDbCircle
 10
7782.21
 20
51391.818
 30
0.0
 40
140.0
  0
CIRCLE
  5
FD
100
AcDbEntity
  8
SOLDERMASK_PADS_BTM
100
AcDbCircle
 10
4278.166
 20
51855.031
 30
0.0
 40
140.0
  0
CIRCLE
  5
FE
100
AcDbEntity
  8
SOLDERMASK_PADS_BTM
100
AcDbCircle
 10
11739.82
 20
44768.539
 30
0.0
 40
140.0
  0
CIRCLE
  5
FF
100
AcDbEntity
  8
SOLDERMASK_PADS_BTM
100
AcDbCircle
 10
11083.386
 20
44284.558
 30
0.0
 40
140.0
  0
CIRCLE
  5
100
100
AcDbEntity
  8
SOLDERMASK_PADS_BTM
100
AcDbCircle
 10
11239.15
 20
40418.273
 30
0.0
 40
140.0
  0
CIRCLE
  5
101
100
AcDbEntity
  8
SOLDERMASK_PADS_BTM
100
AcDbCircle
 10
11928.962
 20
41725.578
 30
0.0
 40
140.0
  0
CIRCLE
  5
102
100
AcDbEntity
  8
SOLDERMASK_PADS_BTM
100
AcDbCircle
 10
17711.618
 20
12315.427
 30
0.0
 40
140.0
  0
CIRCLE
  5
103
100
AcDbEntity
  8
SOLDERMASK_PADS_BTM
100
AcDbCircle
 10
25446.897
 20
28947.255
 30
0.0
 40
140.0
  0
CIRCLE
  5
104
100
AcDbEntity
  8
SOLDERMASK_PADS_BTM
100
AcDbCircle
 10
25493.553
 20
36304.818
 30
0.0
 40
140.0
  0
CIRCLE
  5
105
100
AcDbEntity
  8
SOLDERMASK_PADS_BTM
100
AcDbCircle
 10
7188.311
 20
8708.905
 30
0.0
 40
140.0
  0
CIRCLE
  5
106
100
AcDbEntity
  8
SOLDERMASK_PADS_BTM
100
AcDbCircle
 10
7201.0
 20
35451.0
 30
0.0
 40
140.0
  0
CIRCLE
  5
107
100
AcDbEntity
  8
SOLDERMASK_PADS_BTM
100
AcDbCircle
 10
10420.982
 20
40440.189
 30
0.0
 40
140.0
  0
CIRCLE
  5
108
100
AcDbEntity
  8
SOLDERMASK_PADS_BTM
100
AcDbCircle
 10
10066.21
 20
45647.726
 30
0.0
 40
140.0
  0
CIRCLE
  5
109
100
AcDbEntity
  8
SOLDERMASK_PADS_BTM
100
AcDbCircle
 10
20010.733
 20
18157.505
 30
0.0
 40
140.0
  0
CIRCLE
  5
10A
100
AcDbEntity
  8
SOLDERMASK_PADS_BTM
100
AcDbCircle
 10
17806.473
 20
8722.034
 30
0.0
 40
140.0
  0
CIRCLE
  5
10B
100
AcDbEntity
  8
SOLDERMASK_PADS_BTM
100
AcDbCircle
 10
25590.465
 20
19095.219
 30
0.0
 40
140.0
  0
CIRCLE
  5
10C
100
AcDbEntity
  8
SOLDERMASK_PADS_BTM
100
AcDbCircle
 10
21241.998
 20
42552.981
 30
0.0
 40
140.0
  0
CIRCLE
  5
10D
100
AcDbEntity
  8
SOLDERMASK_PADS_BTM
100
AcDbCircle
 10
20141.998
 20
42511.107
 30
0.0
 40
140.0
  0
CIRCLE
  5
10E
100
AcDbEntity
  8
SOLDERMASK_PADS_BTM
100
AcDbCircle
 10
21734.0
 20
14275.0
 30
0.0
 40
140.0
  0
CIRCLE
  5
10F
100
AcDbEntity
  8
SOLDERMASK_PADS_BTM
100
AcDbCircle
 10
20359.0
 20
54720.0
 30
0.0
 40
140.0
  0
CIRCLE
  5
110
100
AcDbEntity
  8
SOLDERMASK_PADS_BTM
100
AcDbCircle
 10
18612.247
 20
40530.935
 30
0.0
 40
140.0
  0
CIRCLE
  5
111
100
AcDbEntity
  8
SOLDERMASK_PADS_BTM
100
AcDbCircle
 10
19041.998
 20
42541.017
 30
0.0
 40
140.0
  0
CIRCLE
  5
112
100
AcDbEntity
  8
SOLDERMASK_PADS_BTM
100
AcDbCircle
 10
18087.997
 20
42546.999
 30
0.0
 40
140.0
  0
CIRCLE
  5
113
100
AcDbEntity
  8
SOLDERMASK_PADS_BTM
100
AcDbCircle
 10
8266.648
 20
33373.532
 30
0.0
 40
140.0
  0
CIRCLE
  5
114
100
AcDbEntity
  8
SOLDERMASK_PADS_BTM
100
AcDbCircle
 10
17335.444
 20
38091.684
 30
0.0
 40
140.0
  0
CIRCLE
  5
115
100
AcDbEntity
  8
SOLDERMASK_PADS_BTM
100
AcDbCircle
 10
13149.867
 20
23325.669
 30
0.0
 40
140.0
  0
CIRCLE
  5
116
100
AcDbEntity
  8
SOLDERMASK_PADS_BTM
100
AcDbCircle
 10
22425.448
 20
33580.674
 30
0.0
 40
140.0
  0
CIRCLE
  5
117
100
AcDbEntity
  8
SOLDERMASK_PADS_BTM
100
AcDbCircle
 10
17905.343
 20
23824.596
 30
0.0
 40
140.0
  0
CIRCLE
  5
118
100
AcDbEntity
  8
SOLDERMASK_PADS_BTM
100
AcDbCircle
 10
7407.332
 20
31828.682
 30
0.0
 40
140.0
  0
CIRCLE
  5
119
100
AcDbEntity
  8
SOLDERMASK_PADS_BTM
100
AcDbCircle
 10
11539.232
 20
38079.421
 30
0.0
 40
140.0
  0
CIRCLE
  5
11A
100
AcDbEntity
  8
SOLDERMASK_PADS_BTM
100
AcDbCircle
 10
19112.093
 20
21980.134
 30
0.0
 40
140.0
  0
CIRCLE
  5
11B
100
AcDbEntity
  8
SOLDERMASK_PADS_BTM
100
AcDbCircle
 10
9044.013
 20
18453.614
 30
0.0
 40
140.0
  0
CIRCLE
  5
11C
100
AcDbEntity
  8
SOLDERMASK_PADS_BTM
100
AcDbCircle
 10
8970.853
 20
15653.934
 30
0.0
 40
140.0
  0
CIRCLE
  5
11D
100
AcDbEntity
  8
SOLDERMASK_PADS_BTM
100
AcDbCircle
 10
8788.273
 20
11938.974
 30
0.0
 40
140.0
  0
CIRCLE
  5
11E
100
AcDbEntity
  8
SOLDERMASK_PADS_BTM
100
AcDbCircle
 10
13195.393
 20
20432.234
 30
0.0
 40
140.0
  0
CIRCLE
  5
11F
100
AcDbEntity
  8
SOLDERMASK_PADS_BTM
100
AcDbCircle
 10
22629.375
 20
27686.165
 30
0.0
 40
140.0
  0
CIRCLE
  5
120
100
AcDbEntity
  8
SOLDERMASK_PADS_BTM
100
AcDbCircle
 10
22626.481
 20
35669.032
 30
0.0
 40
140.0
  0
CIRCLE
  5
121
100
AcDbEntity
  8
SOLDERMASK_PADS_BTM
100
AcDbCircle
 10
18598.336
 20
13908.399
 30
0.0
 40
140.0
  0
CIRCLE
  5
122
100
AcDbEntity
  8
SOLDERMASK_PADS_BTM
100
AcDbCircle
 10
15022.679
 20
12262.072
 30
0.0
 40
140.0
  0
CIRCLE
  5
123
100
AcDbEntity
  8
SOLDERMASK_PADS_BTM
100
AcDbCircle
 10
14944.846
 20
38843.078
 30
0.0
 40
140.0
  0
CIRCLE
  5
124
100
AcDbEntity
  8
SOLDERMASK_PADS_BTM
100
AcDbCircle
 10
18201.617
 20
44921.562
 30
0.0
 40
140.0
  0
CIRCLE
  5
125
100
AcDbEntity
  8
SOLDERMASK_PADS_BTM
100
AcDbCircle
 10
21532.305
 20
45190.032
 30
0.0
 40
140.0
  0
CIRCLE
  5
126
100
AcDbEntity
  8
SOLDERMASK_PADS_BTM
100
AcDbCircle
 10
18774.55
 20
56104.297
 30
0.0
 40
140.0
  0
CIRCLE
  5
127
100
AcDbEntity
  8
SOLDERMASK_PADS_BTM
100
AcDbCircle
 10
18026.615
 20
51402.225
 30
0.0
 40
140.0
  0
CIRCLE
  5
128
100
AcDbEntity
  8
SOLDERMASK_PADS_BTM
100
AcDbCircle
 10
18800.0
 20
51698.345
 30
0.0
 40
140.0
  0
CIRCLE
  5
129
100
AcDbEntity
  8
SOLDERMASK_PADS_BTM
100
AcDbCircle
 10
20204.606
 20
58344.325
 30
0.0
 40
140.0
  0
CIRCLE
  5
12A
100
AcDbEntity
  8
SOLDERMASK_PADS_BTM
100
AcDbCircle
 10
19911.015
 20
52960.0
 30
0.0
 40
140.0
  0
CIRCLE
  5
12B
100
AcDbEntity
  8
SOLDERMASK_PADS_BTM
100
AcDbCircle
 10
21041.655
 20
59556.785
 30
0.0
 40
140.0
  0
CIRCLE
  5
12C
100
AcDbEntity
  8
SOLDERMASK_PADS_BTM
100
AcDbCircle
 10
9323.297
 20
58877.325
 30
0.0
 40
140.0
  0
CIRCLE
  5
12D
100
AcDbEntity
  8
SOLDERMASK_PADS_BTM
100
AcDbCircle
 10
20225.897
 20
59144.325
 30
0.0
 40
140.0
  0
CIRCLE
  5
12E
100
AcDbEntity
  8
SOLDERMASK_PADS_BTM
100
AcDbCircle
 10
9492.233
 20
51278.362
 30
0.0
 40
140.0
  0
CIRCLE
  5
12F
100
AcDbEntity
  8
SOLDERMASK_PADS_BTM
100
AcDbCircle
 10
19580.093
 20
57526.051
 30
0.0
 40
140.0
  0
CIRCLE
  5
130
100
AcDbEntity
  8
SOLDERMASK_PADS_BTM
100
AcDbCircle
 10
13096.319
 20
12711.941
 30
0.0
 40
140.0
  0
CIRCLE
  5
131
100
AcDbEntity
  8
SOLDERMASK_PADS_BTM
100
AcDbCircle
 10
9616.418
 20
35024.47
 30
0.0
 40
140.0
  0
CIRCLE
  5
132
100
AcDbEntity
  8
SOLDERMASK_PADS_BTM
100
AcDbCircle
 10
22346.428
 20
18881.142
 30
0.0
 40
140.0
  0
CIRCLE
  5
133
100
AcDbEntity
  8
SOLDERMASK_PADS_BTM
100
AcDbCircle
 10
9894.183
 20
33357.129
 30
0.0
 40
140.0
  0
CIRCLE
  5
134
100
AcDbEntity
  8
SOLDERMASK_PADS_BTM
100
AcDbCircle
 10
22270.456
 20
20229.645
 30
0.0
 40
140.0
  0
CIRCLE
  5
135
100
AcDbEntity
  8
SOLDERMASK_PADS_BTM
100
AcDbCircle
 10
9706.853
 20
34157.129
 30
0.0
 40
140.0
  0
CIRCLE
  5
136
100
AcDbEntity
  8
SOLDERMASK_PADS_BTM
100
AcDbCircle
 10
21055.0
 20
28472.708
 30
0.0
 40
140.0
  0
CIRCLE
  5
137
100
AcDbEntity
  8
SOLDERMASK_PADS_BTM
100
AcDbCircle
 10
20973.071
 20
23065.463
 30
0.0
 40
140.0
  0
CIRCLE
  5
138
100
AcDbEntity
  8
SOLDERMASK_PADS_BTM
100
AcDbCircle
 10
20526.524
 20
23802.752
 30
0.0
 40
140.0
  0
CIRCLE
  5
139
100
AcDbEntity
  8
SOLDERMASK_PADS_BTM
100
AcDbCircle
 10
20037.558
 20
24641.605
 30
0.0
 40
140.0
  0
CIRCLE
  5
13A
100
AcDbEntity
  8
SOLDERMASK_PADS_BTM
100
AcDbCircle
 10
19428.517
 20
25588.2
 30
0.0
 40
140.0
  0
CIRCLE
  5
13B
100
AcDbEntity
  8
SOLDERMASK_PADS_BTM
100
AcDbCircle
 10
17263.832
 20
24437.821
 30
0.0
 40
140.0
  0
CIRCLE
  5
13C
100
AcDbEntity
  8
SOLDERMASK_PADS_BTM
100
AcDbCircle
 10
16973.074
 20
25569.703
 30
0.0
 40
140.0
  0
CIRCLE
  5
13D
100
AcDbEntity
  8
SOLDERMASK_PADS_BTM
100
AcDbCircle
 10
16441.682
 20
24630.794
 30
0.0
 40
140.0
  0
CIRCLE
  5
13E
100
AcDbEntity
  8
SOLDERMASK_PADS_BTM
100
AcDbCircle
 10
15873.074
 20
25617.823
 30
0.0
 40
140.0
  0
CIRCLE
  5
13F
100
AcDbEntity
  8
SOLDERMASK_PADS_BTM
100
AcDbCircle
 10
15385.935
 20
22195.491
 30
0.0
 40
140.0
  0
CIRCLE
  5
140
100
AcDbEntity
  8
SOLDERMASK_PADS_BTM
100
AcDbCircle
 10
14410.475
 20
22907.977
 30
0.0
 40
140.0
  0
CIRCLE
  5
141
100
AcDbEntity
  8
SOLDERMASK_PADS_BTM
100
AcDbCircle
 10
13827.587
 20
22117.996
 30
0.0
 40
140.0
  0
CIRCLE
  5
142
100
AcDbEntity
  8
SOLDERMASK_PADS_BTM
100
AcDbCircle
 10
13845.0
 20
23968.936
 30
0.0
 40
140.0
  0
CIRCLE
  5
143
100
AcDbEntity
  8
SOLDERMASK_PADS_BTM
100
AcDbCircle
 10
10895.0
 20
25149.69
 30
0.0
 40
140.0
  0
CIRCLE
  5
144
100
AcDbEntity
  8
SOLDERMASK_PADS_BTM
100
AcDbCircle
 10
10023.827
 20
25056.335
 30
0.0
 40
140.0
  0
CIRCLE
  5
145
100
AcDbEntity
  8
SOLDERMASK_PADS_BTM
100
AcDbCircle
 10
10563.706
 20
26271.345
 30
0.0
 40
140.0
  0
CIRCLE
  5
146
100
AcDbEntity
  8
SOLDERMASK_PADS_BTM
100
AcDbCircle
 10
9639.451
 20
26156.335
 30
0.0
 40
140.0
  0
CIRCLE
  5
147
100
AcDbEntity
  8
SOLDERMASK_PADS_BTM
100
AcDbCircle
 10
20563.956
 20
29634.977
 30
0.0
 40
140.0
  0
CIRCLE
  5
148
100
AcDbEntity
  8
SOLDERMASK_PADS_BTM
100
AcDbCircle
 10
11695.0
 20
25084.437
 30
0.0
 40
140.0
  0
CIRCLE
  5
149
100
AcDbEntity
  8
SOLDERMASK_PADS_BTM
100
AcDbCircle
 10
21803.979
 20
29625.0
 30
0.0
 40
140.0
  0
LWPOLYLINE
  5
14A
100
AcDbEntity
  8
SOLDERMASK_PADS_BTM
100
AcDbPolyline
 90
        4
 70
         1
 10
8570.0
 20
61342.0
 10
8570.0
 20
63142.0
 42
-1.0
 10
10070.0
 20
63142.0
 10
10070.0
 20
61342.0
 42
-1.0
  0
LWPOLYLINE
  5
14B
100
AcDbEntity
  8
SOLDERMASK_PADS_BTM
100
AcDbPolyline
 90
        4
 70
         1
 10
23070.0
 20
61342.0
 10
23070.0
 20
63142.0
 42
-1.0
 10
24570.0
 20
63142.0
 10
24570.0
 20
61342.0
 42
-1.0
  0
LWPOLYLINE
  5
14C
100
AcDbEntity
  8
SOLDERMASK_PADS_BTM
100
AcDbPolyline
 90
        4
 70
         1
 10
8570.0
 20
67642.0
 10
8570.0
 20
68842.0
 42
-1.0
 10
10070.0
 20
68842.0
 10
10070.0
 20
67642.0
 42
-1.0
  0
LWPOLYLINE
  5
14D
100
AcDbEntity
  8
SOLDERMASK_PADS_BTM
100
AcDbPolyline
 90
        4
 70
         1
 10
23070.0
 20
67642.0
 10
23070.0
 20
68842.0
 42
-1.0
 10
24570.0
 20
68842.0
 10
24570.0
 20
67642.0
 42
-1.0
  0
CIRCLE
  5
14E
100
AcDbEntity
  8
SOLDERMASK_PADS_BTM
100
AcDbCircle
 10
6700.0
 20
3400.0
 30
0.0
 40
625.0
  0
CIRCLE
  5
14F
100
AcDbEntity
  8
SOLDERMASK_PADS_BTM
100
AcDbCircle
 10
6700.0
 20
5400.0
 30
0.0
 40
625.0
  0
CIRCLE
  5
150
100
AcDbEntity
  8
SOLDERMASK_PADS_BTM
100
AcDbCircle
 10
8700.0
 20
3400.0
 30
0.0
 40
625.0
  0
CIRCLE
  5
151
100
AcDbEntity
  8
SOLDERMASK_PADS_BTM
100
AcDbCircle
 10
8700.0
 20
5400.0
 30
0.0
 40
625.0
  0
CIRCLE
  5
152
100
AcDbEntity
  8
SOLDERMASK_PADS_BTM
100
AcDbCircle
 10
10700.0
 20
3400.0
 30
0.0
 40
625.0
  0
CIRCLE
  5
153
100
AcDbEntity
  8
SOLDERMASK_PADS_BTM
100
AcDbCircle
 10
10700.0
 20
5400.0
 30
0.0
 40
625.0
  0
CIRCLE
  5
154
100
AcDbEntity
  8
SOLDERMASK_PADS_BTM
100
AcDbCircle
 10
12700.0
 20
3400.0
 30
0.0
 40
625.0
  0
CIRCLE
  5
155
100
AcDbEntity
  8
SOLDERMASK_PADS_BTM
100
AcDbCircle
 10
12700.0
 20
5400.0
 30
0.0
 40
625.0
  0
CIRCLE
  5
156
100
AcDbEntity
  8
SOLDERMASK_PADS_BTM
100
AcDbCircle
 10
14700.0
 20
3400.0
 30
0.0
 40
625.0
  0
CIRCLE
  5
157
100
AcDbEntity
  8
SOLDERMASK_PADS_BTM
100
AcDbCircle
 10
14700.0
 20
5400.0
 30
0.0
 40
625.0
  0
CIRCLE
  5
158
100
AcDbEntity
  8
SOLDERMASK_PADS_BTM
100
AcDbCircle
 10
16700.0
 20
3400.0
 30
0.0
 40
625.0
  0
CIRCLE
  5
159
100
AcDbEntity
  8
SOLDERMASK_PADS_BTM
100
AcDbCircle
 10
16700.0
 20
5400.0
 30
0.0
 40
625.0
  0
CIRCLE
  5
15A
100
AcDbEntity
  8
SOLDERMASK_PADS_BTM
100
AcDbCircle
 10
18700.0
 20
3400.0
 30
0.0
 40
625.0
  0
CIRCLE
  5
15B
100
AcDbEntity
  8
SOLDERMASK_PADS_BTM
100
AcDbCircle
 10
18700.0
 20
5400.0
 30
0.0
 40
625.0
  0
CIRCLE
  5
15C
100
AcDbEntity
  8
SOLDERMASK_PADS_BTM
100
AcDbCircle
 10
20700.0
 20
3400.0
 30
0.0
 40
625.0
  0
CIRCLE
  5
15D
100
AcDbEntity
  8
SOLDERMASK_PADS_BTM
100
AcDbCircle
 10
20700.0
 20
5400.0
 30
0.0
 40
625.0
  0
CIRCLE
  5
15E
100
AcDbEntity
  8
SOLDERMASK_PADS_BTM
100
AcDbCircle
 10
3000.0
 20
69000.0
 30
0.0
 40
2000.0
  0
CIRCLE
  5
15F
100
AcDbEntity
  8
SOLDERMASK_PADS_BTM
100
AcDbCircle
 10
24000.0
 20
45000.0
 30
0.0
 40
2000.0
  0
CIRCLE
  5
160
100
AcDbEntity
  8
SOLDERMASK_PADS_BTM
100
AcDbCircle
 10
24000.0
 20
3000.0
 30
0.0
 40
2000.0
  0
CIRCLE
  5
161
100
AcDbEntity
  8
SOLDERMASK_PADS_BTM
100
AcDbCircle
 10
2800.0
 20
3000.0
 30
0.0
 40
2000.0
  0
CIRCLE
  5
162
100
AcDbEntity
  8
SOLDERMASK_PADS_BTM
100
AcDbCircle
 10
5500.0
 20
11930.0
 30
0.0
 40
625.0
  0
CIRCLE
  5
163
100
AcDbEntity
  8
SOLDERMASK_PADS_BTM
100
AcDbCircle
 10
3500.0
 20
11930.0
 30
0.0
 40
625.0
  0
CIRCLE
  5
164
100
AcDbEntity
  8
SOLDERMASK_PADS_BTM
100
AcDbCircle
 10
5500.0
 20
13930.0
 30
0.0
 40
625.0
  0
CIRCLE
  5
165
100
AcDbEntity
  8
SOLDERMASK_PADS_BTM
100
AcDbCircle
 10
3500.0
 20
13930.0
 30
0.0
 40
625.0
  0
CIRCLE
  5
166
100
AcDbEntity
  8
SOLDERMASK_PADS_BTM
100
AcDbCircle
 10
5500.0
 20
15930.0
 30
0.0
 40
625.0
  0
CIRCLE
  5
167
100
AcDbEntity
  8
SOLDERMASK_PADS_BTM
100
AcDbCircle
 10
3500.0
 20
15930.0
 30
0.0
 40
625.0
  0
CIRCLE
  5
168
100
AcDbEntity
  8
SOLDERMASK_PADS_BTM
100
AcDbCircle
 10
5500.0
 20
17930.0
 30
0.0
 40
625.0
  0
CIRCLE
  5
169
100
AcDbEntity
  8
SOLDERMASK_PADS_BTM
100
AcDbCircle
 10
3500.0
 20
17930.0
 30
0.0
 40
625.0
  0
CIRCLE
  5
16A
100
AcDbEntity
  8
SOLDERMASK_PADS_BTM
100
AcDbCircle
 10
5500.0
 20
19930.0
 30
0.0
 40
625.0
  0
CIRCLE
  5
16B
100
AcDbEntity
  8
SOLDERMASK_PADS_BTM
100
AcDbCircle
 10
3500.0
 20
19930.0
 30
0.0
 40
625.0
  0
CIRCLE
  5
16C
100
AcDbEntity
  8
SOLDERMASK_PADS_BTM
100
AcDbCircle
 10
5500.0
 20
21930.0
 30
0.0
 40
625.0
  0
CIRCLE
  5
16D
100
AcDbEntity
  8
SOLDERMASK_PADS_BTM
100
AcDbCircle
 10
3500.0
 20
21930.0
 30
0.0
 40
625.0
  0
CIRCLE
  5
16E
100
AcDbEntity
  8
SOLDERMASK_PADS_BTM
100
AcDbCircle
 10
5500.0
 20
23930.0
 30
0.0
 40
625.0
  0
CIRCLE
  5
16F
100
AcDbEntity
  8
SOLDERMASK_PADS_BTM
100
AcDbCircle
 10
3500.0
 20
23930.0
 30
0.0
 40
625.0
  0
CIRCLE
  5
170
100
AcDbEntity
  8
SOLDERMASK_PADS_BTM
100
AcDbCircle
 10
5500.0
 20
25930.0
 30
0.0
 40
625.0
  0
CIRCLE
  5
171
100
AcDbEntity
  8
SOLDERMASK_PADS_BTM
100
AcDbCircle
 10
3500.0
 20
25930.0
 30
0.0
 40
625.0
  0
CIRCLE
  5
172
100
AcDbEntity
  8
SOLDERMASK_PADS_BTM
100
AcDbCircle
 10
5500.0
 20
27930.0
 30
0.0
 40
625.0
  0
CIRCLE
  5
173
100
AcDbEntity
  8
SOLDERMASK_PADS_BTM
100
AcDbCircle
 10
3500.0
 20
27930.0
 30
0.0
 40
625.0
  0
CIRCLE
  5
174
100
AcDbEntity
  8
SOLDERMASK_PADS_BTM
100
AcDbCircle
 10
5500.0
 20
29930.0
 30
0.0
 40
625.0
  0
CIRCLE
  5
175
100
AcDbEntity
  8
SOLDERMASK_PADS_BTM
100
AcDbCircle
 10
3500.0
 20
29930.0
 30
0.0
 40
625.0
  0
CIRCLE
  5
176
100
AcDbEntity
  8
SOLDERMASK_PADS_BTM
100
AcDbCircle
 10
5500.0
 20
31930.0
 30
0.0
 40
625.0
  0
CIRCLE
  5
177
100
AcDbEntity
  8
SOLDERMASK_PADS_BTM
100
AcDbCircle
 10
3500.0
 20
31930.0
 30
0.0
 40
625.0
  0
CIRCLE
  5
178
100
AcDbEntity
  8
SOLDERMASK_PADS_BTM
100
AcDbCircle
 10
5500.0
 20
33930.0
 30
0.0
 40
625.0
  0
CIRCLE
  5
179
100
AcDbEntity
  8
SOLDERMASK_PADS_BTM
100
AcDbCircle
 10
3500.0
 20
33930.0
 30
0.0
 40
625.0
  0
CIRCLE
  5
17A
100
AcDbEntity
  8
SOLDERMASK_PADS_BTM
100
AcDbCircle
 10
5500.0
 20
35930.0
 30
0.0
 40
625.0
  0
CIRCLE
  5
17B
100
AcDbEntity
  8
SOLDERMASK_PADS_BTM
100
AcDbCircle
 10
3500.0
 20
35930.0
 30
0.0
 40
625.0
  0
CIRCLE
  5
17C
100
AcDbEntity
  8
SOLDERMASK_PADS_BTM
100
AcDbCircle
 10
5500.0
 20
37930.0
 30
0.0
 40
625.0
  0
CIRCLE
  5
17D
100
AcDbEntity
  8
SOLDERMASK_PADS_BTM
100
AcDbCircle
 10
3500.0
 20
37930.0
 30
0.0
 40
625.0
  0
CIRCLE
  5
17E
100
AcDbEntity
  8
SOLDERMASK_PADS_BTM
100
AcDbCircle
 10
5500.0
 20
39930.0
 30
0.0
 40
625.0
  0
CIRCLE
  5
17F
100
AcDbEntity
  8
SOLDERMASK_PADS_BTM
100
AcDbCircle
 10
3500.0
 20
39930.0
 30
0.0
 40
625.0
  0
CIRCLE
  5
180
100
AcDbEntity
  8
SOLDERMASK_PADS_BTM
100
AcDbCircle
 10
5500.0
 20
41930.0
 30
0.0
 40
625.0
  0
CIRCLE
  5
181
100
AcDbEntity
  8
SOLDERMASK_PADS_BTM
100
AcDbCircle
 10
3500.0
 20
41930.0
 30
0.0
 40
625.0
  0
CIRCLE
  5
182
100
AcDbEntity
  8
SOLDERMASK_PADS_BTM
100
AcDbCircle
 10
5500.0
 20
43930.0
 30
0.0
 40
625.0
  0
CIRCLE
  5
183
100
AcDbEntity
  8
SOLDERMASK_PADS_BTM
100
AcDbCircle
 10
3500.0
 20
43930.0
 30
0.0
 40
625.0
  0
CIRCLE
  5
184
100
AcDbEntity
  8
SOLDERMASK_PADS_BTM
100
AcDbCircle
 10
5500.0
 20
45930.0
 30
0.0
 40
625.0
  0
CIRCLE
  5
185
100
AcDbEntity
  8
SOLDERMASK_PADS_BTM
100
AcDbCircle
 10
3500.0
 20
45930.0
 30
0.0
 40
625.0
  0
CIRCLE
  5
186
100
AcDbEntity
  8
SOLDERMASK_PADS_BTM
100
AcDbCircle
 10
5500.0
 20
47930.0
 30
0.0
 40
625.0
  0
CIRCLE
  5
187
100
AcDbEntity
  8
SOLDERMASK_PADS_BTM
100
AcDbCircle
 10
3500.0
 20
47930.0
 30
0.0
 40
625.0
  0
CIRCLE
  5
188
100
AcDbEntity
  8
SOLDERMASK_PADS_BTM
100
AcDbCircle
 10
5500.0
 20
49930.0
 30
0.0
 40
625.0
  0
CIRCLE
  5
189
100
AcDbEntity
  8
SOLDERMASK_PADS_BTM
100
AcDbCircle
 10
3500.0
 20
49930.0
 30
0.0
 40
625.0
  0
CIRCLE
  5
18A
100
AcDbEntity
  8
SOLDERMASK_PADS_TOP
100
AcDbCircle
 10
2700.0
 20
7400.0
 30
0.0
 40
800.0
  0
LWPOLYLINE
  5
18B
100
AcDbEntity
  8
SOLDERMASK_PADS_TOP
100
AcDbPolyline
 90
        4
 70
         1
 10
24200.0
 20
57000.0
 10
24200.0
 20
58600.0
 10
25800.0
 20
58600.0
 10
25800.0
 20
57000.0
  0
CIRCLE
  5
18C
100
AcDbEntity
  8
SOLDERMASK_PADS_TOP
100
AcDbCircle
 10
5409.624
 20
60948.885
 30
0.0
 40
140.0
  0
CIRCLE
  5
18D
100
AcDbEntity
  8
SOLDERMASK_PADS_TOP
100
AcDbCircle
 10
18135.444
 20
38165.415
 30
0.0
 40
140.0
  0
CIRCLE
  5
18E
100
AcDbEntity
  8
SOLDERMASK_PADS_TOP
100
AcDbCircle
 10
12171.883
 20
23342.245
 30
0.0
 40
140.0
  0
CIRCLE
  5
18F
100
AcDbEntity
  8
SOLDERMASK_PADS_TOP
100
AcDbCircle
 10
21633.988
 20
15864.246
 30
0.0
 40
140.0
  0
CIRCLE
  5
190
100
AcDbEntity
  8
SOLDERMASK_PADS_TOP
100
AcDbCircle
 10
14197.163
 20
12262.072
 30
0.0
 40
140.0
  0
CIRCLE
  5
191
100
AcDbEntity
  8
SOLDERMASK_PADS_TOP
100
AcDbCircle
 10
18635.837
 20
12324.4
 30
0.0
 40
140.0
  0
CIRCLE
  5
192
100
AcDbEntity
  8
SOLDERMASK_PADS_TOP
100
AcDbCircle
 10
18681.473
 20
8695.114
 30
0.0
 40
140.0
  0
CIRCLE
  5
193
100
AcDbEntity
  8
SOLDERMASK_PADS_TOP
100
AcDbCircle
 10
25446.897
 20
29916.339
 30
0.0
 40
140.0
  0
CIRCLE
  5
194
100
AcDbEntity
  8
SOLDERMASK_PADS_TOP
100
AcDbCircle
 10
25550.382
 20
37190.154
 30
0.0
 40
140.0
  0
CIRCLE
  5
195
100
AcDbEntity
  8
SOLDERMASK_PADS_TOP
100
AcDbCircle
 10
22622.25
 20
36469.032
 30
0.0
 40
140.0
  0
CIRCLE
  5
196
100
AcDbEntity
  8
SOLDERMASK_PADS_TOP
100
AcDbCircle
 10
22684.0
 20
28550.0
 30
0.0
 40
140.0
  0
CIRCLE
  5
197
100
AcDbEntity
  8
SOLDERMASK_PADS_TOP
100
AcDbCircle
 10
14050.951
 20
20451.576
 30
0.0
 40
140.0
  0
CIRCLE
  5
198
100
AcDbEntity
  8
SOLDERMASK_PADS_TOP
100
AcDbCircle
 10
7988.311
 20
8695.114
 30
0.0
 40
140.0
  0
CIRCLE
  5
199
100
AcDbEntity
  8
SOLDERMASK_PADS_TOP
100
AcDbCircle
 10
3183.904
 20
59874.059
 30
0.0
 40
140.0
  0
CIRCLE
  5
19A
100
AcDbEntity
  8
SOLDERMASK_PADS_TOP
100
AcDbCircle
 10
8053.982
 20
37197.578
 30
0.0
 40
140.0
  0
CIRCLE
  5
19B
100
AcDbEntity
  8
SOLDERMASK_PADS_TOP
100
AcDbCircle
 10
20885.231
 20
27672.708
 30
0.0
 40
140.0
  0
CIRCLE
  5
19C
100
AcDbEntity
  8
SOLDERMASK_PADS_TOP
100
AcDbCircle
 10
19143.32
 20
38532.575
 30
0.0
 40
140.0
  0
CIRCLE
  5
19D
100
AcDbEntity
  8
SOLDERMASK_PADS_TOP
100
AcDbCircle
 10
11120.902
 20
48220.069
 30
0.0
 40
140.0
  0
CIRCLE
  5
19E
100
AcDbEntity
  8
SOLDERMASK_PADS_TOP
100
AcDbCircle
 10
13800.0
 20
48219.308
 30
0.0
 40
140.0
  0
CIRCLE
  5
19F
100
AcDbEntity
  8
SOLDERMASK_PADS_TOP
100
AcDbCircle
 10
12300.0
 20
48420.227
 30
0.0
 40
140.0
  0
CIRCLE
  5
1A0
100
AcDbEntity
  8
SOLDERMASK_PADS_TOP
100
AcDbCircle
 10
15300.0
 20
48434.668
 30
0.0
 40
140.0
  0
CIRCLE
  5
1A1
100
AcDbEntity
  8
SOLDERMASK_PADS_TOP
100
AcDbCircle
 10
16800.0
 20
48340.448
 30
0.0
 40
140.0
  0
CIRCLE
  5
1A2
100
AcDbEntity
  8
SOLDERMASK_PADS_TOP
100
AcDbCircle
 10
12318.742
 20
51791.95
 30
0.0
 40
140.0
  0
CIRCLE
  5
1A3
100
AcDbEntity
  8
SOLDERMASK_PADS_TOP
100
AcDbCircle
 10
16792.775
 20
54133.63
 30
0.0
 40
140.0
  0
CIRCLE
  5
1A4
100
AcDbEntity
  8
SOLDERMASK_PADS_TOP
100
AcDbCircle
 10
13845.643
 20
54181.486
 30
0.0
 40
140.0
  0
CIRCLE
  5
1A5
100
AcDbEntity
  8
SOLDERMASK_PADS_TOP
100
AcDbCircle
 10
9955.917
 20
56575.665
 30
0.0
 40
140.0
  0
CIRCLE
  5
1A6
100
AcDbEntity
  8
SOLDERMASK_PADS_TOP
100
AcDbCircle
 10
9215.617
 20
53681.765
 30
0.0
 40
140.0
  0
CIRCLE
  5
1A7
100
AcDbEntity
  8
SOLDERMASK_PADS_TOP
100
AcDbCircle
 10
15383.017
 20
51607.232
 30
0.0
 40
140.0
  0
CIRCLE
  5
1A8
100
AcDbEntity
  8
SOLDERMASK_PADS_TOP
100
AcDbCircle
 10
11300.0
 20
54417.265
 30
0.0
 40
140.0
  0
CIRCLE
  5
1A9
100
AcDbEntity
  8
SOLDERMASK_PADS_TOP
100
AcDbCircle
 10
9609.333
 20
11938.974
 30
0.0
 40
140.0
  0
CIRCLE
  5
1AA
100
AcDbEntity
  8
SOLDERMASK_PADS_TOP
100
AcDbCircle
 10
9770.853
 20
15653.934
 30
0.0
 40
140.0
  0
CIRCLE
  5
1AB
100
AcDbEntity
  8
SOLDERMASK_PADS_TOP
100
AcDbCircle
 10
9918.913
 20
18453.614
 30
0.0
 40
140.0
  0
CIRCLE
  5
1AC
100
AcDbEntity
  8
SOLDERMASK_PADS_TOP
100
AcDbCircle
 10
25581.492
 20
19920.735
 30
0.0
 40
140.0
  0
CIRCLE
  5
1AD
100
AcDbEntity
  8
SOLDERMASK_PADS_TOP
100
AcDbCircle
 10
18624.0
 20
41470.0
 30
0.0
 40
140.0
  0
CIRCLE
  5
1AE
100
AcDbEntity
  8
SOLDERMASK_PADS_TOP
100
AcDbCircle
 10
23669.0
 20
55190.0
 30
0.0
 40
140.0
  0
CIRCLE
  5
1AF
100
AcDbEntity
  8
SOLDERMASK_PADS_TOP
100
AcDbCircle
 10
22619.0
 20
58470.0
 30
0.0
 40
140.0
  0
CIRCLE
  5
1B0
100
AcDbEntity
  8
SOLDERMASK_PADS_TOP
100
AcDbCircle
 10
10680.0
 20
38085.559
 30
0.0
 40
140.0
  0
CIRCLE
  5
1B1
100
AcDbEntity
  8
SOLDERMASK_PADS_TOP
100
AcDbCircle
 10
10604.021
 20
35592.503
 30
0.0
 40
140.0
  0
CIRCLE
  5
1B2
100
AcDbEntity
  8
SOLDERMASK_PADS_TOP
100
AcDbCircle
 10
7654.013
 20
31028.682
 30
0.0
 40
140.0
  0
CIRCLE
  5
1B3
100
AcDbEntity
  8
SOLDERMASK_PADS_TOP
100
AcDbCircle
 10
20212.093
 20
21939.754
 30
0.0
 40
140.0
  0
CIRCLE
  5
1B4
100
AcDbEntity
  8
SOLDERMASK_PADS_TOP
100
AcDbCircle
 10
18705.322
 20
23818.702
 30
0.0
 40
140.0
  0
CIRCLE
  5
1B5
100
AcDbEntity
  8
SOLDERMASK_PADS_TOP
100
AcDbCircle
 10
22417.411
 20
32720.715
 30
0.0
 40
140.0
  0
CIRCLE
  5
1B6
100
AcDbEntity
  8
SOLDERMASK_PADS_TOP
100
AcDbCircle
 10
21024.235
 20
32077.755
 30
0.0
 40
140.0
  0
CIRCLE
  5
1B7
100
AcDbEntity
  8
SOLDERMASK_PADS_TOP
100
AcDbCircle
 10
14143.479
 20
38821.646
 30
0.0
 40
140.0
  0
CIRCLE
  5
1B8
100
AcDbEntity
  8
SOLDERMASK_PADS_TOP
100
AcDbCircle
 10
12567.157
 20
59588.505
 30
0.0
 40
140.0
  0
CIRCLE
  5
1B9
100
AcDbEntity
  8
SOLDERMASK_PADS_TOP
100
AcDbCircle
 10
14036.088
 20
63227.978
 30
0.0
 40
140.0
  0
CIRCLE
  5
1BA
100
AcDbEntity
  8
SOLDERMASK_PADS_TOP
100
AcDbCircle
 10
15582.197
 20
59601.965
 30
0.0
 40
140.0
  0
CIRCLE
  5
1BB
100
AcDbEntity
  8
SOLDERMASK_PADS_TOP
100
AcDbCircle
 10
17168.238
 20
63227.978
 30
0.0
 40
140.0
  0
CIRCLE
  5
1BC
100
AcDbEntity
  8
SOLDERMASK_PADS_TOP
100
AcDbCircle
 10
20112.459
 20
63219.029
 30
0.0
 40
140.0
  0
CIRCLE
  5
1BD
100
AcDbEntity
  8
SOLDERMASK_PADS_TOP
100
AcDbCircle
 10
7775.951
 20
47749.08
 30
0.0
 40
140.0
  0
CIRCLE
  5
1BE
100
AcDbEntity
  8
SOLDERMASK_PADS_TOP
100
AcDbCircle
 10
7782.21
 20
51391.818
 30
0.0
 40
140.0
  0
CIRCLE
  5
1BF
100
AcDbEntity
  8
SOLDERMASK_PADS_TOP
100
AcDbCircle
 10
4278.166
 20
51855.031
 30
0.0
 40
140.0
  0
CIRCLE
  5
1C0
100
AcDbEntity
  8
SOLDERMASK_PADS_TOP
100
AcDbCircle
 10
11739.82
 20
44768.539
 30
0.0
 40
140.0
  0
CIRCLE
  5
1C1
100
AcDbEntity
  8
SOLDERMASK_PADS_TOP
100
AcDbCircle
 10
11083.386
 20
44284.558
 30
0.0
 40
140.0
  0
CIRCLE
  5
1C2
100
AcDbEntity
  8
SOLDERMASK_PADS_TOP
100
AcDbCircle
 10
11239.15
 20
40418.273
 30
0.0
 40
140.0
  0
CIRCLE
  5
1C3
100
AcDbEntity
  8
SOLDERMASK_PADS_TOP
100
AcDbCircle
 10
11928.962
 20
41725.578
 30
0.0
 40
140.0
  0
CIRCLE
  5
1C4
100
AcDbEntity
  8
SOLDERMASK_PADS_TOP
100
AcDbCircle
 10
17711.618
 20
12315.427
 30
0.0
 40
140.0
  0
CIRCLE
  5
1C5
100
AcDbEntity
  8
SOLDERMASK_PADS_TOP
100
AcDbCircle
 10
25446.897
 20
28947.255
 30
0.0
 40
140.0
  0
CIRCLE
  5
1C6
100
AcDbEntity
  8
SOLDERMASK_PADS_TOP
100
AcDbCircle
 10
25493.553
 20
36304.818
 30
0.0
 40
140.0
  0
CIRCLE
  5
1C7
100
AcDbEntity
  8
SOLDERMASK_PADS_TOP
100
AcDbCircle
 10
7188.311
 20
8708.905
 30
0.0
 40
140.0
  0
CIRCLE
  5
1C8
100
AcDbEntity
  8
SOLDERMASK_PADS_TOP
100
AcDbCircle
 10
7201.0
 20
35451.0
 30
0.0
 40
140.0
  0
CIRCLE
  5
1C9
100
AcDbEntity
  8
SOLDERMASK_PADS_TOP
100
AcDbCircle
 10
10420.982
 20
40440.189
 30
0.0
 40
140.0
  0
CIRCLE
  5
1CA
100
AcDbEntity
  8
SOLDERMASK_PADS_TOP
100
AcDbCircle
 10
10066.21
 20
45647.726
 30
0.0
 40
140.0
  0
CIRCLE
  5
1CB
100
AcDbEntity
  8
SOLDERMASK_PADS_TOP
100
AcDbCircle
 10
20010.733
 20
18157.505
 30
0.0
 40
140.0
  0
CIRCLE
  5
1CC
100
AcDbEntity
  8
SOLDERMASK_PADS_TOP
100
AcDbCircle
 10
17806.473
 20
8722.034
 30
0.0
 40
140.0
  0
CIRCLE
  5
1CD
100
AcDbEntity
  8
SOLDERMASK_PADS_TOP
100
AcDbCircle
 10
25590.465
 20
19095.219
 30
0.0
 40
140.0
  0
CIRCLE
  5
1CE
100
AcDbEntity
  8
SOLDERMASK_PADS_TOP
100
AcDbCircle
 10
21241.998
 20
42552.981
 30
0.0
 40
140.0
  0
CIRCLE
  5
1CF
100
AcDbEntity
  8
SOLDERMASK_PADS_TOP
100
AcDbCircle
 10
20141.998
 20
42511.107
 30
0.0
 40
140.0
  0
CIRCLE
  5
1D0
100
AcDbEntity
  8
SOLDERMASK_PADS_TOP
100
AcDbCircle
 10
21734.0
 20
14275.0
 30
0.0
 40
140.0
  0
CIRCLE
  5
1D1
100
AcDbEntity
  8
SOLDERMASK_PADS_TOP
100
AcDbCircle
 10
20359.0
 20
54720.0
 30
0.0
 40
140.0
  0
CIRCLE
  5
1D2
100
AcDbEntity
  8
SOLDERMASK_PADS_TOP
100
AcDbCircle
 10
18612.247
 20
40530.935
 30
0.0
 40
140.0
  0
CIRCLE
  5
1D3
100
AcDbEntity
  8
SOLDERMASK_PADS_TOP
100
AcDbCircle
 10
19041.998
 20
42541.017
 30
0.0
 40
140.0
  0
CIRCLE
  5
1D4
100
AcDbEntity
  8
SOLDERMASK_PADS_TOP
100
AcDbCircle
 10
18087.997
 20
42546.999
 30
0.0
 40
140.0
  0
CIRCLE
  5
1D5
100
AcDbEntity
  8
SOLDERMASK_PADS_TOP
100
AcDbCircle
 10
8266.648
 20
33373.532
 30
0.0
 40
140.0
  0
CIRCLE
  5
1D6
100
AcDbEntity
  8
SOLDERMASK_PADS_TOP
100
AcDbCircle
 10
17335.444
 20
38091.684
 30
0.0
 40
140.0
  0
CIRCLE
  5
1D7
100
AcDbEntity
  8
SOLDERMASK_PADS_TOP
100
AcDbCircle
 10
13149.867
 20
23325.669
 30
0.0
 40
140.0
  0
CIRCLE
  5
1D8
100
AcDbEntity
  8
SOLDERMASK_PADS_TOP
100
AcDbCircle
 10
22425.448
 20
33580.674
 30
0.0
 40
140.0
  0
CIRCLE
  5
1D9
100
AcDbEntity
  8
SOLDERMASK_PADS_TOP
100
AcDbCircle
 10
17905.343
 20
23824.596
 30
0.0
 40
140.0
  0
CIRCLE
  5
1DA
100
AcDbEntity
  8
SOLDERMASK_PADS_TOP
100
AcDbCircle
 10
7407.332
 20
31828.682
 30
0.0
 40
140.0
  0
CIRCLE
  5
1DB
100
AcDbEntity
  8
SOLDERMASK_PADS_TOP
100
AcDbCircle
 10
11539.232
 20
38079.421
 30
0.0
 40
140.0
  0
CIRCLE
  5
1DC
100
AcDbEntity
  8
SOLDERMASK_PADS_TOP
100
AcDbCircle
 10
19112.093
 20
21980.134
 30
0.0
 40
140.0
  0
CIRCLE
  5
1DD
100
AcDbEntity
  8
SOLDERMASK_PADS_TOP
100
AcDbCircle
 10
9044.013
 20
18453.614
 30
0.0
 40
140.0
  0
CIRCLE
  5
1DE
100
AcDbEntity
  8
SOLDERMASK_PADS_TOP
100
AcDbCircle
 10
8970.853
 20
15653.934
 30
0.0
 40
140.0
  0
CIRCLE
  5
1DF
100
AcDbEntity
  8
SOLDERMASK_PADS_TOP
100
AcDbCircle
 10
8788.273
 20
11938.974
 30
0.0
 40
140.0
  0
CIRCLE
  5
1E0
100
AcDbEntity
  8
SOLDERMASK_PADS_TOP
100
AcDbCircle
 10
13195.393
 20
20432.234
 30
0.0
 40
140.0
  0
CIRCLE
  5
1E1
100
AcDbEntity
  8
SOLDERMASK_PADS_TOP
100
AcDbCircle
 10
22629.375
 20
27686.165
 30
0.0
 40
140.0
  0
CIRCLE
  5
1E2
100
AcDbEntity
  8
SOLDERMASK_PADS_TOP
100
AcDbCircle
 10
22626.481
 20
35669.032
 30
0.0
 40
140.0
  0
CIRCLE
  5
1E3
100
AcDbEntity
  8
SOLDERMASK_PADS_TOP
100
AcDbCircle
 10
18598.336
 20
13908.399
 30
0.0
 40
140.0
  0
CIRCLE
  5
1E4
100
AcDbEntity
  8
SOLDERMASK_PADS_TOP
100
AcDbCircle
 10
15022.679
 20
12262.072
 30
0.0
 40
140.0
  0
CIRCLE
  5
1E5
100
AcDbEntity
  8
SOLDERMASK_PADS_TOP
100
AcDbCircle
 10
14944.846
 20
38843.078
 30
0.0
 40
140.0
  0
CIRCLE
  5
1E6
100
AcDbEntity
  8
SOLDERMASK_PADS_TOP
100
AcDbCircle
 10
18201.617
 20
44921.562
 30
0.0
 40
140.0
  0
CIRCLE
  5
1E7
100
AcDbEntity
  8
SOLDERMASK_PADS_TOP
100
AcDbCircle
 10
21532.305
 20
45190.032
 30
0.0
 40
140.0
  0
CIRCLE
  5
1E8
100
AcDbEntity
  8
SOLDERMASK_PADS_TOP
100
AcDbCircle
 10
18774.55
 20
56104.297
 30
0.0
 40
140.0
  0
CIRCLE
  5
1E9
100
AcDbEntity
  8
SOLDERMASK_PADS_TOP
100
AcDbCircle
 10
18026.615
 20
51402.225
 30
0.0
 40
140.0
  0
CIRCLE
  5
1EA
100
AcDbEntity
  8
SOLDERMASK_PADS_TOP
100
AcDbCircle
 10
18800.0
 20
51698.345
 30
0.0
 40
140.0
  0
CIRCLE
  5
1EB
100
AcDbEntity
  8
SOLDERMASK_PADS_TOP
100
AcDbCircle
 10
20204.606
 20
58344.325
 30
0.0
 40
140.0
  0
CIRCLE
  5
1EC
100
AcDbEntity
  8
SOLDERMASK_PADS_TOP
100
AcDbCircle
 10
19911.015
 20
52960.0
 30
0.0
 40
140.0
  0
CIRCLE
  5
1ED
100
AcDbEntity
  8
SOLDERMASK_PADS_TOP
100
AcDbCircle
 10
21041.655
 20
59556.785
 30
0.0
 40
140.0
  0
CIRCLE
  5
1EE
100
AcDbEntity
  8
SOLDERMASK_PADS_TOP
100
AcDbCircle
 10
9323.297
 20
58877.325
 30
0.0
 40
140.0
  0
CIRCLE
  5
1EF
100
AcDbEntity
  8
SOLDERMASK_PADS_TOP
100
AcDbCircle
 10
20225.897
 20
59144.325
 30
0.0
 40
140.0
  0
CIRCLE
  5
1F0
100
AcDbEntity
  8
SOLDERMASK_PADS_TOP
100
AcDbCircle
 10
9492.233
 20
51278.362
 30
0.0
 40
140.0
  0
CIRCLE
  5
1F1
100
AcDbEntity
  8
SOLDERMASK_PADS_TOP
100
AcDbCircle
 10
19580.093
 20
57526.051
 30
0.0
 40
140.0
  0
CIRCLE
  5
1F2
100
AcDbEntity
  8
SOLDERMASK_PADS_TOP
100
AcDbCircle
 10
13096.319
 20
12711.941
 30
0.0
 40
140.0
  0
CIRCLE
  5
1F3
100
AcDbEntity
  8
SOLDERMASK_PADS_TOP
100
AcDbCircle
 10
9616.418
 20
35024.47
 30
0.0
 40
140.0
  0
CIRCLE
  5
1F4
100
AcDbEntity
  8
SOLDERMASK_PADS_TOP
100
AcDbCircle
 10
22346.428
 20
18881.142
 30
0.0
 40
140.0
  0
CIRCLE
  5
1F5
100
AcDbEntity
  8
SOLDERMASK_PADS_TOP
100
AcDbCircle
 10
9894.183
 20
33357.129
 30
0.0
 40
140.0
  0
CIRCLE
  5
1F6
100
AcDbEntity
  8
SOLDERMASK_PADS_TOP
100
AcDbCircle
 10
22270.456
 20
20229.645
 30
0.0
 40
140.0
  0
CIRCLE
  5
1F7
100
AcDbEntity
  8
SOLDERMASK_PADS_TOP
100
AcDbCircle
 10
9706.853
 20
34157.129
 30
0.0
 40
140.0
  0
CIRCLE
  5
1F8
100
AcDbEntity
  8
SOLDERMASK_PADS_TOP
100
AcDbCircle
 10
21055.0
 20
28472.708
 30
0.0
 40
140.0
  0
CIRCLE
  5
1F9
100
AcDbEntity
  8
SOLDERMASK_PADS_TOP
100
AcDbCircle
 10
20973.071
 20
23065.463
 30
0.0
 40
140.0
  0
CIRCLE
  5
1FA
100
AcDbEntity
  8
SOLDERMASK_PADS_TOP
100
AcDbCircle
 10
20526.524
 20
23802.752
 30
0.0
 40
140.0
  0
CIRCLE
  5
1FB
100
AcDbEntity
  8
SOLDERMASK_PADS_TOP
100
AcDbCircle
 10
20037.558
 20
24641.605
 30
0.0
 40
140.0
  0
CIRCLE
  5
1FC
100
AcDbEntity
  8
SOLDERMASK_PADS_TOP
100
AcDbCircle
 10
19428.517
 20
25588.2
 30
0.0
 40
140.0
  0
CIRCLE
  5
1FD
100
AcDbEntity
  8
SOLDERMASK_PADS_TOP
100
AcDbCircle
 10
17263.832
 20
24437.821
 30
0.0
 40
140.0
  0
CIRCLE
  5
1FE
100
AcDbEntity
  8
SOLDERMASK_PADS_TOP
100
AcDbCircle
 10
16973.074
 20
25569.703
 30
0.0
 40
140.0
  0
CIRCLE
  5
1FF
100
AcDbEntity
  8
SOLDERMASK_PADS_TOP
100
AcDbCircle
 10
16441.682
 20
24630.794
 30
0.0
 40
140.0
  0
CIRCLE
  5
200
100
AcDbEntity
  8
SOLDERMASK_PADS_TOP
100
AcDbCircle
 10
15873.074
 20
25617.823
 30
0.0
 40
140.0
  0
CIRCLE
  5
201
100
AcDbEntity
  8
SOLDERMASK_PADS_TOP
100
AcDbCircle
 10
15385.935
 20
22195.491
 30
0.0
 40
140.0
  0
CIRCLE
  5
202
100
AcDbEntity
  8
SOLDERMASK_PADS_TOP
100
AcDbCircle
 10
14410.475
 20
22907.977
 30
0.0
 40
140.0
  0
CIRCLE
  5
203
100
AcDbEntity
  8
SOLDERMASK_PADS_TOP
100
AcDbCircle
 10
13827.587
 20
22117.996
 30
0.0
 40
140.0
  0
CIRCLE
  5
204
100
AcDbEntity
  8
SOLDERMASK_PADS_TOP
100
AcDbCircle
 10
13845.0
 20
23968.936
 30
0.0
 40
140.0
  0
CIRCLE
  5
205
100
AcDbEntity
  8
SOLDERMASK_PADS_TOP
100
AcDbCircle
 10
10895.0
 20
25149.69
 30
0.0
 40
140.0
  0
CIRCLE
  5
206
100
AcDbEntity
  8
SOLDERMASK_PADS_TOP
100
AcDbCircle
 10
10023.827
 20
25056.335
 30
0.0
 40
140.0
  0
CIRCLE
  5
207
100
AcDbEntity
  8
SOLDERMASK_PADS_TOP
100
AcDbCircle
 10
10563.706
 20
26271.345
 30
0.0
 40
140.0
  0
CIRCLE
  5
208
100
AcDbEntity
  8
SOLDERMASK_PADS_TOP
100
AcDbCircle
 10
9639.451
 20
26156.335
 30
0.0
 40
140.0
  0
CIRCLE
  5
209
100
AcDbEntity
  8
SOLDERMASK_PADS_TOP
100
AcDbCircle
 10
20563.956
 20
29634.977
 30
0.0
 40
140.0
  0
CIRCLE
  5
20A
100
AcDbEntity
  8
SOLDERMASK_PADS_TOP
100
AcDbCircle
 10
11695.0
 20
25084.437
 30
0.0
 40
140.0
  0
CIRCLE
  5
20B
100
AcDbEntity
  8
SOLDERMASK_PADS_TOP
100
AcDbCircle
 10
21803.979
 20
29625.0
 30
0.0
 40
140.0
  0
LWPOLYLINE
  5
20C
100
AcDbEntity
  8
SOLDERMASK_PADS_TOP
100
AcDbPolyline
 90
        4
 70
         1
 10
17931.0
 20
36153.0
 10
17931.0
 20
36653.0
 10
18331.0
 20
36653.0
 10
18331.0
 20
36153.0
  0
LWPOLYLINE
  5
20D
100
AcDbEntity
  8
SOLDERMASK_PADS_TOP
100
AcDbPolyline
 90
        4
 70
         1
 10
17131.0
 20
36153.0
 10
17131.0
 20
36653.0
 10
17531.0
 20
36653.0
 10
17531.0
 20
36153.0
  0
LWPOLYLINE
  5
20E
100
AcDbEntity
  8
SOLDERMASK_PADS_TOP
100
AcDbPolyline
 90
        4
 70
         1
 10
17911.0
 20
37073.0
 10
17911.0
 20
37573.0
 10
18311.0
 20
37573.0
 10
18311.0
 20
37073.0
  0
LWPOLYLINE
  5
20F
100
AcDbEntity
  8
SOLDERMASK_PADS_TOP
100
AcDbPolyline
 90
        4
 70
         1
 10
17111.0
 20
37073.0
 10
17111.0
 20
37573.0
 10
17511.0
 20
37573.0
 10
17511.0
 20
37073.0
  0
LWPOLYLINE
  5
210
100
AcDbEntity
  8
SOLDERMASK_PADS_TOP
100
AcDbPolyline
 90
        4
 70
         1
 10
11930.0
 20
60142.0
 10
11930.0
 20
62742.0
 10
12210.0
 20
62742.0
 10
12210.0
 20
60142.0
  0
LWPOLYLINE
  5
211
100
AcDbEntity
  8
SOLDERMASK_PADS_TOP
100
AcDbPolyline
 90
        4
 70
         1
 10
12430.0
 20
60142.0
 10
12430.0
 20
62742.0
 10
12710.0
 20
62742.0
 10
12710.0
 20
60142.0
  0
LWPOLYLINE
  5
212
100
AcDbEntity
  8
SOLDERMASK_PADS_TOP
100
AcDbPolyline
 90
        4
 70
         1
 10
12930.0
 20
60142.0
 10
12930.0
 20
62742.0
 10
13210.0
 20
62742.0
 10
13210.0
 20
60142.0
  0
LWPOLYLINE
  5
213
100
AcDbEntity
  8
SOLDERMASK_PADS_TOP
100
AcDbPolyline
 90
        4
 70
         1
 10
13430.0
 20
60142.0
 10
13430.0
 20
62742.0
 10
13710.0
 20
62742.0
 10
13710.0
 20
60142.0
  0
LWPOLYLINE
  5
214
100
AcDbEntity
  8
SOLDERMASK_PADS_TOP
100
AcDbPolyline
 90
        4
 70
         1
 10
13930.0
 20
60142.0
 10
13930.0
 20
62742.0
 10
14210.0
 20
62742.0
 10
14210.0
 20
60142.0
  0
LWPOLYLINE
  5
215
100
AcDbEntity
  8
SOLDERMASK_PADS_TOP
100
AcDbPolyline
 90
        4
 70
         1
 10
14430.0
 20
60142.0
 10
14430.0
 20
62742.0
 10
14710.0
 20
62742.0
 10
14710.0
 20
60142.0
  0
LWPOLYLINE
  5
216
100
AcDbEntity
  8
SOLDERMASK_PADS_TOP
100
AcDbPolyline
 90
        4
 70
         1
 10
14930.0
 20
60142.0
 10
14930.0
 20
62742.0
 10
15210.0
 20
62742.0
 10
15210.0
 20
60142.0
  0
LWPOLYLINE
  5
217
100
AcDbEntity
  8
SOLDERMASK_PADS_TOP
100
AcDbPolyline
 90
        4
 70
         1
 10
15430.0
 20
60142.0
 10
15430.0
 20
62742.0
 10
15710.0
 20
62742.0
 10
15710.0
 20
60142.0
  0
LWPOLYLINE
  5
218
100
AcDbEntity
  8
SOLDERMASK_PADS_TOP
100
AcDbPolyline
 90
        4
 70
         1
 10
15930.0
 20
60142.0
 10
15930.0
 20
62742.0
 10
16210.0
 20
62742.0
 10
16210.0
 20
60142.0
  0
LWPOLYLINE
  5
219
100
AcDbEntity
  8
SOLDERMASK_PADS_TOP
100
AcDbPolyline
 90
        4
 70
         1
 10
16430.0
 20
60142.0
 10
16430.0
 20
62742.0
 10
16710.0
 20
62742.0
 10
16710.0
 20
60142.0
  0
LWPOLYLINE
  5
21A
100
AcDbEntity
  8
SOLDERMASK_PADS_TOP
100
AcDbPolyline
 90
        4
 70
         1
 10
16930.0
 20
60142.0
 10
16930.0
 20
62742.0
 10
17210.0
 20
62742.0
 10
17210.0
 20
60142.0
  0
LWPOLYLINE
  5
21B
100
AcDbEntity
  8
SOLDERMASK_PADS_TOP
100
AcDbPolyline
 90
        4
 70
         1
 10
17430.0
 20
60142.0
 10
17430.0
 20
62742.0
 10
17710.0
 20
62742.0
 10
17710.0
 20
60142.0
  0
LWPOLYLINE
  5
21C
100
AcDbEntity
  8
SOLDERMASK_PADS_TOP
100
AcDbPolyline
 90
        4
 70
         1
 10
17930.0
 20
60142.0
 10
17930.0
 20
62742.0
 10
18210.0
 20
62742.0
 10
18210.0
 20
60142.0
  0
LWPOLYLINE
  5
21D
100
AcDbEntity
  8
SOLDERMASK_PADS_TOP
100
AcDbPolyline
 90
        4
 70
         1
 10
18430.0
 20
60142.0
 10
18430.0
 20
62742.0
 10
18710.0
 20
62742.0
 10
18710.0
 20
60142.0
  0
LWPOLYLINE
  5
21E
100
AcDbEntity
  8
SOLDERMASK_PADS_TOP
100
AcDbPolyline
 90
        4
 70
         1
 10
18930.0
 20
60142.0
 10
18930.0
 20
62742.0
 10
19210.0
 20
62742.0
 10
19210.0
 20
60142.0
  0
LWPOLYLINE
  5
21F
100
AcDbEntity
  8
SOLDERMASK_PADS_TOP
100
AcDbPolyline
 90
        4
 70
         1
 10
19430.0
 20
60142.0
 10
19430.0
 20
62742.0
 10
19710.0
 20
62742.0
 10
19710.0
 20
60142.0
  0
LWPOLYLINE
  5
220
100
AcDbEntity
  8
SOLDERMASK_PADS_TOP
100
AcDbPolyline
 90
        4
 70
         1
 10
19930.0
 20
60142.0
 10
19930.0
 20
62742.0
 10
20210.0
 20
62742.0
 10
20210.0
 20
60142.0
  0
LWPOLYLINE
  5
221
100
AcDbEntity
  8
SOLDERMASK_PADS_TOP
100
AcDbPolyline
 90
        4
 70
         1
 10
20430.0
 20
60142.0
 10
20430.0
 20
62742.0
 10
20710.0
 20
62742.0
 10
20710.0
 20
60142.0
  0
LWPOLYLINE
  5
222
100
AcDbEntity
  8
SOLDERMASK_PADS_TOP
100
AcDbPolyline
 90
        4
 70
         1
 10
20930.0
 20
60142.0
 10
20930.0
 20
62742.0
 10
21210.0
 20
62742.0
 10
21210.0
 20
60142.0
  0
LWPOLYLINE
  5
223
100
AcDbEntity
  8
SOLDERMASK_PADS_TOP
100
AcDbPolyline
 90
        4
 70
         1
 10
8570.0
 20
61342.0
 10
8570.0
 20
63142.0
 42
-1.0
 10
10070.0
 20
63142.0
 10
10070.0
 20
61342.0
 42
-1.0
  0
LWPOLYLINE
  5
224
100
AcDbEntity
  8
SOLDERMASK_PADS_TOP
100
AcDbPolyline
 90
        4
 70
         1
 10
23070.0
 20
61342.0
 10
23070.0
 20
63142.0
 42
-1.0
 10
24570.0
 20
63142.0
 10
24570.0
 20
61342.0
 42
-1.0
  0
LWPOLYLINE
  5
225
100
AcDbEntity
  8
SOLDERMASK_PADS_TOP
100
AcDbPolyline
 90
        4
 70
         1
 10
8570.0
 20
67642.0
 10
8570.0
 20
68842.0
 42
-1.0
 10
10070.0
 20
68842.0
 10
10070.0
 20
67642.0
 42
-1.0
  0
LWPOLYLINE
  5
226
100
AcDbEntity
  8
SOLDERMASK_PADS_TOP
100
AcDbPolyline
 90
        4
 70
         1
 10
23070.0
 20
67642.0
 10
23070.0
 20
68842.0
 42
-1.0
 10
24570.0
 20
68842.0
 10
24570.0
 20
67642.0
 42
-1.0
  0
LWPOLYLINE
  5
227
100
AcDbEntity
  8
SOLDERMASK_PADS_TOP
100
AcDbPolyline
 90
        4
 70
         1
 10
20400.0
 20
32550.0
 10
20400.0
 20
32950.0
 10
20900.0
 20
32950.0
 10
20900.0
 20
32550.0
  0
LWPOLYLINE
  5
228
100
AcDbEntity
  8
SOLDERMASK_PADS_TOP
100
AcDbPolyline
 90
        4
 70
         1
 10
20400.0
 20
33350.0
 10
20400.0
 20
33750.0
 10
20900.0
 20
33750.0
 10
20900.0
 20
33350.0
  0
LWPOLYLINE
  5
229
100
AcDbEntity
  8
SOLDERMASK_PADS_TOP
100
AcDbPolyline
 90
        4
 70
         1
 10
21290.0
 20
32540.0
 10
21290.0
 20
32940.0
 10
21790.0
 20
32940.0
 10
21790.0
 20
32540.0
  0
LWPOLYLINE
  5
22A
100
AcDbEntity
  8
SOLDERMASK_PADS_TOP
100
AcDbPolyline
 90
        4
 70
         1
 10
21290.0
 20
33340.0
 10
21290.0
 20
33740.0
 10
21790.0
 20
33740.0
 10
21790.0
 20
33340.0
  0
LWPOLYLINE
  5
22B
100
AcDbEntity
  8
SOLDERMASK_PADS_TOP
100
AcDbPolyline
 90
        4
 70
         1
 10
18550.0
 20
25190.0
 10
18550.0
 20
25690.0
 10
18950.0
 20
25690.0
 10
18950.0
 20
25190.0
  0
LWPOLYLINE
  5
22C
100
AcDbEntity
  8
SOLDERMASK_PADS_TOP
100
AcDbPolyline
 90
        4
 70
         1
 10
17750.0
 20
25190.0
 10
17750.0
 20
25690.0
 10
18150.0
 20
25690.0
 10
18150.0
 20
25190.0
  0
LWPOLYLINE
  5
22D
100
AcDbEntity
  8
SOLDERMASK_PADS_TOP
100
AcDbPolyline
 90
        4
 70
         1
 10
18550.0
 20
24310.0
 10
18550.0
 20
24810.0
 10
18950.0
 20
24810.0
 10
18950.0
 20
24310.0
  0
LWPOLYLINE
  5
22E
100
AcDbEntity
  8
SOLDERMASK_PADS_TOP
100
AcDbPolyline
 90
        4
 70
         1
 10
17750.0
 20
24310.0
 10
17750.0
 20
24810.0
 10
18150.0
 20
24810.0
 10
18150.0
 20
24310.0
  0
LWPOLYLINE
  5
22F
100
AcDbEntity
  8
SOLDERMASK_PADS_TOP
100
AcDbPolyline
 90
        4
 70
         1
 10
12150.0
 20
23820.0
 10
12150.0
 20
24320.0
 10
12550.0
 20
24320.0
 10
12550.0
 20
23820.0
  0
LWPOLYLINE
  5
230
100
AcDbEntity
  8
SOLDERMASK_PADS_TOP
100
AcDbPolyline
 90
        4
 70
         1
 10
12950.0
 20
23820.0
 10
12950.0
 20
24320.0
 10
13350.0
 20
24320.0
 10
13350.0
 20
23820.0
  0
LWPOLYLINE
  5
231
100
AcDbEntity
  8
SOLDERMASK_PADS_TOP
100
AcDbPolyline
 90
        4
 70
         1
 10
12170.0
 20
24690.0
 10
12170.0
 20
25190.0
 10
12570.0
 20
25190.0
 10
12570.0
 20
24690.0
  0
LWPOLYLINE
  5
232
100
AcDbEntity
  8
SOLDERMASK_PADS_TOP
100
AcDbPolyline
 90
        4
 70
         1
 10
12970.0
 20
24690.0
 10
12970.0
 20
25190.0
 10
13370.0
 20
25190.0
 10
13370.0
 20
24690.0
  0
LWPOLYLINE
  5
233
100
AcDbEntity
  8
SOLDERMASK_PADS_TOP
100
AcDbPolyline
 90
        4
 70
         1
 10
9120.0
 20
30630.0
 10
9120.0
 20
31030.0
 10
9620.0
 20
31030.0
 10
9620.0
 20
30630.0
  0
LWPOLYLINE
  5
234
100
AcDbEntity
  8
SOLDERMASK_PADS_TOP
100
AcDbPolyline
 90
        4
 70
         1
 10
9120.0
 20
31430.0
 10
9120.0
 20
31830.0
 10
9620.0
 20
31830.0
 10
9620.0
 20
31430.0
  0
LWPOLYLINE
  5
235
100
AcDbEntity
  8
SOLDERMASK_PADS_TOP
100
AcDbPolyline
 90
        4
 70
         1
 10
8200.0
 20
30630.0
 10
8200.0
 20
31030.0
 10
8700.0
 20
31030.0
 10
8700.0
 20
30630.0
  0
LWPOLYLINE
  5
236
100
AcDbEntity
  8
SOLDERMASK_PADS_TOP
100
AcDbPolyline
 90
        4
 70
         1
 10
8200.0
 20
31430.0
 10
8200.0
 20
31830.0
 10
8700.0
 20
31830.0
 10
8700.0
 20
31430.0
  0
LWPOLYLINE
  5
237
100
AcDbEntity
  8
SOLDERMASK_PADS_TOP
100
AcDbPolyline
 90
        4
 70
         1
 10
10480.0
 20
36080.0
 10
10480.0
 20
36580.0
 10
10880.0
 20
36580.0
 10
10880.0
 20
36080.0
  0
LWPOLYLINE
  5
238
100
AcDbEntity
  8
SOLDERMASK_PADS_TOP
100
AcDbPolyline
 90
        4
 70
         1
 10
11280.0
 20
36080.0
 10
11280.0
 20
36580.0
 10
11680.0
 20
36580.0
 10
11680.0
 20
36080.0
  0
LWPOLYLINE
  5
239
100
AcDbEntity
  8
SOLDERMASK_PADS_TOP
100
AcDbPolyline
 90
        4
 70
         1
 10
10480.0
 20
36990.0
 10
10480.0
 20
37490.0
 10
10880.0
 20
37490.0
 10
10880.0
 20
36990.0
  0
LWPOLYLINE
  5
23A
100
AcDbEntity
  8
SOLDERMASK_PADS_TOP
100
AcDbPolyline
 90
        4
 70
         1
 10
11280.0
 20
36990.0
 10
11280.0
 20
37490.0
 10
11680.0
 20
37490.0
 10
11680.0
 20
36990.0
  0
LWPOLYLINE
  5
23B
100
AcDbEntity
  8
SOLDERMASK_PADS_TOP
100
AcDbPolyline
 90
        4
 70
         1
 10
14040.0
 20
12740.0
 10
14040.0
 20
13240.0
 10
14440.0
 20
13240.0
 10
14440.0
 20
12740.0
  0
LWPOLYLINE
  5
23C
100
AcDbEntity
  8
SOLDERMASK_PADS_TOP
100
AcDbPolyline
 90
        4
 70
         1
 10
14840.0
 20
12740.0
 10
14840.0
 20
13240.0
 10
15240.0
 20
13240.0
 10
15240.0
 20
12740.0
  0
LWPOLYLINE
  5
23D
100
AcDbEntity
  8
SOLDERMASK_PADS_TOP
100
AcDbPolyline
 90
        4
 70
         1
 10
18320.0
 20
12800.0
 10
18320.0
 20
13300.0
 10
18720.0
 20
13300.0
 10
18720.0
 20
12800.0
  0
LWPOLYLINE
  5
23E
100
AcDbEntity
  8
SOLDERMASK_PADS_TOP
100
AcDbPolyline
 90
        4
 70
         1
 10
17520.0
 20
12800.0
 10
17520.0
 20
13300.0
 10
17920.0
 20
13300.0
 10
17920.0
 20
12800.0
  0
LWPOLYLINE
  5
23F
100
AcDbEntity
  8
SOLDERMASK_PADS_TOP
100
AcDbPolyline
 90
        4
 70
         1
 10
24470.0
 20
29590.0
 10
24470.0
 20
29990.0
 10
24970.0
 20
29990.0
 10
24970.0
 20
29590.0
  0
LWPOLYLINE
  5
240
100
AcDbEntity
  8
SOLDERMASK_PADS_TOP
100
AcDbPolyline
 90
        4
 70
         1
 10
24470.0
 20
28790.0
 10
24470.0
 20
29190.0
 10
24970.0
 20
29190.0
 10
24970.0
 20
28790.0
  0
LWPOLYLINE
  5
241
100
AcDbEntity
  8
SOLDERMASK_PADS_TOP
100
AcDbPolyline
 90
        4
 70
         1
 10
24510.0
 20
36880.0
 10
24510.0
 20
37280.0
 10
25010.0
 20
37280.0
 10
25010.0
 20
36880.0
  0
LWPOLYLINE
  5
242
100
AcDbEntity
  8
SOLDERMASK_PADS_TOP
100
AcDbPolyline
 90
        4
 70
         1
 10
24510.0
 20
36080.0
 10
24510.0
 20
36480.0
 10
25010.0
 20
36480.0
 10
25010.0
 20
36080.0
  0
LWPOLYLINE
  5
243
100
AcDbEntity
  8
SOLDERMASK_PADS_TOP
100
AcDbPolyline
 90
        4
 70
         1
 10
21640.0
 20
36290.0
 10
21640.0
 20
36690.0
 10
22140.0
 20
36690.0
 10
22140.0
 20
36290.0
  0
LWPOLYLINE
  5
244
100
AcDbEntity
  8
SOLDERMASK_PADS_TOP
100
AcDbPolyline
 90
        4
 70
         1
 10
21640.0
 20
35490.0
 10
21640.0
 20
35890.0
 10
22140.0
 20
35890.0
 10
22140.0
 20
35490.0
  0
LWPOLYLINE
  5
245
100
AcDbEntity
  8
SOLDERMASK_PADS_TOP
100
AcDbPolyline
 90
        4
 70
         1
 10
21530.0
 20
28350.0
 10
21530.0
 20
28750.0
 10
22030.0
 20
28750.0
 10
22030.0
 20
28350.0
  0
LWPOLYLINE
  5
246
100
AcDbEntity
  8
SOLDERMASK_PADS_TOP
100
AcDbPolyline
 90
        4
 70
         1
 10
21530.0
 20
27550.0
 10
21530.0
 20
27950.0
 10
22030.0
 20
27950.0
 10
22030.0
 20
27550.0
  0
LWPOLYLINE
  5
247
100
AcDbEntity
  8
SOLDERMASK_PADS_TOP
100
AcDbPolyline
 90
        4
 70
         1
 10
7790.0
 20
7720.0
 10
7790.0
 20
8220.0
 10
8190.0
 20
8220.0
 10
8190.0
 20
7720.0
  0
LWPOLYLINE
  5
248
100
AcDbEntity
  8
SOLDERMASK_PADS_TOP
100
AcDbPolyline
 90
        4
 70
         1
 10
6990.0
 20
7720.0
 10
6990.0
 20
8220.0
 10
7390.0
 20
8220.0
 10
7390.0
 20
7720.0
  0
LWPOLYLINE
  5
249
100
AcDbEntity
  8
SOLDERMASK_PADS_TOP
100
AcDbPolyline
 90
        4
 70
         1
 10
13750.0
 20
20960.0
 10
13750.0
 20
21460.0
 10
14150.0
 20
21460.0
 10
14150.0
 20
20960.0
  0
LWPOLYLINE
  5
24A
100
AcDbEntity
  8
SOLDERMASK_PADS_TOP
100
AcDbPolyline
 90
        4
 70
         1
 10
12950.0
 20
20960.0
 10
12950.0
 20
21460.0
 10
13350.0
 20
21460.0
 10
13350.0
 20
20960.0
  0
LWPOLYLINE
  5
24B
100
AcDbEntity
  8
SOLDERMASK_PADS_TOP
100
AcDbPolyline
 90
        4
 70
         1
 10
1350.0
 20
64950.0
 10
1350.0
 20
66050.0
 10
4850.0
 20
66050.0
 10
4850.0
 20
64950.0
  0
LWPOLYLINE
  5
24C
100
AcDbEntity
  8
SOLDERMASK_PADS_TOP
100
AcDbPolyline
 90
        4
 70
         1
 10
1350.0
 20
60350.0
 10
1350.0
 20
61450.0
 10
4850.0
 20
61450.0
 10
4850.0
 20
60350.0
  0
LWPOLYLINE
  5
24D
100
AcDbEntity
  8
SOLDERMASK_PADS_TOP
100
AcDbPolyline
 90
        4
 70
         1
 10
7180.0
 20
34020.0
 10
7180.0
 20
34520.0
 10
7580.0
 20
34520.0
 10
7580.0
 20
34020.0
  0
LWPOLYLINE
  5
24E
100
AcDbEntity
  8
SOLDERMASK_PADS_TOP
100
AcDbPolyline
 90
        4
 70
         1
 10
7980.0
 20
34020.0
 10
7980.0
 20
34520.0
 10
8380.0
 20
34520.0
 10
8380.0
 20
34020.0
  0
LWPOLYLINE
  5
24F
100
AcDbEntity
  8
SOLDERMASK_PADS_TOP
100
AcDbPolyline
 90
        4
 70
         1
 10
8767.5
 20
34020.0
 10
8767.5
 20
34520.0
 10
9167.5
 20
34520.0
 10
9167.5
 20
34020.0
  0
LWPOLYLINE
  5
250
100
AcDbEntity
  8
SOLDERMASK_PADS_TOP
100
AcDbPolyline
 90
        4
 70
         1
 10
7780.0
 20
35230.0
 10
7780.0
 20
35730.0
 10
8180.0
 20
35730.0
 10
8180.0
 20
35230.0
  0
LWPOLYLINE
  5
251
100
AcDbEntity
  8
SOLDERMASK_PADS_TOP
100
AcDbPolyline
 90
        4
 70
         1
 10
8580.0
 20
35230.0
 10
8580.0
 20
35730.0
 10
8980.0
 20
35730.0
 10
8980.0
 20
35230.0
  0
LWPOLYLINE
  5
252
100
AcDbEntity
  8
SOLDERMASK_PADS_TOP
100
AcDbPolyline
 90
        4
 70
         1
 10
8580.0
 20
36180.0
 10
8580.0
 20
36680.0
 10
8980.0
 20
36680.0
 10
8980.0
 20
36180.0
  0
LWPOLYLINE
  5
253
100
AcDbEntity
  8
SOLDERMASK_PADS_TOP
100
AcDbPolyline
 90
        4
 70
         1
 10
7780.0
 20
36180.0
 10
7780.0
 20
36680.0
 10
8180.0
 20
36680.0
 10
8180.0
 20
36180.0
  0
LWPOLYLINE
  5
254
100
AcDbEntity
  8
SOLDERMASK_PADS_TOP
100
AcDbPolyline
 90
        4
 70
         1
 10
22880.0
 20
30910.0
 10
22880.0
 20
31310.0
 10
23380.0
 20
31310.0
 10
23380.0
 20
30910.0
  0
LWPOLYLINE
  5
255
100
AcDbEntity
  8
SOLDERMASK_PADS_TOP
100
AcDbPolyline
 90
        4
 70
         1
 10
22880.0
 20
31710.0
 10
22880.0
 20
32110.0
 10
23380.0
 20
32110.0
 10
23380.0
 20
31710.0
  0
LWPOLYLINE
  5
256
100
AcDbEntity
  8
SOLDERMASK_PADS_TOP
100
AcDbPolyline
 90
        4
 70
         1
 10
13940.0
 20
36900.0
 10
13940.0
 20
37400.0
 10
14340.0
 20
37400.0
 10
14340.0
 20
36900.0
  0
LWPOLYLINE
  5
257
100
AcDbEntity
  8
SOLDERMASK_PADS_TOP
100
AcDbPolyline
 90
        4
 70
         1
 10
14740.0
 20
36900.0
 10
14740.0
 20
37400.0
 10
15140.0
 20
37400.0
 10
15140.0
 20
36900.0
  0
LWPOLYLINE
  5
258
100
AcDbEntity
  8
SOLDERMASK_PADS_TOP
100
AcDbPolyline
 90
        4
 70
         1
 10
13890.0
 20
37810.0
 10
13890.0
 20
38310.0
 10
14290.0
 20
38310.0
 10
14290.0
 20
37810.0
  0
LWPOLYLINE
  5
259
100
AcDbEntity
  8
SOLDERMASK_PADS_TOP
100
AcDbPolyline
 90
        4
 70
         1
 10
14690.0
 20
37810.0
 10
14690.0
 20
38310.0
 10
15090.0
 20
38310.0
 10
15090.0
 20
37810.0
  0
LWPOLYLINE
  5
25A
100
AcDbEntity
  8
SOLDERMASK_PADS_TOP
100
AcDbPolyline
 90
        4
 70
         1
 10
11600.0
 20
26710.0
 10
11600.0
 20
26160.0
 10
11300.0
 20
26160.0
 10
11300.0
 20
26710.0
 42
-1.0
  0
LWPOLYLINE
  5
25B
100
AcDbEntity
  8
SOLDERMASK_PADS_TOP
100
AcDbPolyline
 90
        4
 70
         1
 10
12100.0
 20
26710.0
 10
12100.0
 20
26160.0
 10
11800.0
 20
26160.0
 10
11800.0
 20
26710.0
 42
-1.0
  0
LWPOLYLINE
  5
25C
100
AcDbEntity
  8
SOLDERMASK_PADS_TOP
100
AcDbPolyline
 90
        4
 70
         1
 10
12600.0
 20
26710.0
 10
12600.0
 20
26160.0
 10
12300.0
 20
26160.0
 10
12300.0
 20
26710.0
 42
-1.0
  0
LWPOLYLINE
  5
25D
100
AcDbEntity
  8
SOLDERMASK_PADS_TOP
100
AcDbPolyline
 90
        4
 70
         1
 10
13100.0
 20
26710.0
 10
13100.0
 20
26160.0
 10
12800.0
 20
26160.0
 10
12800.0
 20
26710.0
 42
-1.0
  0
LWPOLYLINE
  5
25E
100
AcDbEntity
  8
SOLDERMASK_PADS_TOP
100
AcDbPolyline
 90
        4
 70
         1
 10
13600.0
 20
26710.0
 10
13600.0
 20
26160.0
 10
13300.0
 20
26160.0
 10
13300.0
 20
26710.0
 42
-1.0
  0
LWPOLYLINE
  5
25F
100
AcDbEntity
  8
SOLDERMASK_PADS_TOP
100
AcDbPolyline
 90
        4
 70
         1
 10
14100.0
 20
26710.0
 10
14100.0
 20
26160.0
 10
13800.0
 20
26160.0
 10
13800.0
 20
26710.0
 42
-1.0
  0
LWPOLYLINE
  5
260
100
AcDbEntity
  8
SOLDERMASK_PADS_TOP
100
AcDbPolyline
 90
        4
 70
         1
 10
14600.0
 20
26710.0
 10
14600.0
 20
26160.0
 10
14300.0
 20
26160.0
 10
14300.0
 20
26710.0
 42
-1.0
  0
LWPOLYLINE
  5
261
100
AcDbEntity
  8
SOLDERMASK_PADS_TOP
100
AcDbPolyline
 90
        4
 70
         1
 10
15100.0
 20
26710.0
 10
15100.0
 20
26160.0
 10
14800.0
 20
26160.0
 10
14800.0
 20
26710.0
 42
-1.0
  0
LWPOLYLINE
  5
262
100
AcDbEntity
  8
SOLDERMASK_PADS_TOP
100
AcDbPolyline
 90
        4
 70
         1
 10
15600.0
 20
26710.0
 10
15600.0
 20
26160.0
 10
15300.0
 20
26160.0
 10
15300.0
 20
26710.0
 42
-1.0
  0
LWPOLYLINE
  5
263
100
AcDbEntity
  8
SOLDERMASK_PADS_TOP
100
AcDbPolyline
 90
        4
 70
         1
 10
16100.0
 20
26710.0
 10
16100.0
 20
26160.0
 10
15800.0
 20
26160.0
 10
15800.0
 20
26710.0
 42
-1.0
  0
LWPOLYLINE
  5
264
100
AcDbEntity
  8
SOLDERMASK_PADS_TOP
100
AcDbPolyline
 90
        4
 70
         1
 10
16600.0
 20
26710.0
 10
16600.0
 20
26160.0
 10
16300.0
 20
26160.0
 10
16300.0
 20
26710.0
 42
-1.0
  0
LWPOLYLINE
  5
265
100
AcDbEntity
  8
SOLDERMASK_PADS_TOP
100
AcDbPolyline
 90
        4
 70
         1
 10
17100.0
 20
26710.0
 10
17100.0
 20
26160.0
 10
16800.0
 20
26160.0
 10
16800.0
 20
26710.0
 42
-1.0
  0
LWPOLYLINE
  5
266
100
AcDbEntity
  8
SOLDERMASK_PADS_TOP
100
AcDbPolyline
 90
        4
 70
         1
 10
17600.0
 20
26710.0
 10
17600.0
 20
26160.0
 10
17300.0
 20
26160.0
 10
17300.0
 20
26710.0
 42
-1.0
  0
LWPOLYLINE
  5
267
100
AcDbEntity
  8
SOLDERMASK_PADS_TOP
100
AcDbPolyline
 90
        4
 70
         1
 10
18100.0
 20
26710.0
 10
18100.0
 20
26160.0
 10
17800.0
 20
26160.0
 10
17800.0
 20
26710.0
 42
-1.0
  0
LWPOLYLINE
  5
268
100
AcDbEntity
  8
SOLDERMASK_PADS_TOP
100
AcDbPolyline
 90
        4
 70
         1
 10
18600.0
 20
26710.0
 10
18600.0
 20
26160.0
 10
18300.0
 20
26160.0
 10
18300.0
 20
26710.0
 42
-1.0
  0
LWPOLYLINE
  5
269
100
AcDbEntity
  8
SOLDERMASK_PADS_TOP
100
AcDbPolyline
 90
        4
 70
         1
 10
19100.0
 20
26710.0
 10
19100.0
 20
26160.0
 10
18800.0
 20
26160.0
 10
18800.0
 20
26710.0
 42
-1.0
  0
LWPOLYLINE
  5
26A
100
AcDbEntity
  8
SOLDERMASK_PADS_TOP
100
AcDbPolyline
 90
        4
 70
         1
 10
19450.0
 20
27360.0
 10
20000.0
 20
27360.0
 10
20000.0
 20
27060.0
 10
19450.0
 20
27060.0
 42
-1.0
  0
LWPOLYLINE
  5
26B
100
AcDbEntity
  8
SOLDERMASK_PADS_TOP
100
AcDbPolyline
 90
        4
 70
         1
 10
19450.0
 20
27860.0
 10
20000.0
 20
27860.0
 10
20000.0
 20
27560.0
 10
19450.0
 20
27560.0
 42
-1.0
  0
LWPOLYLINE
  5
26C
100
AcDbEntity
  8
SOLDERMASK_PADS_TOP
100
AcDbPolyline
 90
        4
 70
         1
 10
19450.0
 20
28360.0
 10
20000.0
 20
28360.0
 10
20000.0
 20
28060.0
 10
19450.0
 20
28060.0
 42
-1.0
  0
LWPOLYLINE
  5
26D
100
AcDbEntity
  8
SOLDERMASK_PADS_TOP
100
AcDbPolyline
 90
        4
 70
         1
 10
19450.0
 20
28860.0
 10
20000.0
 20
28860.0
 10
20000.0
 20
28560.0
 10
19450.0
 20
28560.0
 42
-1.0
  0
LWPOLYLINE
  5
26E
100
AcDbEntity
  8
SOLDERMASK_PADS_TOP
100
AcDbPolyline
 90
        4
 70
         1
 10
19450.0
 20
29360.0
 10
20000.0
 20
29360.0
 10
20000.0
 20
29060.0
 10
19450.0
 20
29060.0
 42
-1.0
  0
LWPOLYLINE
  5
26F
100
AcDbEntity
  8
SOLDERMASK_PADS_TOP
100
AcDbPolyline
 90
        4
 70
         1
 10
19450.0
 20
29860.0
 10
20000.0
 20
29860.0
 10
20000.0
 20
29560.0
 10
19450.0
 20
29560.0
 42
-1.0
  0
LWPOLYLINE
  5
270
100
AcDbEntity
  8
SOLDERMASK_PADS_TOP
100
AcDbPolyline
 90
        4
 70
         1
 10
19450.0
 20
30360.0
 10
20000.0
 20
30360.0
 10
20000.0
 20
30060.0
 10
19450.0
 20
30060.0
 42
-1.0
  0
LWPOLYLINE
  5
271
100
AcDbEntity
  8
SOLDERMASK_PADS_TOP
100
AcDbPolyline
 90
        4
 70
         1
 10
19450.0
 20
30860.0
 10
20000.0
 20
30860.0
 10
20000.0
 20
30560.0
 10
19450.0
 20
30560.0
 42
-1.0
  0
LWPOLYLINE
  5
272
100
AcDbEntity
  8
SOLDERMASK_PADS_TOP
100
AcDbPolyline
 90
        4
 70
         1
 10
19450.0
 20
31360.0
 10
20000.0
 20
31360.0
 10
20000.0
 20
31060.0
 10
19450.0
 20
31060.0
 42
-1.0
  0
LWPOLYLINE
  5
273
100
AcDbEntity
  8
SOLDERMASK_PADS_TOP
100
AcDbPolyline
 90
        4
 70
         1
 10
19450.0
 20
31860.0
 10
20000.0
 20
31860.0
 10
20000.0
 20
31560.0
 10
19450.0
 20
31560.0
 42
-1.0
  0
LWPOLYLINE
  5
274
100
AcDbEntity
  8
SOLDERMASK_PADS_TOP
100
AcDbPolyline
 90
        4
 70
         1
 10
19450.0
 20
32360.0
 10
20000.0
 20
32360.0
 10
20000.0
 20
32060.0
 10
19450.0
 20
32060.0
 42
-1.0
  0
LWPOLYLINE
  5
275
100
AcDbEntity
  8
SOLDERMASK_PADS_TOP
100
AcDbPolyline
 90
        4
 70
         1
 10
19450.0
 20
32860.0
 10
20000.0
 20
32860.0
 10
20000.0
 20
32560.0
 10
19450.0
 20
32560.0
 42
-1.0
  0
LWPOLYLINE
  5
276
100
AcDbEntity
  8
SOLDERMASK_PADS_TOP
100
AcDbPolyline
 90
        4
 70
         1
 10
19450.0
 20
33360.0
 10
20000.0
 20
33360.0
 10
20000.0
 20
33060.0
 10
19450.0
 20
33060.0
 42
-1.0
  0
LWPOLYLINE
  5
277
100
AcDbEntity
  8
SOLDERMASK_PADS_TOP
100
AcDbPolyline
 90
        4
 70
         1
 10
19450.0
 20
33860.0
 10
20000.0
 20
33860.0
 10
20000.0
 20
33560.0
 10
19450.0
 20
33560.0
 42
-1.0
  0
LWPOLYLINE
  5
278
100
AcDbEntity
  8
SOLDERMASK_PADS_TOP
100
AcDbPolyline
 90
        4
 70
         1
 10
19450.0
 20
34360.0
 10
20000.0
 20
34360.0
 10
20000.0
 20
34060.0
 10
19450.0
 20
34060.0
 42
-1.0
  0
LWPOLYLINE
  5
279
100
AcDbEntity
  8
SOLDERMASK_PADS_TOP
100
AcDbPolyline
 90
        4
 70
         1
 10
19450.0
 20
34860.0
 10
20000.0
 20
34860.0
 10
20000.0
 20
34560.0
 10
19450.0
 20
34560.0
 42
-1.0
  0
LWPOLYLINE
  5
27A
100
AcDbEntity
  8
SOLDERMASK_PADS_TOP
100
AcDbPolyline
 90
        4
 70
         1
 10
18800.0
 20
35210.0
 10
18800.0
 20
35760.0
 10
19100.0
 20
35760.0
 10
19100.0
 20
35210.0
 42
-1.0
  0
LWPOLYLINE
  5
27B
100
AcDbEntity
  8
SOLDERMASK_PADS_TOP
100
AcDbPolyline
 90
        4
 70
         1
 10
18300.0
 20
35210.0
 10
18300.0
 20
35760.0
 10
18600.0
 20
35760.0
 10
18600.0
 20
35210.0
 42
-1.0
  0
LWPOLYLINE
  5
27C
100
AcDbEntity
  8
SOLDERMASK_PADS_TOP
100
AcDbPolyline
 90
        4
 70
         1
 10
17800.0
 20
35210.0
 10
17800.0
 20
35760.0
 10
18100.0
 20
35760.0
 10
18100.0
 20
35210.0
 42
-1.0
  0
LWPOLYLINE
  5
27D
100
AcDbEntity
  8
SOLDERMASK_PADS_TOP
100
AcDbPolyline
 90
        4
 70
         1
 10
17300.0
 20
35210.0
 10
17300.0
 20
35760.0
 10
17600.0
 20
35760.0
 10
17600.0
 20
35210.0
 42
-1.0
  0
LWPOLYLINE
  5
27E
100
AcDbEntity
  8
SOLDERMASK_PADS_TOP
100
AcDbPolyline
 90
        4
 70
         1
 10
16800.0
 20
35210.0
 10
16800.0
 20
35760.0
 10
17100.0
 20
35760.0
 10
17100.0
 20
35210.0
 42
-1.0
  0
LWPOLYLINE
  5
27F
100
AcDbEntity
  8
SOLDERMASK_PADS_TOP
100
AcDbPolyline
 90
        4
 70
         1
 10
16300.0
 20
35210.0
 10
16300.0
 20
35760.0
 10
16600.0
 20
35760.0
 10
16600.0
 20
35210.0
 42
-1.0
  0
LWPOLYLINE
  5
280
100
AcDbEntity
  8
SOLDERMASK_PADS_TOP
100
AcDbPolyline
 90
        4
 70
         1
 10
15800.0
 20
35210.0
 10
15800.0
 20
35760.0
 10
16100.0
 20
35760.0
 10
16100.0
 20
35210.0
 42
-1.0
  0
LWPOLYLINE
  5
281
100
AcDbEntity
  8
SOLDERMASK_PADS_TOP
100
AcDbPolyline
 90
        4
 70
         1
 10
15300.0
 20
35210.0
 10
15300.0
 20
35760.0
 10
15600.0
 20
35760.0
 10
15600.0
 20
35210.0
 42
-1.0
  0
LWPOLYLINE
  5
282
100
AcDbEntity
  8
SOLDERMASK_PADS_TOP
100
AcDbPolyline
 90
        4
 70
         1
 10
14800.0
 20
35210.0
 10
14800.0
 20
35760.0
 10
15100.0
 20
35760.0
 10
15100.0
 20
35210.0
 42
-1.0
  0
LWPOLYLINE
  5
283
100
AcDbEntity
  8
SOLDERMASK_PADS_TOP
100
AcDbPolyline
 90
        4
 70
         1
 10
14300.0
 20
35210.0
 10
14300.0
 20
35760.0
 10
14600.0
 20
35760.0
 10
14600.0
 20
35210.0
 42
-1.0
  0
LWPOLYLINE
  5
284
100
AcDbEntity
  8
SOLDERMASK_PADS_TOP
100
AcDbPolyline
 90
        4
 70
         1
 10
13800.0
 20
35210.0
 10
13800.0
 20
35760.0
 10
14100.0
 20
35760.0
 10
14100.0
 20
35210.0
 42
-1.0
  0
LWPOLYLINE
  5
285
100
AcDbEntity
  8
SOLDERMASK_PADS_TOP
100
AcDbPolyline
 90
        4
 70
         1
 10
13300.0
 20
35210.0
 10
13300.0
 20
35760.0
 10
13600.0
 20
35760.0
 10
13600.0
 20
35210.0
 42
-1.0
  0
LWPOLYLINE
  5
286
100
AcDbEntity
  8
SOLDERMASK_PADS_TOP
100
AcDbPolyline
 90
        4
 70
         1
 10
12800.0
 20
35210.0
 10
12800.0
 20
35760.0
 10
13100.0
 20
35760.0
 10
13100.0
 20
35210.0
 42
-1.0
  0
LWPOLYLINE
  5
287
100
AcDbEntity
  8
SOLDERMASK_PADS_TOP
100
AcDbPolyline
 90
        4
 70
         1
 10
12300.0
 20
35210.0
 10
12300.0
 20
35760.0
 10
12600.0
 20
35760.0
 10
12600.0
 20
35210.0
 42
-1.0
  0
LWPOLYLINE
  5
288
100
AcDbEntity
  8
SOLDERMASK_PADS_TOP
100
AcDbPolyline
 90
        4
 70
         1
 10
11800.0
 20
35210.0
 10
11800.0
 20
35760.0
 10
12100.0
 20
35760.0
 10
12100.0
 20
35210.0
 42
-1.0
  0
LWPOLYLINE
  5
289
100
AcDbEntity
  8
SOLDERMASK_PADS_TOP
100
AcDbPolyline
 90
        4
 70
         1
 10
11300.0
 20
35210.0
 10
11300.0
 20
35760.0
 10
11600.0
 20
35760.0
 10
11600.0
 20
35210.0
 42
-1.0
  0
LWPOLYLINE
  5
28A
100
AcDbEntity
  8
SOLDERMASK_PADS_TOP
100
AcDbPolyline
 90
        4
 70
         1
 10
10950.0
 20
34560.0
 10
10400.0
 20
34560.0
 10
10400.0
 20
34860.0
 10
10950.0
 20
34860.0
 42
-1.0
  0
LWPOLYLINE
  5
28B
100
AcDbEntity
  8
SOLDERMASK_PADS_TOP
100
AcDbPolyline
 90
        4
 70
         1
 10
10950.0
 20
34060.0
 10
10400.0
 20
34060.0
 10
10400.0
 20
34360.0
 10
10950.0
 20
34360.0
 42
-1.0
  0
LWPOLYLINE
  5
28C
100
AcDbEntity
  8
SOLDERMASK_PADS_TOP
100
AcDbPolyline
 90
        4
 70
         1
 10
10950.0
 20
33560.0
 10
10400.0
 20
33560.0
 10
10400.0
 20
33860.0
 10
10950.0
 20
33860.0
 42
-1.0
  0
LWPOLYLINE
  5
28D
100
AcDbEntity
  8
SOLDERMASK_PADS_TOP
100
AcDbPolyline
 90
        4
 70
         1
 10
10950.0
 20
33060.0
 10
10400.0
 20
33060.0
 10
10400.0
 20
33360.0
 10
10950.0
 20
33360.0
 42
-1.0
  0
LWPOLYLINE
  5
28E
100
AcDbEntity
  8
SOLDERMASK_PADS_TOP
100
AcDbPolyline
 90
        4
 70
         1
 10
10950.0
 20
32560.0
 10
10400.0
 20
32560.0
 10
10400.0
 20
32860.0
 10
10950.0
 20
32860.0
 42
-1.0
  0
LWPOLYLINE
  5
28F
100
AcDbEntity
  8
SOLDERMASK_PADS_TOP
100
AcDbPolyline
 90
        4
 70
         1
 10
10950.0
 20
32060.0
 10
10400.0
 20
32060.0
 10
10400.0
 20
32360.0
 10
10950.0
 20
32360.0
 42
-1.0
  0
LWPOLYLINE
  5
290
100
AcDbEntity
  8
SOLDERMASK_PADS_TOP
100
AcDbPolyline
 90
        4
 70
         1
 10
10950.0
 20
31560.0
 10
10400.0
 20
31560.0
 10
10400.0
 20
31860.0
 10
10950.0
 20
31860.0
 42
-1.0
  0
LWPOLYLINE
  5
291
100
AcDbEntity
  8
SOLDERMASK_PADS_TOP
100
AcDbPolyline
 90
        4
 70
         1
 10
10950.0
 20
31060.0
 10
10400.0
 20
31060.0
 10
10400.0
 20
31360.0
 10
10950.0
 20
31360.0
 42
-1.0
  0
LWPOLYLINE
  5
292
100
AcDbEntity
  8
SOLDERMASK_PADS_TOP
100
AcDbPolyline
 90
        4
 70
         1
 10
10950.0
 20
30560.0
 10
10400.0
 20
30560.0
 10
10400.0
 20
30860.0
 10
10950.0
 20
30860.0
 42
-1.0
  0
LWPOLYLINE
  5
293
100
AcDbEntity
  8
SOLDERMASK_PADS_TOP
100
AcDbPolyline
 90
        4
 70
         1
 10
10950.0
 20
30060.0
 10
10400.0
 20
30060.0
 10
10400.0
 20
30360.0
 10
10950.0
 20
30360.0
 42
-1.0
  0
LWPOLYLINE
  5
294
100
AcDbEntity
  8
SOLDERMASK_PADS_TOP
100
AcDbPolyline
 90
        4
 70
         1
 10
10950.0
 20
29560.0
 10
10400.0
 20
29560.0
 10
10400.0
 20
29860.0
 10
10950.0
 20
29860.0
 42
-1.0
  0
LWPOLYLINE
  5
295
100
AcDbEntity
  8
SOLDERMASK_PADS_TOP
100
AcDbPolyline
 90
        4
 70
         1
 10
10950.0
 20
29060.0
 10
10400.0
 20
29060.0
 10
10400.0
 20
29360.0
 10
10950.0
 20
29360.0
 42
-1.0
  0
LWPOLYLINE
  5
296
100
AcDbEntity
  8
SOLDERMASK_PADS_TOP
100
AcDbPolyline
 90
        4
 70
         1
 10
10950.0
 20
28560.0
 10
10400.0
 20
28560.0
 10
10400.0
 20
28860.0
 10
10950.0
 20
28860.0
 42
-1.0
  0
LWPOLYLINE
  5
297
100
AcDbEntity
  8
SOLDERMASK_PADS_TOP
100
AcDbPolyline
 90
        4
 70
         1
 10
10950.0
 20
28060.0
 10
10400.0
 20
28060.0
 10
10400.0
 20
28360.0
 10
10950.0
 20
28360.0
 42
-1.0
  0
LWPOLYLINE
  5
298
100
AcDbEntity
  8
SOLDERMASK_PADS_TOP
100
AcDbPolyline
 90
        4
 70
         1
 10
10950.0
 20
27560.0
 10
10400.0
 20
27560.0
 10
10400.0
 20
27860.0
 10
10950.0
 20
27860.0
 42
-1.0
  0
LWPOLYLINE
  5
299
100
AcDbEntity
  8
SOLDERMASK_PADS_TOP
100
AcDbPolyline
 90
        4
 70
         1
 10
10950.0
 20
27060.0
 10
10400.0
 20
27060.0
 10
10400.0
 20
27360.0
 10
10950.0
 20
27360.0
 42
-1.0
  0
LWPOLYLINE
  5
29A
100
AcDbEntity
  8
SOLDERMASK_PADS_TOP
100
AcDbPolyline
 90
        4
 70
         1
 10
12600.0
 20
28360.0
 10
12600.0
 20
33560.0
 10
17800.0
 20
33560.0
 10
17800.0
 20
28360.0
  0
LWPOLYLINE
  5
29B
100
AcDbEntity
  8
SOLDERMASK_PADS_TOP
100
AcDbPolyline
 90
        4
 70
         1
 10
7160.0
 20
32320.0
 10
7160.0
 20
32820.0
 10
7560.0
 20
32820.0
 10
7560.0
 20
32320.0
  0
LWPOLYLINE
  5
29C
100
AcDbEntity
  8
SOLDERMASK_PADS_TOP
100
AcDbPolyline
 90
        4
 70
         1
 10
7960.0
 20
32320.0
 10
7960.0
 20
32820.0
 10
8360.0
 20
32820.0
 10
8360.0
 20
32320.0
  0
LWPOLYLINE
  5
29D
100
AcDbEntity
  8
SOLDERMASK_PADS_TOP
100
AcDbPolyline
 90
        4
 70
         1
 10
8747.5
 20
32320.0
 10
8747.5
 20
32820.0
 10
9147.5
 20
32820.0
 10
9147.5
 20
32320.0
  0
LWPOLYLINE
  5
29E
100
AcDbEntity
  8
SOLDERMASK_PADS_TOP
100
AcDbPolyline
 90
        4
 70
         1
 10
18880.0
 20
36850.0
 10
18880.0
 20
37250.0
 10
19380.0
 20
37250.0
 10
19380.0
 20
36850.0
  0
LWPOLYLINE
  5
29F
100
AcDbEntity
  8
SOLDERMASK_PADS_TOP
100
AcDbPolyline
 90
        4
 70
         1
 10
18880.0
 20
37650.0
 10
18880.0
 20
38050.0
 10
19380.0
 20
38050.0
 10
19380.0
 20
37650.0
  0
LWPOLYLINE
  5
2A0
100
AcDbEntity
  8
SOLDERMASK_PADS_TOP
100
AcDbPolyline
 90
        4
 70
         1
 10
9780.0
 20
55600.0
 10
9780.0
 20
56100.0
 10
10180.0
 20
56100.0
 10
10180.0
 20
55600.0
  0
LWPOLYLINE
  5
2A1
100
AcDbEntity
  8
SOLDERMASK_PADS_TOP
100
AcDbPolyline
 90
        4
 70
         1
 10
10580.0
 20
55600.0
 10
10580.0
 20
56100.0
 10
10980.0
 20
56100.0
 10
10980.0
 20
55600.0
  0
LWPOLYLINE
  5
2A2
100
AcDbEntity
  8
SOLDERMASK_PADS_TOP
100
AcDbPolyline
 90
        4
 70
         1
 10
17470.0
 20
41270.0
 10
17470.0
 20
41670.0
 10
17970.0
 20
41670.0
 10
17970.0
 20
41270.0
  0
LWPOLYLINE
  5
2A3
100
AcDbEntity
  8
SOLDERMASK_PADS_TOP
100
AcDbPolyline
 90
        4
 70
         1
 10
17470.0
 20
40470.0
 10
17470.0
 20
40870.0
 10
17970.0
 20
40870.0
 10
17970.0
 20
40470.0
  0
LWPOLYLINE
  5
2A4
100
AcDbEntity
  8
SOLDERMASK_PADS_TOP
100
AcDbPolyline
 90
        4
 70
         1
 10
22690.0
 20
54940.0
 10
22690.0
 20
55440.0
 10
23090.0
 20
55440.0
 10
23090.0
 20
54940.0
  0
LWPOLYLINE
  5
2A5
100
AcDbEntity
  8
SOLDERMASK_PADS_TOP
100
AcDbPolyline
 90
        4
 70
         1
 10
21890.0
 20
54940.0
 10
21890.0
 20
55440.0
 10
22290.0
 20
55440.0
 10
22290.0
 20
54940.0
  0
LWPOLYLINE
  5
2A6
100
AcDbEntity
  8
SOLDERMASK_PADS_TOP
100
AcDbPolyline
 90
        4
 70
         1
 10
19770.0
 20
20960.0
 10
19770.0
 20
21460.0
 10
20170.0
 20
21460.0
 10
20170.0
 20
20960.0
  0
LWPOLYLINE
  5
2A7
100
AcDbEntity
  8
SOLDERMASK_PADS_TOP
100
AcDbPolyline
 90
        4
 70
         1
 10
18970.0
 20
20960.0
 10
18970.0
 20
21460.0
 10
19370.0
 20
21460.0
 10
19370.0
 20
20960.0
  0
LWPOLYLINE
  5
2A8
100
AcDbEntity
  8
SOLDERMASK_PADS_TOP
100
AcDbPolyline
 90
        4
 70
         1
 10
9690.0
 20
18950.0
 10
9690.0
 20
19450.0
 10
10090.0
 20
19450.0
 10
10090.0
 20
18950.0
  0
LWPOLYLINE
  5
2A9
100
AcDbEntity
  8
SOLDERMASK_PADS_TOP
100
AcDbPolyline
 90
        4
 70
         1
 10
8890.0
 20
18950.0
 10
8890.0
 20
19450.0
 10
9290.0
 20
19450.0
 10
9290.0
 20
18950.0
  0
LWPOLYLINE
  5
2AA
100
AcDbEntity
  8
SOLDERMASK_PADS_TOP
100
AcDbPolyline
 90
        4
 70
         1
 10
9560.0
 20
14670.0
 10
9560.0
 20
15170.0
 10
9960.0
 20
15170.0
 10
9960.0
 20
14670.0
  0
LWPOLYLINE
  5
2AB
100
AcDbEntity
  8
SOLDERMASK_PADS_TOP
100
AcDbPolyline
 90
        4
 70
         1
 10
8760.0
 20
14670.0
 10
8760.0
 20
15170.0
 10
9160.0
 20
15170.0
 10
9160.0
 20
14670.0
  0
LWPOLYLINE
  5
2AC
100
AcDbEntity
  8
SOLDERMASK_PADS_TOP
100
AcDbPolyline
 90
        4
 70
         1
 10
19905.0
 20
13850.0
 10
19905.0
 20
14700.0
 10
21155.0
 20
14700.0
 10
21155.0
 20
13850.0
  0
LWPOLYLINE
  5
2AD
100
AcDbEntity
  8
SOLDERMASK_PADS_TOP
100
AcDbPolyline
 90
        4
 70
         1
 10
19905.0
 20
15400.0
 10
19905.0
 20
16250.0
 10
21155.0
 20
16250.0
 10
21155.0
 20
15400.0
  0
LWPOLYLINE
  5
2AE
100
AcDbEntity
  8
SOLDERMASK_PADS_TOP
100
AcDbPolyline
 90
        4
 70
         1
 10
18770.0
 20
15230.0
 10
18770.0
 20
15630.0
 10
19270.0
 20
15630.0
 10
19270.0
 20
15230.0
  0
LWPOLYLINE
  5
2AF
100
AcDbEntity
  8
SOLDERMASK_PADS_TOP
100
AcDbPolyline
 90
        4
 70
         1
 10
18770.0
 20
14430.0
 10
18770.0
 20
14830.0
 10
19270.0
 20
14830.0
 10
19270.0
 20
14430.0
  0
LWPOLYLINE
  5
2B0
100
AcDbEntity
  8
SOLDERMASK_PADS_TOP
100
AcDbPolyline
 90
        4
 70
         1
 10
15440.0
 20
18220.0
 10
15440.0
 20
18720.0
 10
15840.0
 20
18720.0
 10
15840.0
 20
18220.0
  0
LWPOLYLINE
  5
2B1
100
AcDbEntity
  8
SOLDERMASK_PADS_TOP
100
AcDbPolyline
 90
        4
 70
         1
 10
16240.0
 20
18220.0
 10
16240.0
 20
18720.0
 10
16640.0
 20
18720.0
 10
16640.0
 20
18220.0
  0
LWPOLYLINE
  5
2B2
100
AcDbEntity
  8
SOLDERMASK_PADS_TOP
100
AcDbPolyline
 90
        4
 70
         1
 10
17027.5
 20
18220.0
 10
17027.5
 20
18720.0
 10
17427.5
 20
18720.0
 10
17427.5
 20
18220.0
  0
LWPOLYLINE
  5
2B3
100
AcDbEntity
  8
SOLDERMASK_PADS_TOP
100
AcDbPolyline
 90
        4
 70
         1
 10
17400.0
 20
15250.0
 10
17400.0
 20
15850.0
 10
18080.0
 20
15850.0
 10
18080.0
 20
15250.0
  0
LWPOLYLINE
  5
2B4
100
AcDbEntity
  8
SOLDERMASK_PADS_TOP
100
AcDbPolyline
 90
        4
 70
         1
 10
16850.0
 20
15250.0
 10
16850.0
 20
15850.0
 10
17530.0
 20
15850.0
 10
17530.0
 20
15250.0
  0
LWPOLYLINE
  5
2B5
100
AcDbEntity
  8
SOLDERMASK_PADS_TOP
100
AcDbPolyline
 90
        4
 70
         1
 10
17400.0
 20
14300.0
 10
17400.0
 20
14900.0
 10
18080.0
 20
14900.0
 10
18080.0
 20
14300.0
  0
LWPOLYLINE
  5
2B6
100
AcDbEntity
  8
SOLDERMASK_PADS_TOP
100
AcDbPolyline
 90
        4
 70
         1
 10
14700.0
 20
16200.0
 10
14700.0
 20
16800.0
 10
15380.0
 20
16800.0
 10
15380.0
 20
16200.0
  0
LWPOLYLINE
  5
2B7
100
AcDbEntity
  8
SOLDERMASK_PADS_TOP
100
AcDbPolyline
 90
        4
 70
         1
 10
14700.0
 20
14300.0
 10
14700.0
 20
14900.0
 10
15380.0
 20
14900.0
 10
15380.0
 20
14300.0
  0
LWPOLYLINE
  5
2B8
100
AcDbEntity
  8
SOLDERMASK_PADS_TOP
100
AcDbPolyline
 90
        4
 70
         1
 10
17400.0
 20
16200.0
 10
17400.0
 20
16800.0
 10
18080.0
 20
16800.0
 10
18080.0
 20
16200.0
  0
LWPOLYLINE
  5
2B9
100
AcDbEntity
  8
SOLDERMASK_PADS_TOP
100
AcDbPolyline
 90
        4
 70
         1
 10
19770.0
 20
17180.0
 10
19770.0
 20
17680.0
 10
20170.0
 20
17680.0
 10
20170.0
 20
17180.0
  0
LWPOLYLINE
  5
2BA
100
AcDbEntity
  8
SOLDERMASK_PADS_TOP
100
AcDbPolyline
 90
        4
 70
         1
 10
18970.0
 20
17180.0
 10
18970.0
 20
17680.0
 10
19370.0
 20
17680.0
 10
19370.0
 20
17180.0
  0
LWPOLYLINE
  5
2BB
100
AcDbEntity
  8
SOLDERMASK_PADS_TOP
100
AcDbPolyline
 90
        4
 70
         1
 10
24600.0
 20
19690.0
 10
24600.0
 20
20090.0
 10
25100.0
 20
20090.0
 10
25100.0
 20
19690.0
  0
LWPOLYLINE
  5
2BC
100
AcDbEntity
  8
SOLDERMASK_PADS_TOP
100
AcDbPolyline
 90
        4
 70
         1
 10
24600.0
 20
18890.0
 10
24600.0
 20
19290.0
 10
25100.0
 20
19290.0
 10
25100.0
 20
18890.0
  0
LWPOLYLINE
  5
2BD
100
AcDbEntity
  8
SOLDERMASK_PADS_TOP
100
AcDbPolyline
 90
        4
 70
         1
 10
15355.0
 20
44330.0
 10
15355.0
 20
44780.0
 10
15605.0
 20
44780.0
 10
15605.0
 20
44330.0
  0
LWPOLYLINE
  5
2BE
100
AcDbEntity
  8
SOLDERMASK_PADS_TOP
100
AcDbPolyline
 90
        4
 70
         1
 10
15855.0
 20
44330.0
 10
15855.0
 20
44780.0
 10
16105.0
 20
44780.0
 10
16105.0
 20
44330.0
  0
LWPOLYLINE
  5
2BF
100
AcDbEntity
  8
SOLDERMASK_PADS_TOP
100
AcDbPolyline
 90
        4
 70
         1
 10
16355.0
 20
44330.0
 10
16355.0
 20
44780.0
 10
16605.0
 20
44780.0
 10
16605.0
 20
44330.0
  0
LWPOLYLINE
  5
2C0
100
AcDbEntity
  8
SOLDERMASK_PADS_TOP
100
AcDbPolyline
 90
        4
 70
         1
 10
16855.0
 20
44330.0
 10
16855.0
 20
44780.0
 10
17105.0
 20
44780.0
 10
17105.0
 20
44330.0
  0
LWPOLYLINE
  5
2C1
100
AcDbEntity
  8
SOLDERMASK_PADS_TOP
100
AcDbPolyline
 90
        4
 70
         1
 10
16855.0
 20
45180.0
 10
16855.0
 20
45630.0
 10
17105.0
 20
45630.0
 10
17105.0
 20
45180.0
  0
LWPOLYLINE
  5
2C2
100
AcDbEntity
  8
SOLDERMASK_PADS_TOP
100
AcDbPolyline
 90
        4
 70
         1
 10
16355.0
 20
45180.0
 10
16355.0
 20
45630.0
 10
16605.0
 20
45630.0
 10
16605.0
 20
45180.0
  0
LWPOLYLINE
  5
2C3
100
AcDbEntity
  8
SOLDERMASK_PADS_TOP
100
AcDbPolyline
 90
        4
 70
         1
 10
15855.0
 20
45180.0
 10
15855.0
 20
45630.0
 10
16105.0
 20
45630.0
 10
16105.0
 20
45180.0
  0
LWPOLYLINE
  5
2C4
100
AcDbEntity
  8
SOLDERMASK_PADS_TOP
100
AcDbPolyline
 90
        4
 70
         1
 10
15355.0
 20
45180.0
 10
15355.0
 20
45630.0
 10
15605.0
 20
45630.0
 10
15605.0
 20
45180.0
  0
LWPOLYLINE
  5
2C5
100
AcDbEntity
  8
SOLDERMASK_PADS_TOP
100
AcDbPolyline
 90
        4
 70
         1
 10
20700.0
 20
43240.0
 10
20700.0
 20
43640.0
 10
21200.0
 20
43640.0
 10
21200.0
 20
43240.0
  0
LWPOLYLINE
  5
2C6
100
AcDbEntity
  8
SOLDERMASK_PADS_TOP
100
AcDbPolyline
 90
        4
 70
         1
 10
20700.0
 20
44040.0
 10
20700.0
 20
44440.0
 10
21200.0
 20
44440.0
 10
21200.0
 20
44040.0
  0
LWPOLYLINE
  5
2C7
100
AcDbEntity
  8
SOLDERMASK_PADS_TOP
100
AcDbPolyline
 90
        4
 70
         1
 10
19745.999
 20
43240.0
 10
19745.999
 20
43640.0
 10
20245.999
 20
43640.0
 10
20245.999
 20
43240.0
  0
LWPOLYLINE
  5
2C8
100
AcDbEntity
  8
SOLDERMASK_PADS_TOP
100
AcDbPolyline
 90
        4
 70
         1
 10
19745.999
 20
44040.0
 10
19745.999
 20
44440.0
 10
20245.999
 20
44440.0
 10
20245.999
 20
44040.0
  0
LWPOLYLINE
  5
2C9
100
AcDbEntity
  8
SOLDERMASK_PADS_TOP
100
AcDbPolyline
 90
        4
 70
         1
 10
18791.998
 20
43240.0
 10
18791.998
 20
43640.0
 10
19291.998
 20
43640.0
 10
19291.998
 20
43240.0
  0
LWPOLYLINE
  5
2CA
100
AcDbEntity
  8
SOLDERMASK_PADS_TOP
100
AcDbPolyline
 90
        4
 70
         1
 10
18791.998
 20
44040.0
 10
18791.998
 20
44440.0
 10
19291.998
 20
44440.0
 10
19291.998
 20
44040.0
  0
LWPOLYLINE
  5
2CB
100
AcDbEntity
  8
SOLDERMASK_PADS_TOP
100
AcDbPolyline
 90
        4
 70
         1
 10
17837.997
 20
43240.0
 10
17837.997
 20
43640.0
 10
18337.997
 20
43640.0
 10
18337.997
 20
43240.0
  0
LWPOLYLINE
  5
2CC
100
AcDbEntity
  8
SOLDERMASK_PADS_TOP
100
AcDbPolyline
 90
        4
 70
         1
 10
17837.997
 20
44040.0
 10
17837.997
 20
44440.0
 10
18337.997
 20
44440.0
 10
18337.997
 20
44040.0
  0
LWPOLYLINE
  5
2CD
100
AcDbEntity
  8
SOLDERMASK_PADS_TOP
100
AcDbPolyline
 90
        4
 70
         1
 10
12575.0
 20
44330.0
 10
12575.0
 20
44780.0
 10
12825.0
 20
44780.0
 10
12825.0
 20
44330.0
  0
LWPOLYLINE
  5
2CE
100
AcDbEntity
  8
SOLDERMASK_PADS_TOP
100
AcDbPolyline
 90
        4
 70
         1
 10
13075.0
 20
44330.0
 10
13075.0
 20
44780.0
 10
13325.0
 20
44780.0
 10
13325.0
 20
44330.0
  0
LWPOLYLINE
  5
2CF
100
AcDbEntity
  8
SOLDERMASK_PADS_TOP
100
AcDbPolyline
 90
        4
 70
         1
 10
13575.0
 20
44330.0
 10
13575.0
 20
44780.0
 10
13825.0
 20
44780.0
 10
13825.0
 20
44330.0
  0
LWPOLYLINE
  5
2D0
100
AcDbEntity
  8
SOLDERMASK_PADS_TOP
100
AcDbPolyline
 90
        4
 70
         1
 10
14075.0
 20
44330.0
 10
14075.0
 20
44780.0
 10
14325.0
 20
44780.0
 10
14325.0
 20
44330.0
  0
LWPOLYLINE
  5
2D1
100
AcDbEntity
  8
SOLDERMASK_PADS_TOP
100
AcDbPolyline
 90
        4
 70
         1
 10
14075.0
 20
45180.0
 10
14075.0
 20
45630.0
 10
14325.0
 20
45630.0
 10
14325.0
 20
45180.0
  0
LWPOLYLINE
  5
2D2
100
AcDbEntity
  8
SOLDERMASK_PADS_TOP
100
AcDbPolyline
 90
        4
 70
         1
 10
13575.0
 20
45180.0
 10
13575.0
 20
45630.0
 10
13825.0
 20
45630.0
 10
13825.0
 20
45180.0
  0
LWPOLYLINE
  5
2D3
100
AcDbEntity
  8
SOLDERMASK_PADS_TOP
100
AcDbPolyline
 90
        4
 70
         1
 10
13075.0
 20
45180.0
 10
13075.0
 20
45630.0
 10
13325.0
 20
45630.0
 10
13325.0
 20
45180.0
  0
LWPOLYLINE
  5
2D4
100
AcDbEntity
  8
SOLDERMASK_PADS_TOP
100
AcDbPolyline
 90
        4
 70
         1
 10
12575.0
 20
45180.0
 10
12575.0
 20
45630.0
 10
12825.0
 20
45630.0
 10
12825.0
 20
45180.0
  0
LWPOLYLINE
  5
2D5
100
AcDbEntity
  8
SOLDERMASK_PADS_TOP
100
AcDbPolyline
 90
        4
 70
         1
 10
9380.0
 20
10960.0
 10
9380.0
 20
11460.0
 10
9780.0
 20
11460.0
 10
9780.0
 20
10960.0
  0
LWPOLYLINE
  5
2D6
100
AcDbEntity
  8
SOLDERMASK_PADS_TOP
100
AcDbPolyline
 90
        4
 70
         1
 10
8580.0
 20
10960.0
 10
8580.0
 20
11460.0
 10
8980.0
 20
11460.0
 10
8980.0
 20
10960.0
  0
LWPOLYLINE
  5
2D7
100
AcDbEntity
  8
SOLDERMASK_PADS_TOP
100
AcDbPolyline
 90
        4
 70
         1
 10
10980.0
 20
40930.0
 10
10980.0
 20
41430.0
 10
11380.0
 20
41430.0
 10
11380.0
 20
40930.0
  0
LWPOLYLINE
  5
2D8
100
AcDbEntity
  8
SOLDERMASK_PADS_TOP
100
AcDbPolyline
 90
        4
 70
         1
 10
10180.0
 20
40930.0
 10
10180.0
 20
41430.0
 10
10580.0
 20
41430.0
 10
10580.0
 20
40930.0
  0
LWPOLYLINE
  5
2D9
100
AcDbEntity
  8
SOLDERMASK_PADS_TOP
100
AcDbPolyline
 90
        4
 70
         1
 10
18480.0
 20
7720.0
 10
18480.0
 20
8220.0
 10
18880.0
 20
8220.0
 10
18880.0
 20
7720.0
  0
LWPOLYLINE
  5
2DA
100
AcDbEntity
  8
SOLDERMASK_PADS_TOP
100
AcDbPolyline
 90
        4
 70
         1
 10
17680.0
 20
7720.0
 10
17680.0
 20
8220.0
 10
18080.0
 20
8220.0
 10
18080.0
 20
7720.0
  0
LWPOLYLINE
  5
2DB
100
AcDbEntity
  8
SOLDERMASK_PADS_TOP
100
AcDbPolyline
 90
        4
 70
         1
 10
8260.0
 20
51280.0
 10
8260.0
 20
51680.0
 10
8760.0
 20
51680.0
 10
8760.0
 20
51280.0
  0
LWPOLYLINE
  5
2DC
100
AcDbEntity
  8
SOLDERMASK_PADS_TOP
100
AcDbPolyline
 90
        4
 70
         1
 10
8260.0
 20
50480.0
 10
8260.0
 20
50880.0
 10
8760.0
 20
50880.0
 10
8760.0
 20
50480.0
  0
LWPOLYLINE
  5
2DD
100
AcDbEntity
  8
SOLDERMASK_PADS_TOP
100
AcDbPolyline
 90
        4
 70
         1
 10
8260.0
 20
47570.0
 10
8260.0
 20
47970.0
 10
8760.0
 20
47970.0
 10
8760.0
 20
47570.0
  0
LWPOLYLINE
  5
2DE
100
AcDbEntity
  8
SOLDERMASK_PADS_TOP
100
AcDbPolyline
 90
        4
 70
         1
 10
8260.0
 20
46770.0
 10
8260.0
 20
47170.0
 10
8760.0
 20
47170.0
 10
8760.0
 20
46770.0
  0
LWPOLYLINE
  5
2DF
100
AcDbEntity
  8
SOLDERMASK_PADS_TOP
100
AcDbPolyline
 90
        4
 70
         1
 10
4060.0
 20
52340.0
 10
4060.0
 20
52840.0
 10
4460.0
 20
52840.0
 10
4460.0
 20
52340.0
  0
LWPOLYLINE
  5
2E0
100
AcDbEntity
  8
SOLDERMASK_PADS_TOP
100
AcDbPolyline
 90
        4
 70
         1
 10
3260.0
 20
52340.0
 10
3260.0
 20
52840.0
 10
3660.0
 20
52840.0
 10
3660.0
 20
52340.0
  0
LWPOLYLINE
  5
2E1
100
AcDbEntity
  8
SOLDERMASK_PADS_TOP
100
AcDbPolyline
 90
        4
 70
         1
 10
20080.0
 20
55890.0
 10
20080.0
 20
56390.0
 10
20480.0
 20
56390.0
 10
20480.0
 20
55890.0
  0
LWPOLYLINE
  5
2E2
100
AcDbEntity
  8
SOLDERMASK_PADS_TOP
100
AcDbPolyline
 90
        4
 70
         1
 10
19280.0
 20
55890.0
 10
19280.0
 20
56390.0
 10
19680.0
 20
56390.0
 10
19680.0
 20
55890.0
  0
LWPOLYLINE
  5
2E3
100
AcDbEntity
  8
SOLDERMASK_PADS_TOP
100
AcDbPolyline
 90
        4
 70
         1
 10
20890.0
 20
57090.0
 10
20890.0
 20
57590.0
 10
21290.0
 20
57590.0
 10
21290.0
 20
57090.0
  0
LWPOLYLINE
  5
2E4
100
AcDbEntity
  8
SOLDERMASK_PADS_TOP
100
AcDbPolyline
 90
        4
 70
         1
 10
20090.0
 20
57090.0
 10
20090.0
 20
57590.0
 10
20490.0
 20
57590.0
 10
20490.0
 20
57090.0
  0
LWPOLYLINE
  5
2E5
100
AcDbEntity
  8
SOLDERMASK_PADS_TOP
100
AcDbPolyline
 90
        4
 70
         1
 10
20840.0
 20
58220.0
 10
20840.0
 20
58720.0
 10
21240.0
 20
58720.0
 10
21240.0
 20
58220.0
  0
LWPOLYLINE
  5
2E6
100
AcDbEntity
  8
SOLDERMASK_PADS_TOP
100
AcDbPolyline
 90
        4
 70
         1
 10
21640.0
 20
58220.0
 10
21640.0
 20
58720.0
 10
22040.0
 20
58720.0
 10
22040.0
 20
58220.0
  0
LWPOLYLINE
  5
2E7
100
AcDbEntity
  8
SOLDERMASK_PADS_TOP
100
AcDbPolyline
 90
        4
 70
         1
 10
19380.0
 20
54470.0
 10
19380.0
 20
54970.0
 10
19780.0
 20
54970.0
 10
19780.0
 20
54470.0
  0
LWPOLYLINE
  5
2E8
100
AcDbEntity
  8
SOLDERMASK_PADS_TOP
100
AcDbPolyline
 90
        4
 70
         1
 10
18580.0
 20
54470.0
 10
18580.0
 20
54970.0
 10
18980.0
 20
54970.0
 10
18980.0
 20
54470.0
  0
LWPOLYLINE
  5
2E9
100
AcDbEntity
  8
SOLDERMASK_PADS_TOP
100
AcDbPolyline
 90
        4
 70
         1
 10
9050.0
 20
54190.0
 10
9050.0
 20
54690.0
 10
9450.0
 20
54690.0
 10
9450.0
 20
54190.0
  0
LWPOLYLINE
  5
2EA
100
AcDbEntity
  8
SOLDERMASK_PADS_TOP
100
AcDbPolyline
 90
        4
 70
         1
 10
9850.0
 20
54190.0
 10
9850.0
 20
54690.0
 10
10250.0
 20
54690.0
 10
10250.0
 20
54190.0
  0
LWPOLYLINE
  5
2EB
100
AcDbEntity
  8
SOLDERMASK_PADS_TOP
100
AcDbPolyline
 90
        4
 70
         1
 10
8895.0
 20
42210.0
 10
8895.0
 20
43710.0
 10
9695.0
 20
43710.0
 10
9695.0
 20
42210.0
  0
LWPOLYLINE
  5
2EC
100
AcDbEntity
  8
SOLDERMASK_PADS_TOP
100
AcDbPolyline
 90
        4
 70
         1
 10
11545.0
 20
42210.0
 10
11545.0
 20
43710.0
 10
12345.0
 20
43710.0
 10
12345.0
 20
42210.0
  0
LWPOLYLINE
  5
2ED
100
AcDbEntity
  8
SOLDERMASK_PADS_TOP
100
AcDbPolyline
 90
        4
 70
         1
 10
10190.0
 20
44300.0
 10
10190.0
 20
44800.0
 10
10590.0
 20
44800.0
 10
10590.0
 20
44300.0
  0
LWPOLYLINE
  5
2EE
100
AcDbEntity
  8
SOLDERMASK_PADS_TOP
100
AcDbPolyline
 90
        4
 70
         1
 10
9390.0
 20
44300.0
 10
9390.0
 20
44800.0
 10
9790.0
 20
44800.0
 10
9790.0
 20
44300.0
  0
LWPOLYLINE
  5
2EF
100
AcDbEntity
  8
SOLDERMASK_PADS_TOP
100
AcDbPolyline
 90
        4
 70
         1
 10
11360.0
 20
45310.0
 10
11360.0
 20
45810.0
 10
11760.0
 20
45810.0
 10
11760.0
 20
45310.0
  0
LWPOLYLINE
  5
2F0
100
AcDbEntity
  8
SOLDERMASK_PADS_TOP
100
AcDbPolyline
 90
        4
 70
         1
 10
10560.0
 20
45310.0
 10
10560.0
 20
45810.0
 10
10960.0
 20
45810.0
 10
10960.0
 20
45310.0
  0
LWPOLYLINE
  5
2F1
100
AcDbEntity
  8
SOLDERMASK_PADS_TOP
100
AcDbPolyline
 90
        4
 70
         1
 10
10165.0
 20
46460.0
 10
10165.0
 20
47660.0
 10
10435.0
 20
47660.0
 10
10435.0
 20
46460.0
  0
LWPOLYLINE
  5
2F2
100
AcDbEntity
  8
SOLDERMASK_PADS_TOP
100
AcDbPolyline
 90
        4
 70
         1
 10
10665.0
 20
46460.0
 10
10665.0
 20
47660.0
 10
10935.0
 20
47660.0
 10
10935.0
 20
46460.0
  0
LWPOLYLINE
  5
2F3
100
AcDbEntity
  8
SOLDERMASK_PADS_TOP
100
AcDbPolyline
 90
        4
 70
         1
 10
11165.0
 20
46460.0
 10
11165.0
 20
47660.0
 10
11435.0
 20
47660.0
 10
11435.0
 20
46460.0
  0
LWPOLYLINE
  5
2F4
100
AcDbEntity
  8
SOLDERMASK_PADS_TOP
100
AcDbPolyline
 90
        4
 70
         1
 10
11665.0
 20
46460.0
 10
11665.0
 20
47660.0
 10
11935.0
 20
47660.0
 10
11935.0
 20
46460.0
  0
LWPOLYLINE
  5
2F5
100
AcDbEntity
  8
SOLDERMASK_PADS_TOP
100
AcDbPolyline
 90
        4
 70
         1
 10
12165.0
 20
46460.0
 10
12165.0
 20
47660.0
 10
12435.0
 20
47660.0
 10
12435.0
 20
46460.0
  0
LWPOLYLINE
  5
2F6
100
AcDbEntity
  8
SOLDERMASK_PADS_TOP
100
AcDbPolyline
 90
        4
 70
         1
 10
12665.0
 20
46460.0
 10
12665.0
 20
47660.0
 10
12935.0
 20
47660.0
 10
12935.0
 20
46460.0
  0
LWPOLYLINE
  5
2F7
100
AcDbEntity
  8
SOLDERMASK_PADS_TOP
100
AcDbPolyline
 90
        4
 70
         1
 10
13165.0
 20
46460.0
 10
13165.0
 20
47660.0
 10
13435.0
 20
47660.0
 10
13435.0
 20
46460.0
  0
LWPOLYLINE
  5
2F8
100
AcDbEntity
  8
SOLDERMASK_PADS_TOP
100
AcDbPolyline
 90
        4
 70
         1
 10
13665.0
 20
46460.0
 10
13665.0
 20
47660.0
 10
13935.0
 20
47660.0
 10
13935.0
 20
46460.0
  0
LWPOLYLINE
  5
2F9
100
AcDbEntity
  8
SOLDERMASK_PADS_TOP
100
AcDbPolyline
 90
        4
 70
         1
 10
14165.0
 20
46460.0
 10
14165.0
 20
47660.0
 10
14435.0
 20
47660.0
 10
14435.0
 20
46460.0
  0
LWPOLYLINE
  5
2FA
100
AcDbEntity
  8
SOLDERMASK_PADS_TOP
100
AcDbPolyline
 90
        4
 70
         1
 10
14665.0
 20
46460.0
 10
14665.0
 20
47660.0
 10
14935.0
 20
47660.0
 10
14935.0
 20
46460.0
  0
LWPOLYLINE
  5
2FB
100
AcDbEntity
  8
SOLDERMASK_PADS_TOP
100
AcDbPolyline
 90
        4
 70
         1
 10
15165.0
 20
46460.0
 10
15165.0
 20
47660.0
 10
15435.0
 20
47660.0
 10
15435.0
 20
46460.0
  0
LWPOLYLINE
  5
2FC
100
AcDbEntity
  8
SOLDERMASK_PADS_TOP
100
AcDbPolyline
 90
        4
 70
         1
 10
15665.0
 20
46460.0
 10
15665.0
 20
47660.0
 10
15935.0
 20
47660.0
 10
15935.0
 20
46460.0
  0
LWPOLYLINE
  5
2FD
100
AcDbEntity
  8
SOLDERMASK_PADS_TOP
100
AcDbPolyline
 90
        4
 70
         1
 10
16165.0
 20
46460.0
 10
16165.0
 20
47660.0
 10
16435.0
 20
47660.0
 10
16435.0
 20
46460.0
  0
LWPOLYLINE
  5
2FE
100
AcDbEntity
  8
SOLDERMASK_PADS_TOP
100
AcDbPolyline
 90
        4
 70
         1
 10
16665.0
 20
46460.0
 10
16665.0
 20
47660.0
 10
16935.0
 20
47660.0
 10
16935.0
 20
46460.0
  0
LWPOLYLINE
  5
2FF
100
AcDbEntity
  8
SOLDERMASK_PADS_TOP
100
AcDbPolyline
 90
        4
 70
         1
 10
17165.0
 20
46460.0
 10
17165.0
 20
47660.0
 10
17435.0
 20
47660.0
 10
17435.0
 20
46460.0
  0
LWPOLYLINE
  5
300
100
AcDbEntity
  8
SOLDERMASK_PADS_TOP
100
AcDbPolyline
 90
        4
 70
         1
 10
17665.0
 20
46460.0
 10
17665.0
 20
47660.0
 10
17935.0
 20
47660.0
 10
17935.0
 20
46460.0
  0
LWPOLYLINE
  5
301
100
AcDbEntity
  8
SOLDERMASK_PADS_TOP
100
AcDbPolyline
 90
        4
 70
         1
 10
18165.0
 20
46460.0
 10
18165.0
 20
47660.0
 10
18435.0
 20
47660.0
 10
18435.0
 20
46460.0
  0
LWPOLYLINE
  5
302
100
AcDbEntity
  8
SOLDERMASK_PADS_TOP
100
AcDbPolyline
 90
        4
 70
         1
 10
18665.0
 20
46460.0
 10
18665.0
 20
47660.0
 10
18935.0
 20
47660.0
 10
18935.0
 20
46460.0
  0
LWPOLYLINE
  5
303
100
AcDbEntity
  8
SOLDERMASK_PADS_TOP
100
AcDbPolyline
 90
        4
 70
         1
 10
19165.0
 20
46460.0
 10
19165.0
 20
47660.0
 10
19435.0
 20
47660.0
 10
19435.0
 20
46460.0
  0
LWPOLYLINE
  5
304
100
AcDbEntity
  8
SOLDERMASK_PADS_TOP
100
AcDbPolyline
 90
        4
 70
         1
 10
19165.0
 20
52360.0
 10
19165.0
 20
53560.0
 10
19435.0
 20
53560.0
 10
19435.0
 20
52360.0
  0
LWPOLYLINE
  5
305
100
AcDbEntity
  8
SOLDERMASK_PADS_TOP
100
AcDbPolyline
 90
        4
 70
         1
 10
18665.0
 20
52360.0
 10
18665.0
 20
53560.0
 10
18935.0
 20
53560.0
 10
18935.0
 20
52360.0
  0
LWPOLYLINE
  5
306
100
AcDbEntity
  8
SOLDERMASK_PADS_TOP
100
AcDbPolyline
 90
        4
 70
         1
 10
18165.0
 20
52360.0
 10
18165.0
 20
53560.0
 10
18435.0
 20
53560.0
 10
18435.0
 20
52360.0
  0
LWPOLYLINE
  5
307
100
AcDbEntity
  8
SOLDERMASK_PADS_TOP
100
AcDbPolyline
 90
        4
 70
         1
 10
17665.0
 20
52360.0
 10
17665.0
 20
53560.0
 10
17935.0
 20
53560.0
 10
17935.0
 20
52360.0
  0
LWPOLYLINE
  5
308
100
AcDbEntity
  8
SOLDERMASK_PADS_TOP
100
AcDbPolyline
 90
        4
 70
         1
 10
17165.0
 20
52360.0
 10
17165.0
 20
53560.0
 10
17435.0
 20
53560.0
 10
17435.0
 20
52360.0
  0
LWPOLYLINE
  5
309
100
AcDbEntity
  8
SOLDERMASK_PADS_TOP
100
AcDbPolyline
 90
        4
 70
         1
 10
16665.0
 20
52360.0
 10
16665.0
 20
53560.0
 10
16935.0
 20
53560.0
 10
16935.0
 20
52360.0
  0
LWPOLYLINE
  5
30A
100
AcDbEntity
  8
SOLDERMASK_PADS_TOP
100
AcDbPolyline
 90
        4
 70
         1
 10
16165.0
 20
52360.0
 10
16165.0
 20
53560.0
 10
16435.0
 20
53560.0
 10
16435.0
 20
52360.0
  0
LWPOLYLINE
  5
30B
100
AcDbEntity
  8
SOLDERMASK_PADS_TOP
100
AcDbPolyline
 90
        4
 70
         1
 10
15665.0
 20
52360.0
 10
15665.0
 20
53560.0
 10
15935.0
 20
53560.0
 10
15935.0
 20
52360.0
  0
LWPOLYLINE
  5
30C
100
AcDbEntity
  8
SOLDERMASK_PADS_TOP
100
AcDbPolyline
 90
        4
 70
         1
 10
15165.0
 20
52360.0
 10
15165.0
 20
53560.0
 10
15435.0
 20
53560.0
 10
15435.0
 20
52360.0
  0
LWPOLYLINE
  5
30D
100
AcDbEntity
  8
SOLDERMASK_PADS_TOP
100
AcDbPolyline
 90
        4
 70
         1
 10
14665.0
 20
52360.0
 10
14665.0
 20
53560.0
 10
14935.0
 20
53560.0
 10
14935.0
 20
52360.0
  0
LWPOLYLINE
  5
30E
100
AcDbEntity
  8
SOLDERMASK_PADS_TOP
100
AcDbPolyline
 90
        4
 70
         1
 10
14165.0
 20
52360.0
 10
14165.0
 20
53560.0
 10
14435.0
 20
53560.0
 10
14435.0
 20
52360.0
  0
LWPOLYLINE
  5
30F
100
AcDbEntity
  8
SOLDERMASK_PADS_TOP
100
AcDbPolyline
 90
        4
 70
         1
 10
13665.0
 20
52360.0
 10
13665.0
 20
53560.0
 10
13935.0
 20
53560.0
 10
13935.0
 20
52360.0
  0
LWPOLYLINE
  5
310
100
AcDbEntity
  8
SOLDERMASK_PADS_TOP
100
AcDbPolyline
 90
        4
 70
         1
 10
13165.0
 20
52360.0
 10
13165.0
 20
53560.0
 10
13435.0
 20
53560.0
 10
13435.0
 20
52360.0
  0
LWPOLYLINE
  5
311
100
AcDbEntity
  8
SOLDERMASK_PADS_TOP
100
AcDbPolyline
 90
        4
 70
         1
 10
12665.0
 20
52360.0
 10
12665.0
 20
53560.0
 10
12935.0
 20
53560.0
 10
12935.0
 20
52360.0
  0
LWPOLYLINE
  5
312
100
AcDbEntity
  8
SOLDERMASK_PADS_TOP
100
AcDbPolyline
 90
        4
 70
         1
 10
12165.0
 20
52360.0
 10
12165.0
 20
53560.0
 10
12435.0
 20
53560.0
 10
12435.0
 20
52360.0
  0
LWPOLYLINE
  5
313
100
AcDbEntity
  8
SOLDERMASK_PADS_TOP
100
AcDbPolyline
 90
        4
 70
         1
 10
11665.0
 20
52360.0
 10
11665.0
 20
53560.0
 10
11935.0
 20
53560.0
 10
11935.0
 20
52360.0
  0
LWPOLYLINE
  5
314
100
AcDbEntity
  8
SOLDERMASK_PADS_TOP
100
AcDbPolyline
 90
        4
 70
         1
 10
11165.0
 20
52360.0
 10
11165.0
 20
53560.0
 10
11435.0
 20
53560.0
 10
11435.0
 20
52360.0
  0
LWPOLYLINE
  5
315
100
AcDbEntity
  8
SOLDERMASK_PADS_TOP
100
AcDbPolyline
 90
        4
 70
         1
 10
10665.0
 20
52360.0
 10
10665.0
 20
53560.0
 10
10935.0
 20
53560.0
 10
10935.0
 20
52360.0
  0
LWPOLYLINE
  5
316
100
AcDbEntity
  8
SOLDERMASK_PADS_TOP
100
AcDbPolyline
 90
        4
 70
         1
 10
10165.0
 20
52360.0
 10
10165.0
 20
53560.0
 10
10435.0
 20
53560.0
 10
10435.0
 20
52360.0
  0
CIRCLE
  5
317
100
AcDbEntity
  8
SOLDERMASK_PADS_TOP
100
AcDbCircle
 10
6700.0
 20
3400.0
 30
0.0
 40
625.0
  0
CIRCLE
  5
318
100
AcDbEntity
  8
SOLDERMASK_PADS_TOP
100
AcDbCircle
 10
6700.0
 20
5400.0
 30
0.0
 40
625.0
  0
CIRCLE
  5
319
100
AcDbEntity
  8
SOLDERMASK_PADS_TOP
100
AcDbCircle
 10
8700.0
 20
3400.0
 30
0.0
 40
625.0
  0
CIRCLE
  5
31A
100
AcDbEntity
  8
SOLDERMASK_PADS_TOP
100
AcDbCircle
 10
8700.0
 20
5400.0
 30
0.0
 40
625.0
  0
CIRCLE
  5
31B
100
AcDbEntity
  8
SOLDERMASK_PADS_TOP
100
AcDbCircle
 10
10700.0
 20
3400.0
 30
0.0
 40
625.0
  0
CIRCLE
  5
31C
100
AcDbEntity
  8
SOLDERMASK_PADS_TOP
100
AcDbCircle
 10
10700.0
 20
5400.0
 30
0.0
 40
625.0
  0
CIRCLE
  5
31D
100
AcDbEntity
  8
SOLDERMASK_PADS_TOP
100
AcDbCircle
 10
12700.0
 20
3400.0
 30
0.0
 40
625.0
  0
CIRCLE
  5
31E
100
AcDbEntity
  8
SOLDERMASK_PADS_TOP
100
AcDbCircle
 10
12700.0
 20
5400.0
 30
0.0
 40
625.0
  0
CIRCLE
  5
31F
100
AcDbEntity
  8
SOLDERMASK_PADS_TOP
100
AcDbCircle
 10
14700.0
 20
3400.0
 30
0.0
 40
625.0
  0
CIRCLE
  5
320
100
AcDbEntity
  8
SOLDERMASK_PADS_TOP
100
AcDbCircle
 10
14700.0
 20
5400.0
 30
0.0
 40
625.0
  0
CIRCLE
  5
321
100
AcDbEntity
  8
SOLDERMASK_PADS_TOP
100
AcDbCircle
 10
16700.0
 20
3400.0
 30
0.0
 40
625.0
  0
CIRCLE
  5
322
100
AcDbEntity
  8
SOLDERMASK_PADS_TOP
100
AcDbCircle
 10
16700.0
 20
5400.0
 30
0.0
 40
625.0
  0
CIRCLE
  5
323
100
AcDbEntity
  8
SOLDERMASK_PADS_TOP
100
AcDbCircle
 10
18700.0
 20
3400.0
 30
0.0
 40
625.0
  0
CIRCLE
  5
324
100
AcDbEntity
  8
SOLDERMASK_PADS_TOP
100
AcDbCircle
 10
18700.0
 20
5400.0
 30
0.0
 40
625.0
  0
CIRCLE
  5
325
100
AcDbEntity
  8
SOLDERMASK_PADS_TOP
100
AcDbCircle
 10
20700.0
 20
3400.0
 30
0.0
 40
625.0
  0
CIRCLE
  5
326
100
AcDbEntity
  8
SOLDERMASK_PADS_TOP
100
AcDbCircle
 10
20700.0
 20
5400.0
 30
0.0
 40
625.0
  0
CIRCLE
  5
327
100
AcDbEntity
  8
SOLDERMASK_PADS_TOP
100
AcDbCircle
 10
3000.0
 20
69000.0
 30
0.0
 40
2000.0
  0
CIRCLE
  5
328
100
AcDbEntity
  8
SOLDERMASK_PADS_TOP
100
AcDbCircle
 10
24000.0
 20
45000.0
 30
0.0
 40
2000.0
  0
CIRCLE
  5
329
100
AcDbEntity
  8
SOLDERMASK_PADS_TOP
100
AcDbCircle
 10
24000.0
 20
3000.0
 30
0.0
 40
2000.0
  0
CIRCLE
  5
32A
100
AcDbEntity
  8
SOLDERMASK_PADS_TOP
100
AcDbCircle
 10
2800.0
 20
3000.0
 30
0.0
 40
2000.0
  0
CIRCLE
  5
32B
100
AcDbEntity
  8
SOLDERMASK_PADS_TOP
100
AcDbCircle
 10
5500.0
 20
11930.0
 30
0.0
 40
625.0
  0
CIRCLE
  5
32C
100
AcDbEntity
  8
SOLDERMASK_PADS_TOP
100
AcDbCircle
 10
3500.0
 20
11930.0
 30
0.0
 40
625.0
  0
CIRCLE
  5
32D
100
AcDbEntity
  8
SOLDERMASK_PADS_TOP
100
AcDbCircle
 10
5500.0
 20
13930.0
 30
0.0
 40
625.0
  0
CIRCLE
  5
32E
100
AcDbEntity
  8
SOLDERMASK_PADS_TOP
100
AcDbCircle
 10
3500.0
 20
13930.0
 30
0.0
 40
625.0
  0
CIRCLE
  5
32F
100
AcDbEntity
  8
SOLDERMASK_PADS_TOP
100
AcDbCircle
 10
5500.0
 20
15930.0
 30
0.0
 40
625.0
  0
CIRCLE
  5
330
100
AcDbEntity
  8
SOLDERMASK_PADS_TOP
100
AcDbCircle
 10
3500.0
 20
15930.0
 30
0.0
 40
625.0
  0
CIRCLE
  5
331
100
AcDbEntity
  8
SOLDERMASK_PADS_TOP
100
AcDbCircle
 10
5500.0
 20
17930.0
 30
0.0
 40
625.0
  0
CIRCLE
  5
332
100
AcDbEntity
  8
SOLDERMASK_PADS_TOP
100
AcDbCircle
 10
3500.0
 20
17930.0
 30
0.0
 40
625.0
  0
CIRCLE
  5
333
100
AcDbEntity
  8
SOLDERMASK_PADS_TOP
100
AcDbCircle
 10
5500.0
 20
19930.0
 30
0.0
 40
625.0
  0
CIRCLE
  5
334
100
AcDbEntity
  8
SOLDERMASK_PADS_TOP
100
AcDbCircle
 10
3500.0
 20
19930.0
 30
0.0
 40
625.0
  0
CIRCLE
  5
335
100
AcDbEntity
  8
SOLDERMASK_PADS_TOP
100
AcDbCircle
 10
5500.0
 20
21930.0
 30
0.0
 40
625.0
  0
CIRCLE
  5
336
100
AcDbEntity
  8
SOLDERMASK_PADS_TOP
100
AcDbCircle
 10
3500.0
 20
21930.0
 30
0.0
 40
625.0
  0
CIRCLE
  5
337
100
AcDbEntity
  8
SOLDERMASK_PADS_TOP
100
AcDbCircle
 10
5500.0
 20
23930.0
 30
0.0
 40
625.0
  0
CIRCLE
  5
338
100
AcDbEntity
  8
SOLDERMASK_PADS_TOP
100
AcDbCircle
 10
3500.0
 20
23930.0
 30
0.0
 40
625.0
  0
CIRCLE
  5
339
100
AcDbEntity
  8
SOLDERMASK_PADS_TOP
100
AcDbCircle
 10
5500.0
 20
25930.0
 30
0.0
 40
625.0
  0
CIRCLE
  5
33A
100
AcDbEntity
  8
SOLDERMASK_PADS_TOP
100
AcDbCircle
 10
3500.0
 20
25930.0
 30
0.0
 40
625.0
  0
CIRCLE
  5
33B
100
AcDbEntity
  8
SOLDERMASK_PADS_TOP
100
AcDbCircle
 10
5500.0
 20
27930.0
 30
0.0
 40
625.0
  0
CIRCLE
  5
33C
100
AcDbEntity
  8
SOLDERMASK_PADS_TOP
100
AcDbCircle
 10
3500.0
 20
27930.0
 30
0.0
 40
625.0
  0
CIRCLE
  5
33D
100
AcDbEntity
  8
SOLDERMASK_PADS_TOP
100
AcDbCircle
 10
5500.0
 20
29930.0
 30
0.0
 40
625.0
  0
CIRCLE
  5
33E
100
AcDbEntity
  8
SOLDERMASK_PADS_TOP
100
AcDbCircle
 10
3500.0
 20
29930.0
 30
0.0
 40
625.0
  0
CIRCLE
  5
33F
100
AcDbEntity
  8
SOLDERMASK_PADS_TOP
100
AcDbCircle
 10
5500.0
 20
31930.0
 30
0.0
 40
625.0
  0
CIRCLE
  5
340
100
AcDbEntity
  8
SOLDERMASK_PADS_TOP
100
AcDbCircle
 10
3500.0
 20
31930.0
 30
0.0
 40
625.0
  0
CIRCLE
  5
341
100
AcDbEntity
  8
SOLDERMASK_PADS_TOP
100
AcDbCircle
 10
5500.0
 20
33930.0
 30
0.0
 40
625.0
  0
CIRCLE
  5
342
100
AcDbEntity
  8
SOLDERMASK_PADS_TOP
100
AcDbCircle
 10
3500.0
 20
33930.0
 30
0.0
 40
625.0
  0
CIRCLE
  5
343
100
AcDbEntity
  8
SOLDERMASK_PADS_TOP
100
AcDbCircle
 10
5500.0
 20
35930.0
 30
0.0
 40
625.0
  0
CIRCLE
  5
344
100
AcDbEntity
  8
SOLDERMASK_PADS_TOP
100
AcDbCircle
 10
3500.0
 20
35930.0
 30
0.0
 40
625.0
  0
CIRCLE
  5
345
100
AcDbEntity
  8
SOLDERMASK_PADS_TOP
100
AcDbCircle
 10
5500.0
 20
37930.0
 30
0.0
 40
625.0
  0
CIRCLE
  5
346
100
AcDbEntity
  8
SOLDERMASK_PADS_TOP
100
AcDbCircle
 10
3500.0
 20
37930.0
 30
0.0
 40
625.0
  0
CIRCLE
  5
347
100
AcDbEntity
  8
SOLDERMASK_PADS_TOP
100
AcDbCircle
 10
5500.0
 20
39930.0
 30
0.0
 40
625.0
  0
CIRCLE
  5
348
100
AcDbEntity
  8
SOLDERMASK_PADS_TOP
100
AcDbCircle
 10
3500.0
 20
39930.0
 30
0.0
 40
625.0
  0
CIRCLE
  5
349
100
AcDbEntity
  8
SOLDERMASK_PADS_TOP
100
AcDbCircle
 10
5500.0
 20
41930.0
 30
0.0
 40
625.0
  0
CIRCLE
  5
34A
100
AcDbEntity
  8
SOLDERMASK_PADS_TOP
100
AcDbCircle
 10
3500.0
 20
41930.0
 30
0.0
 40
625.0
  0
CIRCLE
  5
34B
100
AcDbEntity
  8
SOLDERMASK_PADS_TOP
100
AcDbCircle
 10
5500.0
 20
43930.0
 30
0.0
 40
625.0
  0
CIRCLE
  5
34C
100
AcDbEntity
  8
SOLDERMASK_PADS_TOP
100
AcDbCircle
 10
3500.0
 20
43930.0
 30
0.0
 40
625.0
  0
CIRCLE
  5
34D
100
AcDbEntity
  8
SOLDERMASK_PADS_TOP
100
AcDbCircle
 10
5500.0
 20
45930.0
 30
0.0
 40
625.0
  0
CIRCLE
  5
34E
100
AcDbEntity
  8
SOLDERMASK_PADS_TOP
100
AcDbCircle
 10
3500.0
 20
45930.0
 30
0.0
 40
625.0
  0
CIRCLE
  5
34F
100
AcDbEntity
  8
SOLDERMASK_PADS_TOP
100
AcDbCircle
 10
5500.0
 20
47930.0
 30
0.0
 40
625.0
  0
CIRCLE
  5
350
100
AcDbEntity
  8
SOLDERMASK_PADS_TOP
100
AcDbCircle
 10
3500.0
 20
47930.0
 30
0.0
 40
625.0
  0
CIRCLE
  5
351
100
AcDbEntity
  8
SOLDERMASK_PADS_TOP
100
AcDbCircle
 10
5500.0
 20
49930.0
 30
0.0
 40
625.0
  0
CIRCLE
  5
352
100
AcDbEntity
  8
SOLDERMASK_PADS_TOP
100
AcDbCircle
 10
3500.0
 20
49930.0
 30
0.0
 40
625.0
  0
ENDSEC
  0
SECTION
  2
OBJECTS
  0
DICTIONARY
  5
19
100
AcDbDictionary
  3
ACAD_GROUP
350
1A
  3
ACAD_MLINESTYLE
350
1B
  0
DICTIONARY
  5
1A
102
{ACAD_REACTORS
330
19
102
}
100
AcDbDictionary
  0
DICTIONARY
  5
1B
102
{ACAD_REACTORS
330
19
102
}
100
AcDbDictionary
  3
STANDARD
350
1C
  0
MLINESTYLE
  5
1C
102
{ACAD_REACTORS
330
1B
102
}
100
AcDbMlineStyle
  2
STANDARD
 70
         0
  3

 62
         0
 51
90.0
 52
90.0
 71
         2
 49
0.5
 62
       256
  6
BYLAYER
 49
-0.5
 62
       256
  6
BYLAYER
  0
DICTIONARY
  5
22
102
{ACAD_REACTORS
330
19
102
}
100
AcDbDictionary
  0
ENDSEC
  0
EOF
