  0
SECTION
  2
HEADER
  9
$ACADVER
  1
AC1014
  9
$ACADMAINTVER
 70
         0
  9
$DWGCODEPAGE
  3
ANSI_1252
  9
$INSBASE
 10
0.0
 20
0.0
 30
0.0
  9
$EXTMIN
 10
0.0
 20
0.0
 30
0.0
  9
$EXTMAX
 10
26.9
 20
75.99
 30
0.0
  9
$LIMMIN
 10
0.0
 20
0.0
  9
$LIMMAX
 10
0.0
 20
0.0
  9
$ORTHOMODE
 70
         0
  9
$REGENMODE
 70
         1
  9
$FILLMODE
 70
         1
  9
$QTEXTMODE
 70
         0
  9
$MIRRTEXT
 70
         1
  9
$DRAGMODE
 70
         2
  9
$LTSCALE
 40
1.0
  9
$OSMODE
 70
         0
  9
$ATTMODE
 70
         1
  9
$TEXTSIZE
 40
0.2
  9
$TRACEWID
 40
0.05
  9
$TEXTSTYLE
  7
STANDARD
  9
$CLAYER
  8
0
  9
$CELTYPE
  6
CONTINUOUS
  9
$CECOLOR
 62
       256
  9
$CELTSCALE
 40
1.0
  9
$DELOBJ
 70
         1
  9
$DISPSILH
 70
         0
  9
$DIMSCALE
 40
1.0
  9
$DIMASZ
 40
0.18
  9
$DIMEXO
 40
0.0625
  9
$DIMDLI
 40
0.38
  9
$DIMRND
 40
0.0
  9
$DIMDLE
 40
0.0
  9
$DIMEXE
 40
0.18
  9
$DIMTP
 40
0.0
  9
$DIMTM
 40
0.0
  9
$DIMTXT
 40
0.18
  9
$DIMCEN
 40
0.09
  9
$DIMTSZ
 40
0.0
  9
$DIMTOL
 70
         0
  9
$DIMLIM
 70
         0
  9
$DIMTIH
 70
         1
  9
$DIMTOH
 70
         1
  9
$DIMSE1
 70
         0
  9
$DIMSE2
 70
         0
  9
$DIMTAD
 70
         0
  9
$DIMZIN
 70
         0
  9
$DIMBLK
  1

  9
$DIMASO
 70
         1
  9
$DIMSHO
 70
         1
  9
$DIMPOST
  1

  9
$DIMAPOST
  1

  9
$DIMALT
 70
         0
  9
$DIMALTD
 70
         2
  9
$DIMALTF
 40
25.4
  9
$DIMLFAC
 40
1.0
  9
$DIMTOFL
 70
         0
  9
$DIMTVP
 40
0.0
  9
$DIMTIX
 70
         0
  9
$DIMSOXD
 70
         0
  9
$DIMSAH
 70
         0
  9
$DIMBLK1
  1

  9
$DIMBLK2
  1

  9
$DIMSTYLE
  2
STANDARD
  9
$DIMCLRD
 70
         0
  9
$DIMCLRE
 70
         0
  9
$DIMCLRT
 70
         0
  9
$DIMTFAC
 40
1.0
  9
$DIMGAP
 40
0.09
  9
$DIMJUST
 70
         0
  9
$DIMSD1
 70
         0
  9
$DIMSD2
 70
         0
  9
$DIMTOLJ
 70
         1
  9
$DIMTZIN
 70
         0
  9
$DIMALTZ
 70
         0
  9
$DIMALTTZ
 70
         0
  9
$DIMFIT
 70
         3
  9
$DIMUPT
 70
         0
  9
$DIMUNIT
 70
         2
  9
$DIMDEC
 70
         4
  9
$DIMTDEC
 70
         4
  9
$DIMALTU
 70
         2
  9
$DIMALTTD
 70
         2
  9
$DIMTXSTY
  7
STANDARD
  9
$DIMAUNIT
 70
         0
  9
$LUNITS
 70
         2
  9
$LUPREC
 70
         4
  9
$SKETCHINC
 40
0.1
  9
$FILLETRAD
 40
0.0
  9
$AUNITS
 70
         0
  9
$AUPREC
 70
         0
  9
$MENU
  1
acad
  9
$ELEVATION
 40
0.0
  9
$PELEVATION
 40
0.0
  9
$THICKNESS
 40
0.0
  9
$LIMCHECK
 70
         0
  9
$BLIPMODE
 70
         1
  9
$CHAMFERA
 40
0.0
  9
$CHAMFERB
 40
0.0
  9
$CHAMFERC
 40
0.0
  9
$CHAMFERD
 40
0.0
  9
$SKPOLY
 70
         0
  9
$TDCREATE
 40
2456688.517673611
  9
$TDUPDATE
 40
0.000000000
  9
$TDINDWG
 40
0.0000000000
  9
$TDUSRTIMER
 40
0.0000000000
  9
$USRTIMER
 70
         1
  9
$ANGBASE
 50
0.0
  9
$ANGDIR
 70
         0
  9
$PDMODE
 70
         0
  9
$PDSIZE
 40
0.0
  9
$PLINEWID
 40
0.0
  9
$COORDS
 70
         0
  9
$SPLFRAME
 70
         0
  9
$SPLINETYPE
 70
         6
  9
$SPLINESEGS
 70
         8
  9
$ATTDIA
 70
         0
  9
$ATTREQ
 70
         1
  9
$HANDLING
 70
         1
  9
$HANDSEED
  5
37E
  9
$SURFTAB1
 70
         6
  9
$SURFTAB2
 70
         6
  9
$SURFTYPE
 70
         6
  9
$SURFU
 70
         6
  9
$SURFV
 70
         6
  9
$UCSNAME
  2

  9
$UCSORG
 10
0.0
 20
0.0
 30
0.0
  9
$UCSXDIR
 10
1.0
 20
0.0
 30
0.0
  9
$UCSYDIR
 10
0.0
 20
1.0
 30
0.0
  9
$PUCSNAME
  2

  9
$PUCSORG
 10
0.0
 20
0.0
 30
0.0
  9
$PUCSXDIR
 10
1.0
 20
0.0
 30
0.0
  9
$PUCSYDIR
 10
0.0
 20
1.0
 30
0.0
  9
$USERI1
 70
        -3
  9
$USERI2
 70
         0
  9
$USERI3
 70
         0
  9
$USERI4
 70
         0
  9
$USERI5
 70
         0
  9
$USERR1
 40
0.0
  9
$USERR2
 40
0.0
  9
$USERR3
 40
0.0
  9
$USERR4
 40
0.0
  9
$USERR5
 40
0.0
  9
$WORLDVIEW
 70
         1
  9
$SHADEDGE
 70
         3
  9
$SHADEDIF
 70
        70
  9
$TILEMODE
 70
         1
  9
$MAXACTVP
 70
        16
  9
$PINSBASE
 10
0.0
 20
0.0
 30
0.0
  9
$PLIMCHECK
 70
         0
  9
$PEXTMIN
 10
1.0000000000E+20
 20
1.0000000000E+20
 30
1.0000000000E+20
  9
$PEXTMAX
 10
-1.0000000000E+20
 20
-1.0000000000E+20
 30
-1.0000000000E+20
  9
$PLIMMIN
 10
0.0
 20
0.0
  9
$PLIMMAX
 10
12.0
 20
9.0
  9
$UNITMODE
 70
         0
  9
$VISRETAIN
 70
         0
  9
$PLINEGEN
 70
         1
  9
$PSLTSCALE
 70
         0
  9
$TREEDEPTH
 70
      3020
  9
$PICKSTYLE
 70
         1
  9
$CMLSTYLE
  2
STANDARD
  9
$CMLJUST
 70
         0
  9
$CMLSCALE
 40
1.0
  9
$PROXYGRAPHICS
 70
         0
  9
$MEASUREMENT
 70
         0
  0
ENDSEC
  0
SECTION
  2
CLASSES
  0
CLASS
  1
LWPOLYLINE
  2
AcDbPolyline
  3
"AutoCAD"
 90
        0
280
         0
281
         1
  0
CLASS
  1
IMAGE
  2
AcDbRasterImage
  3
ISM
 90
      127
280
         0
281
         1
  0
CLASS
  1
OLE2FRAME
  2
AcDbOle2Frame
  3
""
 90
        0
280
         0
281
         1
  0
CLASS
  1
HATCH
  2
AcDbHatch
  3
"ACAD_SEDONA"
 90
        0
280
         0
281
         1
  0
CLASS
  1
DICTIONARYVAR
  2
AcDbDictionaryVar
  3
"AutoCAD"
 90
        0
280
         0
281
         0
  0
CLASS
  1
RASTERVARIABLES
  2
AcDbRasterVariables
  3
ISM
 90
        0
280
         0
281
         0
  0
CLASS
  1
IMAGEDEF
  2
AcDbRasterImageDef
  3
ISM
 90
        0
280
         0
281
         0
  0
CLASS
  1
IMAGEDEF_REACTOR
  2
AcDbRasterImageDefReactor
  3
ISM
 90
        1
280
         0
281
         0
  0
CLASS
  1
IDBUFFER
  2
AcDbIdBuffer
  3
"Acad"
 90
        0
280
         0
281
         0
  0
CLASS
  1
SPATIAL_FILTER
  2
AcDbSpatialFilter
  3
"Acad"
 90
        0
280
         0
281
         0
  0
CLASS
  1
XRECORD
  2
AcDbXrecord
  3
"<Built In>"
 90
        0
280
         0
281
         0
  0
CLASS
  1
SORTENTSTABLE
  2
AcDbSortentsTable
  3
"AutoCAD"
 90
        0
280
         0
281
         0
  0
CLASS
  1
LAYER_INDEX
  2
AcDbLayerIndex
  3
"Acad"
 90
        0
280
         0
281
         0
  0
CLASS
  1
SPATIAL_INDEX
  2
AcDbSpatialIndex
  3
"Acad"
 90
        0
280
         0
281
         0
  0
CLASS
  1
OBJECT_PTR
  2
CAseDLPNTableRecord
  3
"ASE-LPNTableRecord"
 90
        1
280
         0
281
         0
  0
CLASS
  1
LAYOUT
  2
AcDbLayout
  3
"AutoCAD 2000"
 90
        0
280
         0
281
         0
  0
CLASS
  1
PLOTSETTINGS
  2
AcDbPlotSettings
  3
"AutoCAD 2000"
 90
        0
280
         0
281
         0
  0
CLASS
  1
ACDBDICTIONARYWDFLT
  2
AcDbDictionaryWithDefault
  3
"AutoCAD 2000"
 90
        0
280
         0
281
         0
  0
CLASS
  1
ACDBPLACEHOLDER
  2
AcDbPlaceHolder
  3
"AutoCAD 2000"
 90
        0
280
         0
281
         0
  0
CLASS
  1
VBA_PROJECT
  2
AcDbVbaProject
  3
"acadvba"
 90
        0
280
         0
281
         0
  0
CLASS
  1
WIPEOUT
  2
AcDbWipeout
  3
WipeOut|AutoCAD Express Tool|expresstools@autodesk.com
 90
      127
280
         0
281
         1
  0
CLASS
  1
WIPEOUTVARIABLES
  2
AcDbWipeoutVariables
  3
WipeOut|AutoCAD Express Tool|expresstools@autodesk.com
 90
        0
280
         0
281
         0
  0
CLASS
  1
RTEXT
  2
RText
  3
RText|AutoCAD Express Tool|expresstools@autodesk.com
 90
        0
280
         0
281
         1
  0
CLASS
  1
ARCALIGNEDTEXT
  2
AcDbArcAlignedText
  3
ATEXT|AutoCAD Express Tool|expresstools@autodesk.com
 90
        0
280
         0
281
         1
  0
ENDSEC
  0
SECTION
  2
TABLES
  0
TABLE
  2
VPORT
  5
7
100
AcDbSymbolTable
 70
         1
  0
VPORT
  5
15
100
AcDbSymbolTableRecord
100
AcDbViewportTableRecord
  2
*ACTIVE
 70
         0
 10
0.0
 20
0.0
 11
1.0
 21
1.0
 12
6.591288
 22
4.579184
 13
0.0
 23
0.0
 14
1.0
 24
1.0
 15
0.0
 25
0.0
 16
0.0
 26
0.0
 36
1.0
 17
0.0
 27
0.0
 37
0.0
 40
9.158369
 41
0.688564
 42
50.0
 43
0.0
 44
0.0
 50
0.0
 51
0.0
 71
         0
 72
       100
 73
         1
 74
         1
 75
         0
 76
         0
 77
         0
 78
         0
  0
ENDTAB
  0
TABLE
  2
LTYPE
  5
4
100
AcDbSymbolTable
 70
         3
  0
LTYPE
  5
11
100
AcDbSymbolTableRecord
100
AcDbLinetypeTableRecord
  2
BYBLOCK
 70
        64
  3

 72
        65
 73
         0
 40
0.0
  0
LTYPE
  5
12
100
AcDbSymbolTableRecord
100
AcDbLinetypeTableRecord
  2
BYLAYER
 70
        64
  3

 72
        65
 73
         0
 40
0.0
  0
LTYPE
  5
13
100
AcDbSymbolTableRecord
100
AcDbLinetypeTableRecord
  2
CONTINUOUS
 70
        64
  3
Solid line
 72
        65
 73
         0
 40
0.0
  0
ENDTAB
  0
TABLE
  2
LAYER
  5
2
100
AcDbSymbolTable
 70
         7
  0
LAYER
  5
14
100
AcDbSymbolTableRecord
100
AcDbLayerTableRecord
  2
0
 70
         0
 62
         7
  6
CONTINUOUS
  0
LAYER
  5
24
100
AcDbSymbolTableRecord
100
AcDbLayerTableRecord
  2
ASSEMBLY_OUTLINES_BTM
 70
         0
 62
       244
  6
CONTINUOUS
  0
LAYER
  5
25
100
AcDbSymbolTableRecord
100
AcDbLayerTableRecord
  2
ASSEMBLY_OUTLINES_TOP
 70
         0
 62
       104
  6
CONTINUOUS
  0
LAYER
  5
26
100
AcDbSymbolTableRecord
100
AcDbLayerTableRecord
  2
ASSEMBLY_REF_DES_TOP
 70
         0
 62
        30
  6
CONTINUOUS
  0
LAYER
  5
27
100
AcDbSymbolTableRecord
100
AcDbLayerTableRecord
  2
BOARD_OUTLINE
 70
         0
 62
        10
  6
CONTINUOUS
  0
LAYER
  5
28
100
AcDbSymbolTableRecord
100
AcDbLayerTableRecord
  2
SOLDERMASK_PADS_BTM
 70
         0
 62
       151
  6
CONTINUOUS
  0
LAYER
  5
29
100
AcDbSymbolTableRecord
100
AcDbLayerTableRecord
  2
SOLDERMASK_PADS_TOP
 70
         0
 62
        81
  6
CONTINUOUS
  0
ENDTAB
  0
TABLE
  2
STYLE
  5
3
100
AcDbSymbolTable
 70
         2
  0
STYLE
  5
17
100
AcDbSymbolTableRecord
100
AcDbTextStyleTableRecord
  2
STANDARD
 70
         0
 40
0.0
 41
1.0
 50
0.0
 71
         0
 42
0.0
  3
txt
  4

  0
STYLE
  5
6D
100
AcDbSymbolTableRecord
100
AcDbTextStyleTableRecord
  2
ARIAL
 70
         0
 40
0.0
 41
1.0
 50
0.0
 71
         0
 42
0.0
  3
ARIAL.TTF
  4

  0
ENDTAB
  0
TABLE
  2
VIEW
  5
5
100
AcDbSymbolTable
 70
         0
  0
ENDTAB
  0
TABLE
  2
UCS
  5
6
100
AcDbSymbolTable
 70
         0
  0
ENDTAB
  0
TABLE
  2
APPID
  5
8
100
AcDbSymbolTable
 70
         1
  0
APPID
  5
16
100
AcDbSymbolTableRecord
100
AcDbRegAppTableRecord
  2
ACAD
 70
         0
  0
ENDTAB
  0
TABLE
  2
DIMSTYLE
  5
9
100
AcDbSymbolTable
 70
         1
  0
DIMSTYLE
105
18
100
AcDbSymbolTableRecord
100
AcDbDimStyleTableRecord
  2
STANDARD
 70
         0
  3

  4

  5

  6

  7

 40
1.0
 41
0.18
 42
0.0625
 43
0.38
 44
0.18
 45
0.0
 46
0.0
 47
0.0
 48
0.0
 71
         0
 72
         0
 73
         1
 74
         1
 75
         0
 76
         0
 77
         0
 78
         0
140
0.18
141
0.09
142
0.0
143
25.4
144
1.0
145
0.0
146
1.0
147
0.09
170
         0
171
         2
172
         0
173
         0
174
         0
175
         0
176
         0
177
         0
178
         0
270
         2
271
         4
272
         4
273
         2
274
         2
275
         0
280
         0
281
         0
282
         0
283
         1
284
         0
285
         0
286
         0
287
         3
288
         0
340
17
  0
ENDTAB
  0
TABLE
  2
BLOCK_RECORD
  5
1
100
AcDbSymbolTable
 70
         0
  0
BLOCK_RECORD
  5
A
100
AcDbSymbolTableRecord
100
AcDbBlockTableRecord
  2
*MODEL_SPACE
  0
BLOCK_RECORD
  5
B
100
AcDbSymbolTableRecord
100
AcDbBlockTableRecord
  2
*PAPER_SPACE
  0
ENDTAB
  0
ENDSEC
  0
SECTION
  2
BLOCKS
  0
BLOCK
  5
D
100
AcDbEntity
  8
0
100
AcDbBlockBegin
  2
*MODEL_SPACE
 70
         0
 10
0.0
 20
0.0
 30
0.0
  3
*MODEL_SPACE
  1

  0
ENDBLK
  5
E
100
AcDbEntity
  8
0
100
AcDbBlockEnd
  0
BLOCK
  5
F
100
AcDbEntity
 67
         1
  8
0
100
AcDbBlockBegin
  2
*PAPER_SPACE
 70
         0
 10
0.0
 20
0.0
 30
0.0
  3
*PAPER_SPACE
  1

  0
ENDBLK
  5
10
100
AcDbEntity
 67
         1
  8
0
100
AcDbBlockEnd
  0
ENDSEC
  0
SECTION
  2
ENTITIES
  0
LWPOLYLINE
  5
2A
100
AcDbEntity
  8
ASSEMBLY_OUTLINES_BTM
100
AcDbPolyline
 90
        5
 70
         1
 43
0.2
 10
21.9
 20
2.4
 10
21.9
 20
6.4
 10
5.7
 20
6.4
 10
5.7
 20
3.4
 10
6.7
 20
2.4
  0
LWPOLYLINE
  5
2B
100
AcDbEntity
  8
ASSEMBLY_OUTLINES_BTM
100
AcDbPolyline
 90
        5
 70
         1
 43
0.2
 10
6.5
 20
50.93
 10
2.5
 20
50.93
 10
2.5
 20
10.93
 10
5.5
 20
10.93
 10
6.5
 20
11.93
  0
LWPOLYLINE
  5
2C
100
AcDbEntity
  8
ASSEMBLY_OUTLINES_TOP
100
AcDbPolyline
 90
        4
 70
         0
 43
0.25
 10
11.491
 20
13.688
 10
11.291
 20
13.688
 10
11.291
 20
13.288
 10
11.491
 20
13.288
  0
LWPOLYLINE
  5
2D
100
AcDbEntity
  8
ASSEMBLY_OUTLINES_TOP
100
AcDbPolyline
 90
        4
 70
         0
 43
0.25
 10
11.123
 20
10.216
 10
11.123
 20
10.016
 10
11.523
 20
10.016
 10
11.523
 20
10.216
  0
LWPOLYLINE
  5
2E
100
AcDbEntity
  8
ASSEMBLY_OUTLINES_TOP
100
AcDbPolyline
 90
        4
 70
         0
 43
0.25
 10
7.07
 20
7.371
 10
7.27
 20
7.371
 10
7.27
 20
7.771
 10
7.07
 20
7.771
  0
LWPOLYLINE
  5
2F
100
AcDbEntity
  8
ASSEMBLY_OUTLINES_TOP
100
AcDbPolyline
 90
        4
 70
         1
 43
0.15
 10
7.479
 20
8.553
 10
7.479
 20
12.453
 10
10.779
 20
12.453
 10
10.779
 20
8.553
  0
LWPOLYLINE
  5
30
100
AcDbEntity
  8
ASSEMBLY_OUTLINES_TOP
100
AcDbPolyline
 90
        2
 70
         0
 43
0.15
 10
10.542083
 20
8.589917
 10
10.742083
 20
8.789917
  0
CIRCLE
  5
31
100
AcDbEntity
  8
ASSEMBLY_OUTLINES_TOP
100
AcDbCircle
 10
11.079
 20
8.253
 30
0.0
 40
0.424264
  0
HATCH
  5
32
100
AcDbEntity
  8
ASSEMBLY_OUTLINES_TOP
100
AcDbHatch
 10
0.0
 20
0.0
 30
0.0
210
0.0
220
0.0
230
1.0
  2
SOLID
 70
         1
 71
         1
 91
        1
 92
        1
 93
        1
 72
         2
 10
11.079000000000001
 20
8.2530000000000001
 40
0.424264
 50
0.0
 51
360.0
 73
         1
 97
        1
330
31
 75
         0
 76
         1
 98
        1
 10
0.0
 20
0.0
  0
LWPOLYLINE
  5
33
100
AcDbEntity
  8
ASSEMBLY_OUTLINES_TOP
100
AcDbPolyline
 90
        4
 70
         0
 43
0.25
 10
4.608
 20
9.443
 10
4.408
 20
9.443
 10
4.408
 20
9.043
 10
4.608
 20
9.043
  0
LWPOLYLINE
  5
34
100
AcDbEntity
  8
ASSEMBLY_OUTLINES_TOP
100
AcDbPolyline
 90
        4
 70
         0
 43
0.25
 10
24.846
 20
35.037
 10
24.646
 20
35.037
 10
24.646
 20
34.637
 10
24.846
 20
34.637
  0
LWPOLYLINE
  5
35
100
AcDbEntity
  8
ASSEMBLY_OUTLINES_TOP
100
AcDbPolyline
 90
        4
 70
         0
 43
0.25
 10
23.689
 20
37.517
 10
23.689
 20
37.317
 10
24.089
 20
37.317
 10
24.089
 20
37.517
  0
LWPOLYLINE
  5
36
100
AcDbEntity
  8
ASSEMBLY_OUTLINES_TOP
100
AcDbPolyline
 90
        4
 70
         0
 43
0.25
 10
25.158
 20
29.814
 10
24.958
 20
29.814
 10
24.958
 20
29.414
 10
25.158
 20
29.414
  0
LWPOLYLINE
  5
37
100
AcDbEntity
  8
ASSEMBLY_OUTLINES_TOP
100
AcDbPolyline
 90
        2
 70
         0
 43
0.1
 10
23.53
 20
56.343
 10
22.03
 20
56.343
  0
LWPOLYLINE
  5
38
100
AcDbEntity
  8
ASSEMBLY_OUTLINES_TOP
100
AcDbPolyline
 90
        4
 70
         1
 43
0.1
 10
21.88
 20
53.343
 10
21.88
 20
57.693
 10
23.68
 20
57.693
 10
23.68
 20
53.343
  0
LWPOLYLINE
  5
39
100
AcDbEntity
  8
ASSEMBLY_OUTLINES_TOP
100
AcDbPolyline
 90
        3
 70
         0
 43
0.1
 10
24.772
 20
30.343
 10
24.772
 20
32.093
 10
25.772
 20
32.093
  0
LWPOLYLINE
  5
3A
100
AcDbEntity
  8
ASSEMBLY_OUTLINES_TOP
100
AcDbPolyline
 90
        4
 70
         1
 43
0.1
 10
23.222
 20
30.293
 10
23.222
 20
33.893
 10
25.822
 20
33.893
 10
25.822
 20
30.293
  0
LWPOLYLINE
  5
3B
100
AcDbEntity
  8
ASSEMBLY_OUTLINES_TOP
100
AcDbPolyline
 90
        4
 70
         0
 43
0.25
 10
22.024
 20
31.911
 10
21.824
 20
31.911
 10
21.824
 20
31.511
 10
22.024
 20
31.511
  0
LWPOLYLINE
  5
3C
100
AcDbEntity
  8
ASSEMBLY_OUTLINES_TOP
100
AcDbPolyline
 90
        4
 70
         0
 43
0.25
 10
17.818997
 20
43.003
 10
17.818997
 20
43.203
 10
17.418997
 20
43.203
 10
17.418997
 20
43.003
  0
LWPOLYLINE
  5
3D
100
AcDbEntity
  8
ASSEMBLY_OUTLINES_TOP
100
AcDbPolyline
 90
        4
 70
         0
 43
0.25
 10
20.547
 20
43.003
 10
20.547
 20
43.203
 10
20.147
 20
43.203
 10
20.147
 20
43.003
  0
LWPOLYLINE
  5
3E
100
AcDbEntity
  8
ASSEMBLY_OUTLINES_TOP
100
AcDbPolyline
 90
        4
 70
         0
 43
0.25
 10
19.592999
 20
43.003
 10
19.592999
 20
43.203
 10
19.192999
 20
43.203
 10
19.192999
 20
43.003
  0
LWPOLYLINE
  5
3F
100
AcDbEntity
  8
ASSEMBLY_OUTLINES_TOP
100
AcDbPolyline
 90
        4
 70
         0
 43
0.25
 10
18.638998
 20
43.003
 10
18.638998
 20
43.203
 10
18.238998
 20
43.203
 10
18.238998
 20
43.003
  0
LWPOLYLINE
  5
40
100
AcDbEntity
  8
ASSEMBLY_OUTLINES_TOP
100
AcDbPolyline
 90
        4
 70
         0
 43
0.25
 10
17.52
 20
40.835
 10
17.52
 20
40.635
 10
17.92
 20
40.635
 10
17.92
 20
40.835
  0
LWPOLYLINE
  5
41
100
AcDbEntity
  8
ASSEMBLY_OUTLINES_TOP
100
AcDbPolyline
 90
        4
 70
         0
 43
0.25
 10
7.046
 20
52.777
 10
6.846
 20
52.777
 10
6.846
 20
52.377
 10
7.046
 20
52.377
  0
LWPOLYLINE
  5
42
100
AcDbEntity
  8
ASSEMBLY_OUTLINES_TOP
100
AcDbPolyline
 90
        4
 70
         0
 43
0.25
 10
8.31
 20
49.974
 10
8.31
 20
49.774
 10
8.71
 20
49.774
 10
8.71
 20
49.974
  0
LWPOLYLINE
  5
43
100
AcDbEntity
  8
ASSEMBLY_OUTLINES_TOP
100
AcDbPolyline
 90
        6
 70
         1
 10
9.9
 20
52.21
 10
19.6
 20
52.21
 10
19.7
 20
52.11
 10
19.7
 20
47.81
 10
10.762
 20
47.81
 10
9.9
 20
48.672
  0
LWPOLYLINE
  5
44
100
AcDbEntity
  8
ASSEMBLY_OUTLINES_TOP
100
AcDbPolyline
 90
        4
 70
         1
 43
0.1
 10
12.45
 20
44.48
 10
12.45
 20
45.48
 10
14.45
 20
45.48
 10
14.45
 20
44.48
  0
LWPOLYLINE
  5
45
100
AcDbEntity
  8
ASSEMBLY_OUTLINES_TOP
100
AcDbPolyline
 90
        4
 70
         1
 43
0.1
 10
15.23
 20
44.48
 10
15.23
 20
45.48
 10
17.23
 20
45.48
 10
17.23
 20
44.48
  0
LWPOLYLINE
  5
46
100
AcDbEntity
  8
ASSEMBLY_OUTLINES_TOP
100
AcDbPolyline
 90
        4
 70
         1
 43
0.15
 10
1.35
 20
61.7
 10
1.35
 20
64.7
 10
4.85
 20
64.7
 10
4.85
 20
61.7
  0
LWPOLYLINE
  5
47
100
AcDbEntity
  8
ASSEMBLY_OUTLINES_TOP
100
AcDbPolyline
 90
        4
 70
         0
 43
0.25
 10
17.831
 20
36.603
 10
17.631
 20
36.603
 10
17.631
 20
36.203
 10
17.831
 20
36.203
  0
LWPOLYLINE
  5
48
100
AcDbEntity
  8
ASSEMBLY_OUTLINES_TOP
100
AcDbPolyline
 90
        4
 70
         0
 43
0.25
 10
17.811
 20
37.523
 10
17.611
 20
37.523
 10
17.611
 20
37.123
 10
17.811
 20
37.123
  0
LWPOLYLINE
  5
49
100
AcDbEntity
  8
ASSEMBLY_OUTLINES_TOP
100
AcDbPolyline
 90
        2
 70
         0
 43
0.1
 10
9.07
 20
71.792
 10
12.2704
 20
71.792
  0
LWPOLYLINE
  5
4A
100
AcDbEntity
  8
ASSEMBLY_OUTLINES_TOP
100
AcDbPolyline
 90
        2
 70
         0
 43
0.1
 10
13.1705
 20
71.792
 10
16.3709
 20
71.792
  0
LWPOLYLINE
  5
4B
100
AcDbEntity
  8
ASSEMBLY_OUTLINES_TOP
100
AcDbPolyline
 90
        2
 70
         0
 43
0.1
 10
17.271
 20
71.792
 10
20.4714
 20
71.792
  0
LWPOLYLINE
  5
4C
100
AcDbEntity
  8
ASSEMBLY_OUTLINES_TOP
100
AcDbPolyline
 90
        2
 70
         0
 43
0.1
 10
21.3715
 20
71.792
 10
24.07
 20
71.792
  0
LWPOLYLINE
  5
4D
100
AcDbEntity
  8
ASSEMBLY_OUTLINES_TOP
100
AcDbPolyline
 90
        4
 70
         1
 43
0.1
 10
9.07
 20
60.85
 10
9.07
 20
73.0
 10
24.07
 20
73.0
 10
24.07
 20
60.85
  0
LWPOLYLINE
  5
4E
100
AcDbEntity
  8
ASSEMBLY_OUTLINES_TOP
100
AcDbPolyline
 90
        2
 70
         0
 43
0.15
 10
16.57
 20
73.375
 10
16.57
 20
75.915
  0
LWPOLYLINE
  5
4F
100
AcDbEntity
  8
ASSEMBLY_OUTLINES_TOP
100
AcDbPolyline
 90
        2
 70
         0
 43
0.15
 10
16.57
 20
73.375
 10
16.062
 20
74.137
  0
LWPOLYLINE
  5
50
100
AcDbEntity
  8
ASSEMBLY_OUTLINES_TOP
100
AcDbPolyline
 90
        2
 70
         0
 43
0.15
 10
16.57
 20
73.375
 10
17.078
 20
74.137
  0
LWPOLYLINE
  5
51
100
AcDbEntity
  8
ASSEMBLY_OUTLINES_TOP
100
AcDbPolyline
 90
        4
 70
         0
 43
0.25
 10
20.85
 20
33.05
 10
20.85
 20
33.25
 10
20.45
 20
33.25
 10
20.45
 20
33.05
  0
LWPOLYLINE
  5
52
100
AcDbEntity
  8
ASSEMBLY_OUTLINES_TOP
100
AcDbPolyline
 90
        4
 70
         0
 43
0.25
 10
21.74
 20
33.04
 10
21.74
 20
33.24
 10
21.34
 20
33.24
 10
21.34
 20
33.04
  0
LWPOLYLINE
  5
53
100
AcDbEntity
  8
ASSEMBLY_OUTLINES_TOP
100
AcDbPolyline
 90
        4
 70
         0
 43
0.25
 10
18.45
 20
25.64
 10
18.25
 20
25.64
 10
18.25
 20
25.24
 10
18.45
 20
25.24
  0
LWPOLYLINE
  5
54
100
AcDbEntity
  8
ASSEMBLY_OUTLINES_TOP
100
AcDbPolyline
 90
        4
 70
         0
 43
0.25
 10
18.45
 20
24.76
 10
18.25
 20
24.76
 10
18.25
 20
24.36
 10
18.45
 20
24.36
  0
LWPOLYLINE
  5
55
100
AcDbEntity
  8
ASSEMBLY_OUTLINES_TOP
100
AcDbPolyline
 90
        4
 70
         0
 43
0.25
 10
12.65
 20
23.87
 10
12.85
 20
23.87
 10
12.85
 20
24.27
 10
12.65
 20
24.27
  0
LWPOLYLINE
  5
56
100
AcDbEntity
  8
ASSEMBLY_OUTLINES_TOP
100
AcDbPolyline
 90
        4
 70
         0
 43
0.25
 10
12.67
 20
24.74
 10
12.87
 20
24.74
 10
12.87
 20
25.14
 10
12.67
 20
25.14
  0
LWPOLYLINE
  5
57
100
AcDbEntity
  8
ASSEMBLY_OUTLINES_TOP
100
AcDbPolyline
 90
        4
 70
         0
 43
0.25
 10
9.57
 20
31.13
 10
9.57
 20
31.33
 10
9.17
 20
31.33
 10
9.17
 20
31.13
  0
LWPOLYLINE
  5
58
100
AcDbEntity
  8
ASSEMBLY_OUTLINES_TOP
100
AcDbPolyline
 90
        4
 70
         0
 43
0.25
 10
8.65
 20
31.13
 10
8.65
 20
31.33
 10
8.25
 20
31.33
 10
8.25
 20
31.13
  0
LWPOLYLINE
  5
59
100
AcDbEntity
  8
ASSEMBLY_OUTLINES_TOP
100
AcDbPolyline
 90
        4
 70
         0
 43
0.25
 10
10.98
 20
36.13
 10
11.18
 20
36.13
 10
11.18
 20
36.53
 10
10.98
 20
36.53
  0
LWPOLYLINE
  5
5A
100
AcDbEntity
  8
ASSEMBLY_OUTLINES_TOP
100
AcDbPolyline
 90
        4
 70
         0
 43
0.25
 10
10.98
 20
37.04
 10
11.18
 20
37.04
 10
11.18
 20
37.44
 10
10.98
 20
37.44
  0
LWPOLYLINE
  5
5B
100
AcDbEntity
  8
ASSEMBLY_OUTLINES_TOP
100
AcDbPolyline
 90
        4
 70
         0
 43
0.25
 10
14.54
 20
12.79
 10
14.74
 20
12.79
 10
14.74
 20
13.19
 10
14.54
 20
13.19
  0
LWPOLYLINE
  5
5C
100
AcDbEntity
  8
ASSEMBLY_OUTLINES_TOP
100
AcDbPolyline
 90
        4
 70
         0
 43
0.25
 10
18.22
 20
13.25
 10
18.02
 20
13.25
 10
18.02
 20
12.85
 10
18.22
 20
12.85
  0
LWPOLYLINE
  5
5D
100
AcDbEntity
  8
ASSEMBLY_OUTLINES_TOP
100
AcDbPolyline
 90
        4
 70
         0
 43
0.25
 10
21.69
 20
36.19
 10
21.69
 20
35.99
 10
22.09
 20
35.99
 10
22.09
 20
36.19
  0
LWPOLYLINE
  5
5E
100
AcDbEntity
  8
ASSEMBLY_OUTLINES_TOP
100
AcDbPolyline
 90
        4
 70
         0
 43
0.25
 10
21.58
 20
28.25
 10
21.58
 20
28.05
 10
21.98
 20
28.05
 10
21.98
 20
28.25
  0
LWPOLYLINE
  5
5F
100
AcDbEntity
  8
ASSEMBLY_OUTLINES_TOP
100
AcDbPolyline
 90
        4
 70
         0
 43
0.25
 10
13.65
 20
21.41
 10
13.45
 20
21.41
 10
13.45
 20
21.01
 10
13.65
 20
21.01
  0
LWPOLYLINE
  5
60
100
AcDbEntity
  8
ASSEMBLY_OUTLINES_TOP
100
AcDbPolyline
 90
        4
 70
         0
 43
0.1
 10
7.22
 20
34.62
 10
9.29
 20
34.62
 10
9.29
 20
33.91
 10
7.22
 20
33.91
  0
LWPOLYLINE
  5
61
100
AcDbEntity
  8
ASSEMBLY_OUTLINES_TOP
100
AcDbPolyline
 90
        2
 70
         0
 43
0.1
 10
7.06
 20
34.11
 10
7.06
 20
34.43
  0
LWPOLYLINE
  5
62
100
AcDbEntity
  8
ASSEMBLY_OUTLINES_TOP
100
AcDbPolyline
 90
        4
 70
         0
 43
0.25
 10
8.28
 20
35.28
 10
8.48
 20
35.28
 10
8.48
 20
35.68
 10
8.28
 20
35.68
  0
LWPOLYLINE
  5
63
100
AcDbEntity
  8
ASSEMBLY_OUTLINES_TOP
100
AcDbPolyline
 90
        4
 70
         0
 43
0.25
 10
8.48
 20
36.63
 10
8.28
 20
36.63
 10
8.28
 20
36.23
 10
8.48
 20
36.23
  0
LWPOLYLINE
  5
64
100
AcDbEntity
  8
ASSEMBLY_OUTLINES_TOP
100
AcDbPolyline
 90
        4
 70
         0
 43
0.25
 10
14.44
 20
36.95
 10
14.64
 20
36.95
 10
14.64
 20
37.35
 10
14.44
 20
37.35
  0
LWPOLYLINE
  5
65
100
AcDbEntity
  8
ASSEMBLY_OUTLINES_TOP
100
AcDbPolyline
 90
        4
 70
         0
 43
0.25
 10
14.39
 20
37.86
 10
14.59
 20
37.86
 10
14.59
 20
38.26
 10
14.39
 20
38.26
  0
CIRCLE
  5
66
100
AcDbEntity
  8
ASSEMBLY_OUTLINES_TOP
100
AcDbCircle
 10
11.898
 20
27.658
 30
0.0
 40
0.508
  0
HATCH
  5
67
100
AcDbEntity
  8
ASSEMBLY_OUTLINES_TOP
100
AcDbHatch
 10
0.0
 20
0.0
 30
0.0
210
0.0
220
0.0
230
1.0
  2
SOLID
 70
         1
 71
         1
 91
        1
 92
        1
 93
        1
 72
         2
 10
11.898
 20
27.658000000000001
 40
0.508
 50
0.0
 51
360.0
 73
         1
 97
        1
330
66
 75
         0
 76
         1
 98
        1
 10
0.0
 20
0.0
  0
LWPOLYLINE
  5
68
100
AcDbEntity
  8
ASSEMBLY_OUTLINES_TOP
100
AcDbPolyline
 90
        5
 70
         1
 43
0.1
 10
19.7
 20
26.46
 10
11.05
 20
26.46
 10
10.7
 20
26.81
 10
10.7
 20
35.46
 10
19.7
 20
35.46
  0
LWPOLYLINE
  5
69
100
AcDbEntity
  8
ASSEMBLY_OUTLINES_TOP
100
AcDbPolyline
 90
        4
 70
         1
 43
0.1
 10
11.2
 20
33.76
 10
11.2
 20
34.96
 10
19.2
 20
34.96
 10
19.2
 20
33.76
  0
LWPOLYLINE
  5
6A
100
AcDbEntity
  8
ASSEMBLY_OUTLINES_TOP
100
AcDbPolyline
 90
        4
 70
         1
 43
0.1
 10
11.2
 20
26.96
 10
11.2
 20
34.96
 10
12.4
 20
34.96
 10
12.4
 20
26.96
  0
LWPOLYLINE
  5
6B
100
AcDbEntity
  8
ASSEMBLY_OUTLINES_TOP
100
AcDbPolyline
 90
        4
 70
         1
 43
0.1
 10
18.0
 20
26.96
 10
18.0
 20
34.96
 10
19.2
 20
34.96
 10
19.2
 20
26.96
  0
LWPOLYLINE
  5
6C
100
AcDbEntity
  8
ASSEMBLY_OUTLINES_TOP
100
AcDbPolyline
 90
        4
 70
         1
 43
0.1
 10
11.2
 20
26.96
 10
11.2
 20
28.06
 10
19.2
 20
28.06
 10
19.2
 20
26.96
  0
TEXT
  5
6E
100
AcDbEntity
  8
ASSEMBLY_OUTLINES_TOP
100
AcDbText
 10
12.13
 20
28.866
 30
0.0
 40
0.8
  1
No Vias
 50
90.0
  7
ARIAL
 11
11.298
 21
28.866
 31
0.0
100
AcDbText
 73
         3
  0
TEXT
  5
6F
100
AcDbEntity
  8
ASSEMBLY_OUTLINES_TOP
100
AcDbText
 10
17.20166
 20
27.99754
 30
0.0
 40
0.8
  1
No Vias
 50
180.0
  7
ARIAL
 11
17.20166
 21
27.16554
 31
0.0
100
AcDbText
 73
         3
  0
TEXT
  5
70
100
AcDbEntity
  8
ASSEMBLY_OUTLINES_TOP
100
AcDbText
 10
19.03
 20
28.866
 30
0.0
 40
0.8
  1
No Vias
 50
90.0
  7
ARIAL
 11
18.198
 21
28.866
 31
0.0
100
AcDbText
 73
         3
  0
TEXT
  5
71
100
AcDbEntity
  8
ASSEMBLY_OUTLINES_TOP
100
AcDbText
 10
17.10166
 20
34.89754
 30
0.0
 40
0.8
  1
No Vias
 50
180.0
  7
ARIAL
 11
17.10166
 21
34.06554
 31
0.0
100
AcDbText
 73
         3
  0
LWPOLYLINE
  5
72
100
AcDbEntity
  8
ASSEMBLY_OUTLINES_TOP
100
AcDbPolyline
 90
        4
 70
         0
 43
0.1
 10
7.2
 20
32.92
 10
9.27
 20
32.92
 10
9.27
 20
32.21
 10
7.2
 20
32.21
  0
LWPOLYLINE
  5
73
100
AcDbEntity
  8
ASSEMBLY_OUTLINES_TOP
100
AcDbPolyline
 90
        2
 70
         0
 43
0.1
 10
7.04
 20
32.41
 10
7.04
 20
32.73
  0
LWPOLYLINE
  5
74
100
AcDbEntity
  8
ASSEMBLY_OUTLINES_TOP
100
AcDbPolyline
 90
        4
 70
         0
 43
0.25
 10
19.33
 20
37.35
 10
19.33
 20
37.55
 10
18.93
 20
37.55
 10
18.93
 20
37.35
  0
LWPOLYLINE
  5
75
100
AcDbEntity
  8
ASSEMBLY_OUTLINES_TOP
100
AcDbPolyline
 90
        4
 70
         0
 43
0.25
 10
10.28
 20
55.65
 10
10.48
 20
55.65
 10
10.48
 20
56.05
 10
10.28
 20
56.05
  0
LWPOLYLINE
  5
76
100
AcDbEntity
  8
ASSEMBLY_OUTLINES_TOP
100
AcDbPolyline
 90
        4
 70
         0
 43
0.25
 10
19.67
 20
21.41
 10
19.47
 20
21.41
 10
19.47
 20
21.01
 10
19.67
 20
21.01
  0
LWPOLYLINE
  5
77
100
AcDbEntity
  8
ASSEMBLY_OUTLINES_TOP
100
AcDbPolyline
 90
        4
 70
         0
 43
0.25
 10
9.59
 20
19.4
 10
9.39
 20
19.4
 10
9.39
 20
19.0
 10
9.59
 20
19.0
  0
LWPOLYLINE
  5
78
100
AcDbEntity
  8
ASSEMBLY_OUTLINES_TOP
100
AcDbPolyline
 90
        4
 70
         0
 43
0.25
 10
9.46
 20
15.12
 10
9.26
 20
15.12
 10
9.26
 20
14.72
 10
9.46
 20
14.72
  0
LWPOLYLINE
  5
79
100
AcDbEntity
  8
ASSEMBLY_OUTLINES_TOP
100
AcDbPolyline
 90
        4
 70
         0
 43
0.2
 10
21.13
 20
15.25
 10
21.13
 20
14.85
 10
19.93
 20
14.85
 10
19.93
 20
15.25
  0
LWPOLYLINE
  5
7A
100
AcDbEntity
  8
ASSEMBLY_OUTLINES_TOP
100
AcDbPolyline
 90
        4
 70
         0
 43
0.25
 10
18.82
 20
15.13
 10
18.82
 20
14.93
 10
19.22
 20
14.93
 10
19.22
 20
15.13
  0
LWPOLYLINE
  5
7B
100
AcDbEntity
  8
ASSEMBLY_OUTLINES_TOP
100
AcDbPolyline
 90
        4
 70
         0
 43
0.1
 10
15.48
 20
18.82
 10
17.55
 20
18.82
 10
17.55
 20
18.11
 10
15.48
 20
18.11
  0
LWPOLYLINE
  5
7C
100
AcDbEntity
  8
ASSEMBLY_OUTLINES_TOP
100
AcDbPolyline
 90
        2
 70
         0
 43
0.1
 10
15.32
 20
18.31
 10
15.32
 20
18.63
  0
LWPOLYLINE
  5
7D
100
AcDbEntity
  8
ASSEMBLY_OUTLINES_TOP
100
AcDbPolyline
 90
        4
 70
         1
 43
0.2
 10
15.59
 20
14.05
 10
15.59
 20
17.05
 10
17.19
 20
17.05
 10
17.19
 20
14.05
  0
CIRCLE
  5
7E
100
AcDbEntity
  8
ASSEMBLY_OUTLINES_TOP
100
AcDbCircle
 10
16.79
 20
14.55
 30
0.0
 40
0.3
  0
HATCH
  5
7F
100
AcDbEntity
  8
ASSEMBLY_OUTLINES_TOP
100
AcDbHatch
 10
0.0
 20
0.0
 30
0.0
210
0.0
220
0.0
230
1.0
  2
SOLID
 70
         1
 71
         1
 91
        1
 92
        1
 93
        1
 72
         2
 10
16.789999999999999
 20
14.550000000000001
 40
0.3
 50
0.0
 51
360.0
 73
         1
 97
        1
330
7E
 75
         0
 76
         1
 98
        1
 10
0.0
 20
0.0
  0
LWPOLYLINE
  5
80
100
AcDbEntity
  8
ASSEMBLY_OUTLINES_TOP
100
AcDbPolyline
 90
        4
 70
         0
 43
0.25
 10
19.67
 20
17.63
 10
19.47
 20
17.63
 10
19.47
 20
17.23
 10
19.67
 20
17.23
  0
LWPOLYLINE
  5
81
100
AcDbEntity
  8
ASSEMBLY_OUTLINES_TOP
100
AcDbPolyline
 90
        4
 70
         0
 43
0.25
 10
24.65
 20
19.59
 10
24.65
 20
19.39
 10
25.05
 20
19.39
 10
25.05
 20
19.59
  0
LWPOLYLINE
  5
82
100
AcDbEntity
  8
ASSEMBLY_OUTLINES_TOP
100
AcDbPolyline
 90
        4
 70
         0
 43
0.25
 10
10.88
 20
41.38
 10
10.68
 20
41.38
 10
10.68
 20
40.98
 10
10.88
 20
40.98
  0
LWPOLYLINE
  5
83
100
AcDbEntity
  8
ASSEMBLY_OUTLINES_TOP
100
AcDbPolyline
 90
        4
 70
         0
 43
0.25
 10
18.38
 20
8.17
 10
18.18
 20
8.17
 10
18.18
 20
7.77
 10
18.38
 20
7.77
  0
LWPOLYLINE
  5
84
100
AcDbEntity
  8
ASSEMBLY_OUTLINES_TOP
100
AcDbPolyline
 90
        4
 70
         0
 43
0.25
 10
8.31
 20
47.47
 10
8.31
 20
47.27
 10
8.71
 20
47.27
 10
8.71
 20
47.47
  0
LWPOLYLINE
  5
85
100
AcDbEntity
  8
ASSEMBLY_OUTLINES_TOP
100
AcDbPolyline
 90
        4
 70
         0
 43
0.25
 10
3.96
 20
52.79
 10
3.76
 20
52.79
 10
3.76
 20
52.39
 10
3.96
 20
52.39
  0
LWPOLYLINE
  5
86
100
AcDbEntity
  8
ASSEMBLY_OUTLINES_TOP
100
AcDbPolyline
 90
        4
 70
         0
 43
0.25
 10
19.98
 20
56.34
 10
19.78
 20
56.34
 10
19.78
 20
55.94
 10
19.98
 20
55.94
  0
LWPOLYLINE
  5
87
100
AcDbEntity
  8
ASSEMBLY_OUTLINES_TOP
100
AcDbPolyline
 90
        4
 70
         0
 43
0.25
 10
20.79
 20
57.54
 10
20.59
 20
57.54
 10
20.59
 20
57.14
 10
20.79
 20
57.14
  0
LWPOLYLINE
  5
88
100
AcDbEntity
  8
ASSEMBLY_OUTLINES_TOP
100
AcDbPolyline
 90
        4
 70
         0
 43
0.25
 10
21.34
 20
58.27
 10
21.54
 20
58.27
 10
21.54
 20
58.67
 10
21.34
 20
58.67
  0
LWPOLYLINE
  5
89
100
AcDbEntity
  8
ASSEMBLY_OUTLINES_TOP
100
AcDbPolyline
 90
        4
 70
         0
 43
0.25
 10
19.28
 20
54.92
 10
19.08
 20
54.92
 10
19.08
 20
54.52
 10
19.28
 20
54.52
  0
LWPOLYLINE
  5
8A
100
AcDbEntity
  8
ASSEMBLY_OUTLINES_TOP
100
AcDbPolyline
 90
        4
 70
         0
 43
0.25
 10
9.55
 20
54.24
 10
9.75
 20
54.24
 10
9.75
 20
54.64
 10
9.55
 20
54.64
  0
LWPOLYLINE
  5
8B
100
AcDbEntity
  8
ASSEMBLY_OUTLINES_TOP
100
AcDbPolyline
 90
        4
 70
         0
 43
0.2
 10
10.82
 20
42.36
 10
10.42
 20
42.36
 10
10.42
 20
43.56
 10
10.82
 20
43.56
  0
LWPOLYLINE
  5
8C
100
AcDbEntity
  8
ASSEMBLY_OUTLINES_TOP
100
AcDbPolyline
 90
        4
 70
         0
 43
0.25
 10
10.09
 20
44.75
 10
9.89
 20
44.75
 10
9.89
 20
44.35
 10
10.09
 20
44.35
  0
LWPOLYLINE
  5
8D
100
AcDbEntity
  8
ASSEMBLY_OUTLINES_TOP
100
AcDbPolyline
 90
        4
 70
         0
 43
0.25
 10
11.26
 20
45.76
 10
11.06
 20
45.76
 10
11.06
 20
45.36
 10
11.26
 20
45.36
  0
LWPOLYLINE
  5
8E
100
AcDbEntity
  8
ASSEMBLY_OUTLINES_TOP
100
AcDbPolyline
 90
        2
 70
         1
 43
0.15
 10
21.358615
 20
45.0
 42
-1.0
 10
26.641385
 20
45.0
 42
-1.0
  0
LWPOLYLINE
  5
8F
100
AcDbEntity
  8
ASSEMBLY_OUTLINES_TOP
100
AcDbPolyline
 90
        2
 70
         1
 43
0.15
 10
21.358615
 20
3.0
 42
-1.0
 10
26.641385
 20
3.0
 42
-1.0
  0
TEXT
  5
90
100
AcDbEntity
  8
ASSEMBLY_REF_DES_TOP
100
AcDbText
 10
10.3422
 20
13.072
 30
0.0
 40
0.8
  1
C39
  7
ARIAL
 72
         1
 11
11.391
 21
13.488
 31
0.0
100
AcDbText
 73
         2
  0
TEXT
  5
91
100
AcDbEntity
  8
ASSEMBLY_REF_DES_TOP
100
AcDbText
 10
10.907
 20
11.1648
 30
0.0
 40
0.8
  1
C47
 50
270.0
  7
ARIAL
 72
         1
 11
11.323
 21
10.116
 31
0.0
100
AcDbText
 73
         2
  0
TEXT
  5
92
100
AcDbEntity
  8
ASSEMBLY_REF_DES_TOP
100
AcDbText
 10
6.1212
 20
7.155
 30
0.0
 40
0.8
  1
R14
  7
ARIAL
 72
         1
 11
7.17
 21
7.571
 31
0.0
100
AcDbText
 73
         2
  0
TEXT
  5
93
100
AcDbEntity
  8
ASSEMBLY_REF_DES_TOP
100
AcDbText
 10
8.713
 20
11.615
 30
0.0
 40
0.8
  1
OZ1
 50
270.0
  7
ARIAL
 72
         1
 11
9.129
 21
10.503
 31
0.0
100
AcDbText
 73
         2
  0
TEXT
  5
94
100
AcDbEntity
  8
ASSEMBLY_REF_DES_TOP
100
AcDbText
 10
3.4592
 20
8.827
 30
0.0
 40
0.8
  1
C20
  7
ARIAL
 72
         1
 11
4.508
 21
9.243
 31
0.0
100
AcDbText
 73
         2
  0
TEXT
  5
95
100
AcDbEntity
  8
ASSEMBLY_REF_DES_TOP
100
AcDbText
 10
23.6972
 20
34.421
 30
0.0
 40
0.8
  1
C25
  7
ARIAL
 72
         1
 11
24.746
 21
34.837
 31
0.0
100
AcDbText
 73
         2
  0
TEXT
  5
96
100
AcDbEntity
  8
ASSEMBLY_REF_DES_TOP
100
AcDbText
 10
23.473
 20
38.4658
 30
0.0
 40
0.8
  1
C22
 50
270.0
  7
ARIAL
 72
         1
 11
23.889
 21
37.417
 31
0.0
100
AcDbText
 73
         2
  0
TEXT
  5
97
100
AcDbEntity
  8
ASSEMBLY_REF_DES_TOP
100
AcDbText
 10
24.0092
 20
29.198
 30
0.0
 40
0.8
  1
C48
  7
ARIAL
 72
         1
 11
25.058
 21
29.614
 31
0.0
100
AcDbText
 73
         2
  0
TEXT
  5
98
100
AcDbEntity
  8
ASSEMBLY_REF_DES_TOP
100
AcDbText
 10
22.364
 20
56.2738
 30
0.0
 40
0.8
  1
D1
 50
270.0
  7
ARIAL
 72
         1
 11
22.78
 21
55.543
 31
0.0
100
AcDbText
 73
         2
  0
TEXT
  5
99
100
AcDbEntity
  8
ASSEMBLY_REF_DES_TOP
100
AcDbText
 10
24.108432
 20
33.20287
 30
0.0
 40
0.8
  1
OZ2
 50
270.0
  7
ARIAL
 72
         1
 11
24.524432
 21
32.09087
 31
0.0
100
AcDbText
 73
         2
  0
TEXT
  5
9A
100
AcDbEntity
  8
ASSEMBLY_REF_DES_TOP
100
AcDbText
 10
21.1932
 20
31.295
 30
0.0
 40
0.8
  1
R7
  7
ARIAL
 72
         1
 11
21.924
 21
31.711
 31
0.0
100
AcDbText
 73
         2
  0
TEXT
  5
9B
100
AcDbEntity
  8
ASSEMBLY_REF_DES_TOP
100
AcDbText
 10
17.202997
 20
44.1518
 30
0.0
 40
0.8
  1
R10
 50
270.0
  7
ARIAL
 72
         1
 11
17.618997
 21
43.103
 31
0.0
100
AcDbText
 73
         2
  0
TEXT
  5
9C
100
AcDbEntity
  8
ASSEMBLY_REF_DES_TOP
100
AcDbText
 10
19.931
 20
44.1518
 30
0.0
 40
0.8
  1
R13
 50
270.0
  7
ARIAL
 72
         1
 11
20.347
 21
43.103
 31
0.0
100
AcDbText
 73
         2
  0
TEXT
  5
9D
100
AcDbEntity
  8
ASSEMBLY_REF_DES_TOP
100
AcDbText
 10
18.976999
 20
43.8338
 30
0.0
 40
0.8
  1
R8
 50
270.0
  7
ARIAL
 72
         1
 11
19.392999
 21
43.103
 31
0.0
100
AcDbText
 73
         2
  0
TEXT
  5
9E
100
AcDbEntity
  8
ASSEMBLY_REF_DES_TOP
100
AcDbText
 10
18.022998
 20
43.8338
 30
0.0
 40
0.8
  1
R9
 50
270.0
  7
ARIAL
 72
         1
 11
18.438998
 21
43.103
 31
0.0
100
AcDbText
 73
         2
  0
TEXT
  5
9F
100
AcDbEntity
  8
ASSEMBLY_REF_DES_TOP
100
AcDbText
 10
17.304
 20
41.7838
 30
0.0
 40
0.8
  1
C23
 50
270.0
  7
ARIAL
 72
         1
 11
17.72
 21
40.735
 31
0.0
100
AcDbText
 73
         2
  0
TEXT
  5
A0
100
AcDbEntity
  8
ASSEMBLY_REF_DES_TOP
100
AcDbText
 10
5.8972
 20
52.161
 30
0.0
 40
0.8
  1
C30
  7
ARIAL
 72
         1
 11
6.946
 21
52.577
 31
0.0
100
AcDbText
 73
         2
  0
TEXT
  5
A1
100
AcDbEntity
  8
ASSEMBLY_REF_DES_TOP
100
AcDbText
 10
8.094
 20
50.9228
 30
0.0
 40
0.8
  1
C29
 50
270.0
  7
ARIAL
 72
         1
 11
8.51
 21
49.874
 31
0.0
100
AcDbText
 73
         2
  0
TEXT
  5
A2
100
AcDbEntity
  8
ASSEMBLY_REF_DES_TOP
100
AcDbText
 10
14.384
 20
50.7408
 30
0.0
 40
0.8
  1
U2
 50
270.0
  7
ARIAL
 72
         1
 11
14.8
 21
50.01
 31
0.0
100
AcDbText
 73
         2
  0
TEXT
  5
A3
100
AcDbEntity
  8
ASSEMBLY_REF_DES_TOP
100
AcDbText
 10
12.814
 20
44.564
 30
0.0
 40
0.8
  1
L1
  7
ARIAL
 72
         1
 11
13.45
 21
44.98
 31
0.0
100
AcDbText
 73
         2
  0
TEXT
  5
A4
100
AcDbEntity
  8
ASSEMBLY_REF_DES_TOP
100
AcDbText
 10
15.594
 20
44.564
 30
0.0
 40
0.8
  1
L2
  7
ARIAL
 72
         1
 11
16.23
 21
44.98
 31
0.0
100
AcDbText
 73
         2
  0
TEXT
  5
A5
100
AcDbEntity
  8
ASSEMBLY_REF_DES_TOP
100
AcDbText
 10
2.0512
 20
62.784
 30
0.0
 40
0.8
  1
C46
  7
ARIAL
 72
         1
 11
3.1
 21
63.2
 31
0.0
100
AcDbText
 73
         2
  0
TEXT
  5
A6
100
AcDbEntity
  8
ASSEMBLY_REF_DES_TOP
100
AcDbText
 10
16.6822
 20
35.987
 30
0.0
 40
0.8
  1
C13
  7
ARIAL
 72
         1
 11
17.731
 21
36.403
 31
0.0
100
AcDbText
 73
         2
  0
TEXT
  5
A7
100
AcDbEntity
  8
ASSEMBLY_REF_DES_TOP
100
AcDbText
 10
16.9802
 20
36.907
 30
0.0
 40
0.8
  1
C5
  7
ARIAL
 72
         1
 11
17.711
 21
37.323
 31
0.0
100
AcDbText
 73
         2
  0
TEXT
  5
A8
100
AcDbEntity
  8
ASSEMBLY_REF_DES_TOP
100
AcDbText
 10
15.8708
 20
64.426
 30
0.0
 40
0.8
  1
X3
  7
ARIAL
 72
         1
 11
16.57
 21
64.842
 31
0.0
100
AcDbText
 73
         2
  0
TEXT
  5
A9
100
AcDbEntity
  8
ASSEMBLY_REF_DES_TOP
100
AcDbText
 10
20.234
 20
33.8808
 30
0.0
 40
0.8
  1
C6
 50
270.0
  7
ARIAL
 72
         1
 11
20.65
 21
33.15
 31
0.0
100
AcDbText
 73
         2
  0
TEXT
  5
AA
100
AcDbEntity
  8
ASSEMBLY_REF_DES_TOP
100
AcDbText
 10
21.124
 20
33.8708
 30
0.0
 40
0.8
  1
C2
 50
270.0
  7
ARIAL
 72
         1
 11
21.54
 21
33.14
 31
0.0
100
AcDbText
 73
         2
  0
TEXT
  5
AB
100
AcDbEntity
  8
ASSEMBLY_REF_DES_TOP
100
AcDbText
 10
17.6192
 20
25.024
 30
0.0
 40
0.8
  1
C1
  7
ARIAL
 72
         1
 11
18.35
 21
25.44
 31
0.0
100
AcDbText
 73
         2
  0
TEXT
  5
AC
100
AcDbEntity
  8
ASSEMBLY_REF_DES_TOP
100
AcDbText
 10
17.3012
 20
24.144
 30
0.0
 40
0.8
  1
C14
  7
ARIAL
 72
         1
 11
18.35
 21
24.56
 31
0.0
100
AcDbText
 73
         2
  0
TEXT
  5
AD
100
AcDbEntity
  8
ASSEMBLY_REF_DES_TOP
100
AcDbText
 10
11.7012
 20
23.654
 30
0.0
 40
0.8
  1
C16
  7
ARIAL
 72
         1
 11
12.75
 21
24.07
 31
0.0
100
AcDbText
 73
         2
  0
TEXT
  5
AE
100
AcDbEntity
  8
ASSEMBLY_REF_DES_TOP
100
AcDbText
 10
12.0392
 20
24.524
 30
0.0
 40
0.8
  1
C3
  7
ARIAL
 72
         1
 11
12.77
 21
24.94
 31
0.0
100
AcDbText
 73
         2
  0
TEXT
  5
AF
100
AcDbEntity
  8
ASSEMBLY_REF_DES_TOP
100
AcDbText
 10
8.954
 20
32.2788
 30
0.0
 40
0.8
  1
C18
 50
270.0
  7
ARIAL
 72
         1
 11
9.37
 21
31.23
 31
0.0
100
AcDbText
 73
         2
  0
TEXT
  5
B0
100
AcDbEntity
  8
ASSEMBLY_REF_DES_TOP
100
AcDbText
 10
8.034
 20
31.9608
 30
0.0
 40
0.8
  1
C8
 50
270.0
  7
ARIAL
 72
         1
 11
8.45
 21
31.23
 31
0.0
100
AcDbText
 73
         2
  0
TEXT
  5
B1
100
AcDbEntity
  8
ASSEMBLY_REF_DES_TOP
100
AcDbText
 10
10.0312
 20
35.914
 30
0.0
 40
0.8
  1
C17
  7
ARIAL
 72
         1
 11
11.08
 21
36.33
 31
0.0
100
AcDbText
 73
         2
  0
TEXT
  5
B2
100
AcDbEntity
  8
ASSEMBLY_REF_DES_TOP
100
AcDbText
 10
10.3492
 20
36.824
 30
0.0
 40
0.8
  1
C4
  7
ARIAL
 72
         1
 11
11.08
 21
37.24
 31
0.0
100
AcDbText
 73
         2
  0
TEXT
  5
B3
100
AcDbEntity
  8
ASSEMBLY_REF_DES_TOP
100
AcDbText
 10
13.5912
 20
12.574
 30
0.0
 40
0.8
  1
C37
  7
ARIAL
 72
         1
 11
14.64
 21
12.99
 31
0.0
100
AcDbText
 73
         2
  0
TEXT
  5
B4
100
AcDbEntity
  8
ASSEMBLY_REF_DES_TOP
100
AcDbText
 10
17.0712
 20
12.634
 30
0.0
 40
0.8
  1
C21
  7
ARIAL
 72
         1
 11
18.12
 21
13.05
 31
0.0
100
AcDbText
 73
         2
  0
TEXT
  5
B5
100
AcDbEntity
  8
ASSEMBLY_REF_DES_TOP
100
AcDbText
 10
21.474
 20
37.1388
 30
0.0
 40
0.8
  1
C40
 50
270.0
  7
ARIAL
 72
         1
 11
21.89
 21
36.09
 31
0.0
100
AcDbText
 73
         2
  0
TEXT
  5
B6
100
AcDbEntity
  8
ASSEMBLY_REF_DES_TOP
100
AcDbText
 10
21.364
 20
29.1988
 30
0.0
 40
0.8
  1
C41
 50
270.0
  7
ARIAL
 72
         1
 11
21.78
 21
28.15
 31
0.0
100
AcDbText
 73
         2
  0
TEXT
  5
B7
100
AcDbEntity
  8
ASSEMBLY_REF_DES_TOP
100
AcDbText
 10
12.5012
 20
20.794
 30
0.0
 40
0.8
  1
C36
  7
ARIAL
 72
         1
 11
13.55
 21
21.21
 31
0.0
100
AcDbText
 73
         2
  0
TEXT
  5
B8
100
AcDbEntity
  8
ASSEMBLY_REF_DES_TOP
100
AcDbText
 10
7.56975
 20
33.854
 30
0.0
 40
0.8
  1
J1
  7
ARIAL
 72
         1
 11
8.17375
 21
34.27
 31
0.0
100
AcDbText
 73
         2
  0
TEXT
  5
B9
100
AcDbEntity
  8
ASSEMBLY_REF_DES_TOP
100
AcDbText
 10
7.6492
 20
35.064
 30
0.0
 40
0.8
  1
R2
  7
ARIAL
 72
         1
 11
8.38
 21
35.48
 31
0.0
100
AcDbText
 73
         2
  0
TEXT
  5
BA
100
AcDbEntity
  8
ASSEMBLY_REF_DES_TOP
100
AcDbText
 10
7.6492
 20
36.014
 30
0.0
 40
0.8
  1
R6
  7
ARIAL
 72
         1
 11
8.38
 21
36.43
 31
0.0
100
AcDbText
 73
         2
  0
TEXT
  5
BB
100
AcDbEntity
  8
ASSEMBLY_REF_DES_TOP
100
AcDbText
 10
13.8092
 20
36.734
 30
0.0
 40
0.8
  1
C7
  7
ARIAL
 72
         1
 11
14.54
 21
37.15
 31
0.0
100
AcDbText
 73
         2
  0
TEXT
  5
BC
100
AcDbEntity
  8
ASSEMBLY_REF_DES_TOP
100
AcDbText
 10
13.4412
 20
37.644
 30
0.0
 40
0.8
  1
C15
  7
ARIAL
 72
         1
 11
14.49
 21
38.06
 31
0.0
100
AcDbText
 73
         2
  0
TEXT
  5
BD
100
AcDbEntity
  8
ASSEMBLY_REF_DES_TOP
100
AcDbText
 10
14.784
 20
31.6908
 30
0.0
 40
0.8
  1
U1
 50
270.0
  7
ARIAL
 72
         1
 11
15.2
 21
30.96
 31
0.0
100
AcDbText
 73
         2
  0
TEXT
  5
BE
100
AcDbEntity
  8
ASSEMBLY_REF_DES_TOP
100
AcDbText
 10
7.54975
 20
32.154
 30
0.0
 40
0.8
  1
J2
  7
ARIAL
 72
         1
 11
8.15375
 21
32.57
 31
0.0
100
AcDbText
 73
         2
  0
TEXT
  5
BF
100
AcDbEntity
  8
ASSEMBLY_REF_DES_TOP
100
AcDbText
 10
18.714
 20
38.1808
 30
0.0
 40
0.8
  1
R3
 50
270.0
  7
ARIAL
 72
         1
 11
19.13
 21
37.45
 31
0.0
100
AcDbText
 73
         2
  0
TEXT
  5
C0
100
AcDbEntity
  8
ASSEMBLY_REF_DES_TOP
100
AcDbText
 10
9.6492
 20
55.434
 30
0.0
 40
0.8
  1
C9
  7
ARIAL
 72
         1
 11
10.38
 21
55.85
 31
0.0
100
AcDbText
 73
         2
  0
TEXT
  5
C1
100
AcDbEntity
  8
ASSEMBLY_REF_DES_TOP
100
AcDbText
 10
18.5212
 20
20.794
 30
0.0
 40
0.8
  1
C38
  7
ARIAL
 72
         1
 11
19.57
 21
21.21
 31
0.0
100
AcDbText
 73
         2
  0
TEXT
  5
C2
100
AcDbEntity
  8
ASSEMBLY_REF_DES_TOP
100
AcDbText
 10
8.4412
 20
18.784
 30
0.0
 40
0.8
  1
C35
  7
ARIAL
 72
         1
 11
9.49
 21
19.2
 31
0.0
100
AcDbText
 73
         2
  0
TEXT
  5
C3
100
AcDbEntity
  8
ASSEMBLY_REF_DES_TOP
100
AcDbText
 10
8.3112
 20
14.504
 30
0.0
 40
0.8
  1
C42
  7
ARIAL
 72
         1
 11
9.36
 21
14.92
 31
0.0
100
AcDbText
 73
         2
  0
TEXT
  5
C4
100
AcDbEntity
  8
ASSEMBLY_REF_DES_TOP
100
AcDbText
 10
20.114
 20
16.0988
 30
0.0
 40
0.8
  1
C45
 50
270.0
  7
ARIAL
 72
         1
 11
20.53
 21
15.05
 31
0.0
100
AcDbText
 73
         2
  0
TEXT
  5
C5
100
AcDbEntity
  8
ASSEMBLY_REF_DES_TOP
100
AcDbText
 10
18.604
 20
16.0788
 30
0.0
 40
0.8
  1
C44
 50
270.0
  7
ARIAL
 72
         1
 11
19.02
 21
15.03
 31
0.0
100
AcDbText
 73
         2
  0
TEXT
  5
C6
100
AcDbEntity
  8
ASSEMBLY_REF_DES_TOP
100
AcDbText
 10
15.82975
 20
18.054
 30
0.0
 40
0.8
  1
J3
  7
ARIAL
 72
         1
 11
16.43375
 21
18.47
 31
0.0
100
AcDbText
 73
         2
  0
TEXT
  5
C7
100
AcDbEntity
  8
ASSEMBLY_REF_DES_TOP
100
AcDbText
 10
15.974
 20
16.2808
 30
0.0
 40
0.8
  1
U3
 50
270.0
  7
ARIAL
 72
         1
 11
16.39
 21
15.55
 31
0.0
100
AcDbText
 73
         2
  0
TEXT
  5
C8
100
AcDbEntity
  8
ASSEMBLY_REF_DES_TOP
100
AcDbText
 10
18.8392
 20
17.014
 30
0.0
 40
0.8
  1
R5
  7
ARIAL
 72
         1
 11
19.57
 21
17.43
 31
0.0
100
AcDbText
 73
         2
  0
TEXT
  5
C9
100
AcDbEntity
  8
ASSEMBLY_REF_DES_TOP
100
AcDbText
 10
24.434
 20
20.5388
 30
0.0
 40
0.8
  1
C26
 50
270.0
  7
ARIAL
 72
         1
 11
24.85
 21
19.49
 31
0.0
100
AcDbText
 73
         2
  0
TEXT
  5
CA
100
AcDbEntity
  8
ASSEMBLY_REF_DES_TOP
100
AcDbText
 10
9.7312
 20
40.764
 30
0.0
 40
0.8
  1
C24
  7
ARIAL
 72
         1
 11
10.78
 21
41.18
 31
0.0
100
AcDbText
 73
         2
  0
TEXT
  5
CB
100
AcDbEntity
  8
ASSEMBLY_REF_DES_TOP
100
AcDbText
 10
17.2312
 20
7.554
 30
0.0
 40
0.8
  1
C19
  7
ARIAL
 72
         1
 11
18.28
 21
7.97
 31
0.0
100
AcDbText
 73
         2
  0
TEXT
  5
CC
100
AcDbEntity
  8
ASSEMBLY_REF_DES_TOP
100
AcDbText
 10
8.094
 20
48.4188
 30
0.0
 40
0.8
  1
C28
 50
270.0
  7
ARIAL
 72
         1
 11
8.51
 21
47.37
 31
0.0
100
AcDbText
 73
         2
  0
TEXT
  5
CD
100
AcDbEntity
  8
ASSEMBLY_REF_DES_TOP
100
AcDbText
 10
2.8112
 20
52.174
 30
0.0
 40
0.8
  1
C27
  7
ARIAL
 72
         1
 11
3.86
 21
52.59
 31
0.0
100
AcDbText
 73
         2
  0
TEXT
  5
CE
100
AcDbEntity
  8
ASSEMBLY_REF_DES_TOP
100
AcDbText
 10
18.8312
 20
55.724
 30
0.0
 40
0.8
  1
R11
  7
ARIAL
 72
         1
 11
19.88
 21
56.14
 31
0.0
100
AcDbText
 73
         2
  0
TEXT
  5
CF
100
AcDbEntity
  8
ASSEMBLY_REF_DES_TOP
100
AcDbText
 10
19.6412
 20
56.924
 30
0.0
 40
0.8
  1
R12
  7
ARIAL
 72
         1
 11
20.69
 21
57.34
 31
0.0
100
AcDbText
 73
         2
  0
TEXT
  5
D0
100
AcDbEntity
  8
ASSEMBLY_REF_DES_TOP
100
AcDbText
 10
20.7092
 20
58.054
 30
0.0
 40
0.8
  1
R4
  7
ARIAL
 72
         1
 11
21.44
 21
58.47
 31
0.0
100
AcDbText
 73
         2
  0
TEXT
  5
D1
100
AcDbEntity
  8
ASSEMBLY_REF_DES_TOP
100
AcDbText
 10
18.4492
 20
54.304
 30
0.0
 40
0.8
  1
R1
  7
ARIAL
 72
         1
 11
19.18
 21
54.72
 31
0.0
100
AcDbText
 73
         2
  0
TEXT
  5
D2
100
AcDbEntity
  8
ASSEMBLY_REF_DES_TOP
100
AcDbText
 10
8.6012
 20
54.024
 30
0.0
 40
0.8
  1
C11
  7
ARIAL
 72
         1
 11
9.65
 21
54.44
 31
0.0
100
AcDbText
 73
         2
  0
TEXT
  5
D3
100
AcDbEntity
  8
ASSEMBLY_REF_DES_TOP
100
AcDbText
 10
9.5712
 20
42.544
 30
0.0
 40
0.8
  1
C43
  7
ARIAL
 72
         1
 11
10.62
 21
42.96
 31
0.0
100
AcDbText
 73
         2
  0
TEXT
  5
D4
100
AcDbEntity
  8
ASSEMBLY_REF_DES_TOP
100
AcDbText
 10
8.9412
 20
44.134
 30
0.0
 40
0.8
  1
C10
  7
ARIAL
 72
         1
 11
9.99
 21
44.55
 31
0.0
100
AcDbText
 73
         2
  0
TEXT
  5
D5
100
AcDbEntity
  8
ASSEMBLY_REF_DES_TOP
100
AcDbText
 10
10.1112
 20
45.144
 30
0.0
 40
0.8
  1
C12
  7
ARIAL
 72
         1
 11
11.16
 21
45.56
 31
0.0
100
AcDbText
 73
         2
  0
TEXT
  5
D6
100
AcDbEntity
  8
ASSEMBLY_REF_DES_TOP
100
AcDbText
 10
13.284
 20
5.4172
 30
0.0
 40
0.8
  1
X71
 50
270.0
  7
ARIAL
 72
         1
 11
13.7
 21
4.4
 31
0.0
100
AcDbText
 73
         2
  0
TEXT
  5
D7
100
AcDbEntity
  8
ASSEMBLY_REF_DES_TOP
100
AcDbText
 10
2.3008
 20
68.584
 30
0.0
 40
0.8
  1
X4
  7
ARIAL
 72
         1
 11
3.0
 21
69.0
 31
0.0
100
AcDbText
 73
         2
  0
TEXT
  5
D8
100
AcDbEntity
  8
ASSEMBLY_REF_DES_TOP
100
AcDbText
 10
23.3008
 20
44.584
 30
0.0
 40
0.8
  1
X5
  7
ARIAL
 72
         1
 11
24.0
 21
45.0
 31
0.0
100
AcDbText
 73
         2
  0
TEXT
  5
D9
100
AcDbEntity
  8
ASSEMBLY_REF_DES_TOP
100
AcDbText
 10
23.3008
 20
2.584
 30
0.0
 40
0.8
  1
X7
  7
ARIAL
 72
         1
 11
24.0
 21
3.0
 31
0.0
100
AcDbText
 73
         2
  0
TEXT
  5
DA
100
AcDbEntity
  8
ASSEMBLY_REF_DES_TOP
100
AcDbText
 10
2.1008
 20
2.584
 30
0.0
 40
0.8
  1
X6
  7
ARIAL
 72
         1
 11
2.8
 21
3.0
 31
0.0
100
AcDbText
 73
         2
  0
TEXT
  5
DB
100
AcDbEntity
  8
ASSEMBLY_REF_DES_TOP
100
AcDbText
 10
3.4828
 20
30.514
 30
0.0
 40
0.8
  1
X70
  7
ARIAL
 72
         1
 11
4.5
 21
30.93
 31
0.0
100
AcDbText
 73
         2
  0
LWPOLYLINE
  5
DC
100
AcDbEntity
  8
BOARD_OUTLINE
100
AcDbPolyline
 90
        4
 70
         1
 43
0.15
 10
0.0
 20
0.0
 10
0.0
 20
72.0
 10
26.9
 20
72.0
 10
26.9
 20
0.0
  0
CIRCLE
  5
DD
100
AcDbEntity
  8
SOLDERMASK_PADS_BTM
100
AcDbCircle
 10
11.820333
 20
14.216974
 30
0.0
 40
0.14
  0
CIRCLE
  5
DE
100
AcDbEntity
  8
SOLDERMASK_PADS_BTM
100
AcDbCircle
 10
12.069201
 20
10.413608
 30
0.0
 40
0.14
  0
CIRCLE
  5
DF
100
AcDbEntity
  8
SOLDERMASK_PADS_BTM
100
AcDbCircle
 10
25.175174
 20
35.569476
 30
0.0
 40
0.14
  0
CIRCLE
  5
E0
100
AcDbEntity
  8
SOLDERMASK_PADS_BTM
100
AcDbCircle
 10
24.679382
 20
37.927154
 30
0.0
 40
0.14
  0
CIRCLE
  5
E1
100
AcDbEntity
  8
SOLDERMASK_PADS_BTM
100
AcDbCircle
 10
25.46093
 20
28.887861
 30
0.0
 40
0.14
  0
CIRCLE
  5
E2
100
AcDbEntity
  8
SOLDERMASK_PADS_BTM
100
AcDbCircle
 10
20.798238
 20
32.074442
 30
0.0
 40
0.14
  0
CIRCLE
  5
E3
100
AcDbEntity
  8
SOLDERMASK_PADS_BTM
100
AcDbCircle
 10
18.454956
 20
41.034917
 30
0.0
 40
0.14
  0
CIRCLE
  5
E4
100
AcDbEntity
  8
SOLDERMASK_PADS_BTM
100
AcDbCircle
 10
7.398384
 20
51.843114
 30
0.0
 40
0.14
  0
CIRCLE
  5
E5
100
AcDbEntity
  8
SOLDERMASK_PADS_BTM
100
AcDbCircle
 10
7.78221
 20
50.185818
 30
0.0
 40
0.14
  0
CIRCLE
  5
E6
100
AcDbEntity
  8
SOLDERMASK_PADS_BTM
100
AcDbCircle
 10
11.23915
 20
40.418273
 30
0.0
 40
0.14
  0
CIRCLE
  5
E7
100
AcDbEntity
  8
SOLDERMASK_PADS_BTM
100
AcDbCircle
 10
11.083386
 20
44.284558
 30
0.0
 40
0.14
  0
CIRCLE
  5
E8
100
AcDbEntity
  8
SOLDERMASK_PADS_BTM
100
AcDbCircle
 10
11.73982
 20
44.768539
 30
0.0
 40
0.14
  0
CIRCLE
  5
E9
100
AcDbEntity
  8
SOLDERMASK_PADS_BTM
100
AcDbCircle
 10
4.278166
 20
51.855031
 30
0.0
 40
0.14
  0
CIRCLE
  5
EA
100
AcDbEntity
  8
SOLDERMASK_PADS_BTM
100
AcDbCircle
 10
7.775951
 20
47.74908
 30
0.0
 40
0.14
  0
CIRCLE
  5
EB
100
AcDbEntity
  8
SOLDERMASK_PADS_BTM
100
AcDbCircle
 10
20.112459
 20
63.219029
 30
0.0
 40
0.14
  0
CIRCLE
  5
EC
100
AcDbEntity
  8
SOLDERMASK_PADS_BTM
100
AcDbCircle
 10
17.168238
 20
63.227978
 30
0.0
 40
0.14
  0
CIRCLE
  5
ED
100
AcDbEntity
  8
SOLDERMASK_PADS_BTM
100
AcDbCircle
 10
15.582197
 20
59.601965
 30
0.0
 40
0.14
  0
CIRCLE
  5
EE
100
AcDbEntity
  8
SOLDERMASK_PADS_BTM
100
AcDbCircle
 10
14.036088
 20
63.227978
 30
0.0
 40
0.14
  0
CIRCLE
  5
EF
100
AcDbEntity
  8
SOLDERMASK_PADS_BTM
100
AcDbCircle
 10
12.567157
 20
59.588505
 30
0.0
 40
0.14
  0
CIRCLE
  5
F0
100
AcDbEntity
  8
SOLDERMASK_PADS_BTM
100
AcDbCircle
 10
14.143479
 20
38.821646
 30
0.0
 40
0.14
  0
CIRCLE
  5
F1
100
AcDbEntity
  8
SOLDERMASK_PADS_BTM
100
AcDbCircle
 10
22.417411
 20
32.720715
 30
0.0
 40
0.14
  0
CIRCLE
  5
F2
100
AcDbEntity
  8
SOLDERMASK_PADS_BTM
100
AcDbCircle
 10
18.705322
 20
23.818702
 30
0.0
 40
0.14
  0
CIRCLE
  5
F3
100
AcDbEntity
  8
SOLDERMASK_PADS_BTM
100
AcDbCircle
 10
20.212093
 20
21.939754
 30
0.0
 40
0.14
  0
CIRCLE
  5
F4
100
AcDbEntity
  8
SOLDERMASK_PADS_BTM
100
AcDbCircle
 10
7.654013
 20
31.028682
 30
0.0
 40
0.14
  0
CIRCLE
  5
F5
100
AcDbEntity
  8
SOLDERMASK_PADS_BTM
100
AcDbCircle
 10
10.604021
 20
35.592503
 30
0.0
 40
0.14
  0
CIRCLE
  5
F6
100
AcDbEntity
  8
SOLDERMASK_PADS_BTM
100
AcDbCircle
 10
10.68
 20
38.085559
 30
0.0
 40
0.14
  0
CIRCLE
  5
F7
100
AcDbEntity
  8
SOLDERMASK_PADS_BTM
100
AcDbCircle
 10
22.619
 20
58.47
 30
0.0
 40
0.14
  0
CIRCLE
  5
F8
100
AcDbEntity
  8
SOLDERMASK_PADS_BTM
100
AcDbCircle
 10
25.581492
 20
19.920735
 30
0.0
 40
0.14
  0
CIRCLE
  5
F9
100
AcDbEntity
  8
SOLDERMASK_PADS_BTM
100
AcDbCircle
 10
9.918913
 20
18.453614
 30
0.0
 40
0.14
  0
CIRCLE
  5
FA
100
AcDbEntity
  8
SOLDERMASK_PADS_BTM
100
AcDbCircle
 10
9.770853
 20
15.653934
 30
0.0
 40
0.14
  0
CIRCLE
  5
FB
100
AcDbEntity
  8
SOLDERMASK_PADS_BTM
100
AcDbCircle
 10
11.3
 20
54.417265
 30
0.0
 40
0.14
  0
CIRCLE
  5
FC
100
AcDbEntity
  8
SOLDERMASK_PADS_BTM
100
AcDbCircle
 10
15.383017
 20
51.607232
 30
0.0
 40
0.14
  0
CIRCLE
  5
FD
100
AcDbEntity
  8
SOLDERMASK_PADS_BTM
100
AcDbCircle
 10
9.215617
 20
53.681765
 30
0.0
 40
0.14
  0
CIRCLE
  5
FE
100
AcDbEntity
  8
SOLDERMASK_PADS_BTM
100
AcDbCircle
 10
9.955917
 20
56.575665
 30
0.0
 40
0.14
  0
CIRCLE
  5
FF
100
AcDbEntity
  8
SOLDERMASK_PADS_BTM
100
AcDbCircle
 10
13.845643
 20
54.181486
 30
0.0
 40
0.14
  0
CIRCLE
  5
100
100
AcDbEntity
  8
SOLDERMASK_PADS_BTM
100
AcDbCircle
 10
16.792775
 20
54.13363
 30
0.0
 40
0.14
  0
CIRCLE
  5
101
100
AcDbEntity
  8
SOLDERMASK_PADS_BTM
100
AcDbCircle
 10
12.318742
 20
51.79195
 30
0.0
 40
0.14
  0
CIRCLE
  5
102
100
AcDbEntity
  8
SOLDERMASK_PADS_BTM
100
AcDbCircle
 10
16.8
 20
48.340448
 30
0.0
 40
0.14
  0
CIRCLE
  5
103
100
AcDbEntity
  8
SOLDERMASK_PADS_BTM
100
AcDbCircle
 10
15.3
 20
48.434668
 30
0.0
 40
0.14
  0
CIRCLE
  5
104
100
AcDbEntity
  8
SOLDERMASK_PADS_BTM
100
AcDbCircle
 10
12.3
 20
48.420227
 30
0.0
 40
0.14
  0
CIRCLE
  5
105
100
AcDbEntity
  8
SOLDERMASK_PADS_BTM
100
AcDbCircle
 10
13.8
 20
48.219308
 30
0.0
 40
0.14
  0
CIRCLE
  5
106
100
AcDbEntity
  8
SOLDERMASK_PADS_BTM
100
AcDbCircle
 10
11.120902
 20
48.220069
 30
0.0
 40
0.14
  0
CIRCLE
  5
107
100
AcDbEntity
  8
SOLDERMASK_PADS_BTM
100
AcDbCircle
 10
19.14332
 20
38.532575
 30
0.0
 40
0.14
  0
CIRCLE
  5
108
100
AcDbEntity
  8
SOLDERMASK_PADS_BTM
100
AcDbCircle
 10
20.885231
 20
27.672708
 30
0.0
 40
0.14
  0
CIRCLE
  5
109
100
AcDbEntity
  8
SOLDERMASK_PADS_BTM
100
AcDbCircle
 10
8.053982
 20
37.197578
 30
0.0
 40
0.14
  0
CIRCLE
  5
10A
100
AcDbEntity
  8
SOLDERMASK_PADS_BTM
100
AcDbCircle
 10
3.183904
 20
59.874059
 30
0.0
 40
0.14
  0
CIRCLE
  5
10B
100
AcDbEntity
  8
SOLDERMASK_PADS_BTM
100
AcDbCircle
 10
14.050951
 20
20.451576
 30
0.0
 40
0.14
  0
CIRCLE
  5
10C
100
AcDbEntity
  8
SOLDERMASK_PADS_BTM
100
AcDbCircle
 10
22.684
 20
28.55
 30
0.0
 40
0.14
  0
CIRCLE
  5
10D
100
AcDbEntity
  8
SOLDERMASK_PADS_BTM
100
AcDbCircle
 10
22.62225
 20
36.469032
 30
0.0
 40
0.14
  0
CIRCLE
  5
10E
100
AcDbEntity
  8
SOLDERMASK_PADS_BTM
100
AcDbCircle
 10
18.681473
 20
8.695114
 30
0.0
 40
0.14
  0
CIRCLE
  5
10F
100
AcDbEntity
  8
SOLDERMASK_PADS_BTM
100
AcDbCircle
 10
18.635837
 20
12.3244
 30
0.0
 40
0.14
  0
CIRCLE
  5
110
100
AcDbEntity
  8
SOLDERMASK_PADS_BTM
100
AcDbCircle
 10
14.197163
 20
12.262072
 30
0.0
 40
0.14
  0
CIRCLE
  5
111
100
AcDbEntity
  8
SOLDERMASK_PADS_BTM
100
AcDbCircle
 10
21.633988
 20
15.864246
 30
0.0
 40
0.14
  0
CIRCLE
  5
112
100
AcDbEntity
  8
SOLDERMASK_PADS_BTM
100
AcDbCircle
 10
12.171883
 20
23.342245
 30
0.0
 40
0.14
  0
CIRCLE
  5
113
100
AcDbEntity
  8
SOLDERMASK_PADS_BTM
100
AcDbCircle
 10
18.135444
 20
38.165415
 30
0.0
 40
0.14
  0
CIRCLE
  5
114
100
AcDbEntity
  8
SOLDERMASK_PADS_BTM
100
AcDbCircle
 10
5.409624
 20
60.948885
 30
0.0
 40
0.14
  0
CIRCLE
  5
115
100
AcDbEntity
  8
SOLDERMASK_PADS_BTM
100
AcDbCircle
 10
11.779972
 20
41.841985
 30
0.0
 40
0.14
  0
CIRCLE
  5
116
100
AcDbEntity
  8
SOLDERMASK_PADS_BTM
100
AcDbCircle
 10
4.95913
 20
8.510024
 30
0.0
 40
0.14
  0
CIRCLE
  5
117
100
AcDbEntity
  8
SOLDERMASK_PADS_BTM
100
AcDbCircle
 10
7.186717
 20
36.007124
 30
0.0
 40
0.14
  0
CIRCLE
  5
118
100
AcDbEntity
  8
SOLDERMASK_PADS_BTM
100
AcDbCircle
 10
12.049252
 20
9.447278
 30
0.0
 40
0.14
  0
CIRCLE
  5
119
100
AcDbEntity
  8
SOLDERMASK_PADS_BTM
100
AcDbCircle
 10
24.28982
 20
35.569476
 30
0.0
 40
0.14
  0
CIRCLE
  5
11A
100
AcDbEntity
  8
SOLDERMASK_PADS_BTM
100
AcDbCircle
 10
24.622553
 20
37.041818
 30
0.0
 40
0.14
  0
CIRCLE
  5
11B
100
AcDbEntity
  8
SOLDERMASK_PADS_BTM
100
AcDbCircle
 10
24.62477
 20
28.887861
 30
0.0
 40
0.14
  0
CIRCLE
  5
11C
100
AcDbEntity
  8
SOLDERMASK_PADS_BTM
100
AcDbCircle
 10
20.666911
 20
42.014792
 30
0.0
 40
0.14
  0
CIRCLE
  5
11D
100
AcDbEntity
  8
SOLDERMASK_PADS_BTM
100
AcDbCircle
 10
17.588341
 20
42.014792
 30
0.0
 40
0.14
  0
CIRCLE
  5
11E
100
AcDbEntity
  8
SOLDERMASK_PADS_BTM
100
AcDbCircle
 10
18.435316
 20
42.022157
 30
0.0
 40
0.14
  0
CIRCLE
  5
11F
100
AcDbEntity
  8
SOLDERMASK_PADS_BTM
100
AcDbCircle
 10
18.454956
 20
40.234917
 30
0.0
 40
0.14
  0
CIRCLE
  5
120
100
AcDbEntity
  8
SOLDERMASK_PADS_BTM
100
AcDbCircle
 10
19.538998
 20
41.925024
 30
0.0
 40
0.14
  0
CIRCLE
  5
121
100
AcDbEntity
  8
SOLDERMASK_PADS_BTM
100
AcDbCircle
 10
8.266648
 20
33.373532
 30
0.0
 40
0.14
  0
CIRCLE
  5
122
100
AcDbEntity
  8
SOLDERMASK_PADS_BTM
100
AcDbCircle
 10
20.359
 20
54.72
 30
0.0
 40
0.14
  0
CIRCLE
  5
123
100
AcDbEntity
  8
SOLDERMASK_PADS_BTM
100
AcDbCircle
 10
21.734
 20
14.275
 30
0.0
 40
0.14
  0
CIRCLE
  5
124
100
AcDbEntity
  8
SOLDERMASK_PADS_BTM
100
AcDbCircle
 10
25.590465
 20
19.095219
 30
0.0
 40
0.14
  0
CIRCLE
  5
125
100
AcDbEntity
  8
SOLDERMASK_PADS_BTM
100
AcDbCircle
 10
17.806473
 20
8.722034
 30
0.0
 40
0.14
  0
CIRCLE
  5
126
100
AcDbEntity
  8
SOLDERMASK_PADS_BTM
100
AcDbCircle
 10
20.010733
 20
18.157505
 30
0.0
 40
0.14
  0
CIRCLE
  5
127
100
AcDbEntity
  8
SOLDERMASK_PADS_BTM
100
AcDbCircle
 10
10.06621
 20
45.647726
 30
0.0
 40
0.14
  0
CIRCLE
  5
128
100
AcDbEntity
  8
SOLDERMASK_PADS_BTM
100
AcDbCircle
 10
10.420982
 20
40.440189
 30
0.0
 40
0.14
  0
CIRCLE
  5
129
100
AcDbEntity
  8
SOLDERMASK_PADS_BTM
100
AcDbCircle
 10
4.122784
 20
8.504029
 30
0.0
 40
0.14
  0
CIRCLE
  5
12A
100
AcDbEntity
  8
SOLDERMASK_PADS_BTM
100
AcDbCircle
 10
17.718568
 20
11.976906
 30
0.0
 40
0.14
  0
CIRCLE
  5
12B
100
AcDbEntity
  8
SOLDERMASK_PADS_BTM
100
AcDbCircle
 10
10.999273
 20
14.216974
 30
0.0
 40
0.14
  0
CIRCLE
  5
12C
100
AcDbEntity
  8
SOLDERMASK_PADS_BTM
100
AcDbCircle
 10
9.044013
 20
18.453614
 30
0.0
 40
0.14
  0
CIRCLE
  5
12D
100
AcDbEntity
  8
SOLDERMASK_PADS_BTM
100
AcDbCircle
 10
14.944846
 20
38.843078
 30
0.0
 40
0.14
  0
CIRCLE
  5
12E
100
AcDbEntity
  8
SOLDERMASK_PADS_BTM
100
AcDbCircle
 10
15.022679
 20
12.262072
 30
0.0
 40
0.14
  0
CIRCLE
  5
12F
100
AcDbEntity
  8
SOLDERMASK_PADS_BTM
100
AcDbCircle
 10
18.598336
 20
13.908399
 30
0.0
 40
0.14
  0
CIRCLE
  5
130
100
AcDbEntity
  8
SOLDERMASK_PADS_BTM
100
AcDbCircle
 10
22.626481
 20
35.669032
 30
0.0
 40
0.14
  0
CIRCLE
  5
131
100
AcDbEntity
  8
SOLDERMASK_PADS_BTM
100
AcDbCircle
 10
22.629375
 20
27.686165
 30
0.0
 40
0.14
  0
CIRCLE
  5
132
100
AcDbEntity
  8
SOLDERMASK_PADS_BTM
100
AcDbCircle
 10
13.195393
 20
20.432234
 30
0.0
 40
0.14
  0
CIRCLE
  5
133
100
AcDbEntity
  8
SOLDERMASK_PADS_BTM
100
AcDbCircle
 10
8.970853
 20
15.653934
 30
0.0
 40
0.14
  0
CIRCLE
  5
134
100
AcDbEntity
  8
SOLDERMASK_PADS_BTM
100
AcDbCircle
 10
19.112093
 20
21.980134
 30
0.0
 40
0.14
  0
CIRCLE
  5
135
100
AcDbEntity
  8
SOLDERMASK_PADS_BTM
100
AcDbCircle
 10
11.539232
 20
38.079421
 30
0.0
 40
0.14
  0
CIRCLE
  5
136
100
AcDbEntity
  8
SOLDERMASK_PADS_BTM
100
AcDbCircle
 10
7.407332
 20
31.828682
 30
0.0
 40
0.14
  0
CIRCLE
  5
137
100
AcDbEntity
  8
SOLDERMASK_PADS_BTM
100
AcDbCircle
 10
17.905343
 20
23.824596
 30
0.0
 40
0.14
  0
CIRCLE
  5
138
100
AcDbEntity
  8
SOLDERMASK_PADS_BTM
100
AcDbCircle
 10
22.425448
 20
33.580674
 30
0.0
 40
0.14
  0
CIRCLE
  5
139
100
AcDbEntity
  8
SOLDERMASK_PADS_BTM
100
AcDbCircle
 10
13.149867
 20
23.325669
 30
0.0
 40
0.14
  0
CIRCLE
  5
13A
100
AcDbEntity
  8
SOLDERMASK_PADS_BTM
100
AcDbCircle
 10
17.335444
 20
38.091684
 30
0.0
 40
0.14
  0
CIRCLE
  5
13B
100
AcDbEntity
  8
SOLDERMASK_PADS_BTM
100
AcDbCircle
 10
21.609823
 20
41.042564
 30
0.0
 40
0.14
  0
CIRCLE
  5
13C
100
AcDbEntity
  8
SOLDERMASK_PADS_BTM
100
AcDbCircle
 10
17.794561
 20
44.180102
 30
0.0
 40
0.14
  0
CIRCLE
  5
13D
100
AcDbEntity
  8
SOLDERMASK_PADS_BTM
100
AcDbCircle
 10
18.026615
 20
51.402225
 30
0.0
 40
0.14
  0
CIRCLE
  5
13E
100
AcDbEntity
  8
SOLDERMASK_PADS_BTM
100
AcDbCircle
 10
18.77455
 20
56.104297
 30
0.0
 40
0.14
  0
CIRCLE
  5
13F
100
AcDbEntity
  8
SOLDERMASK_PADS_BTM
100
AcDbCircle
 10
20.204606
 20
58.344325
 30
0.0
 40
0.14
  0
CIRCLE
  5
140
100
AcDbEntity
  8
SOLDERMASK_PADS_BTM
100
AcDbCircle
 10
18.8
 20
51.698345
 30
0.0
 40
0.14
  0
CIRCLE
  5
141
100
AcDbEntity
  8
SOLDERMASK_PADS_BTM
100
AcDbCircle
 10
21.041655
 20
59.556785
 30
0.0
 40
0.14
  0
CIRCLE
  5
142
100
AcDbEntity
  8
SOLDERMASK_PADS_BTM
100
AcDbCircle
 10
19.911015
 20
52.96
 30
0.0
 40
0.14
  0
CIRCLE
  5
143
100
AcDbEntity
  8
SOLDERMASK_PADS_BTM
100
AcDbCircle
 10
20.225897
 20
59.144325
 30
0.0
 40
0.14
  0
CIRCLE
  5
144
100
AcDbEntity
  8
SOLDERMASK_PADS_BTM
100
AcDbCircle
 10
9.323297
 20
58.877325
 30
0.0
 40
0.14
  0
CIRCLE
  5
145
100
AcDbEntity
  8
SOLDERMASK_PADS_BTM
100
AcDbCircle
 10
9.739696
 20
50.60113
 30
0.0
 40
0.14
  0
CIRCLE
  5
146
100
AcDbEntity
  8
SOLDERMASK_PADS_BTM
100
AcDbCircle
 10
22.871617
 20
52.735961
 30
0.0
 40
0.14
  0
CIRCLE
  5
147
100
AcDbEntity
  8
SOLDERMASK_PADS_BTM
100
AcDbCircle
 10
14.89879
 20
10.978619
 30
0.0
 40
0.14
  0
CIRCLE
  5
148
100
AcDbEntity
  8
SOLDERMASK_PADS_BTM
100
AcDbCircle
 10
9.616418
 20
35.02447
 30
0.0
 40
0.14
  0
CIRCLE
  5
149
100
AcDbEntity
  8
SOLDERMASK_PADS_BTM
100
AcDbCircle
 10
9.894183
 20
33.357129
 30
0.0
 40
0.14
  0
CIRCLE
  5
14A
100
AcDbEntity
  8
SOLDERMASK_PADS_BTM
100
AcDbCircle
 10
22.346428
 20
18.881142
 30
0.0
 40
0.14
  0
CIRCLE
  5
14B
100
AcDbEntity
  8
SOLDERMASK_PADS_BTM
100
AcDbCircle
 10
9.706853
 20
34.157129
 30
0.0
 40
0.14
  0
CIRCLE
  5
14C
100
AcDbEntity
  8
SOLDERMASK_PADS_BTM
100
AcDbCircle
 10
22.270456
 20
20.229645
 30
0.0
 40
0.14
  0
CIRCLE
  5
14D
100
AcDbEntity
  8
SOLDERMASK_PADS_BTM
100
AcDbCircle
 10
21.055
 20
28.472708
 30
0.0
 40
0.14
  0
CIRCLE
  5
14E
100
AcDbEntity
  8
SOLDERMASK_PADS_BTM
100
AcDbCircle
 10
20.973071
 20
23.065463
 30
0.0
 40
0.14
  0
CIRCLE
  5
14F
100
AcDbEntity
  8
SOLDERMASK_PADS_BTM
100
AcDbCircle
 10
20.526524
 20
23.802752
 30
0.0
 40
0.14
  0
CIRCLE
  5
150
100
AcDbEntity
  8
SOLDERMASK_PADS_BTM
100
AcDbCircle
 10
20.037558
 20
24.641605
 30
0.0
 40
0.14
  0
CIRCLE
  5
151
100
AcDbEntity
  8
SOLDERMASK_PADS_BTM
100
AcDbCircle
 10
19.428517
 20
25.5882
 30
0.0
 40
0.14
  0
CIRCLE
  5
152
100
AcDbEntity
  8
SOLDERMASK_PADS_BTM
100
AcDbCircle
 10
17.263832
 20
24.437821
 30
0.0
 40
0.14
  0
CIRCLE
  5
153
100
AcDbEntity
  8
SOLDERMASK_PADS_BTM
100
AcDbCircle
 10
16.973074
 20
25.569703
 30
0.0
 40
0.14
  0
CIRCLE
  5
154
100
AcDbEntity
  8
SOLDERMASK_PADS_BTM
100
AcDbCircle
 10
16.441682
 20
24.630794
 30
0.0
 40
0.14
  0
CIRCLE
  5
155
100
AcDbEntity
  8
SOLDERMASK_PADS_BTM
100
AcDbCircle
 10
15.873074
 20
25.617823
 30
0.0
 40
0.14
  0
CIRCLE
  5
156
100
AcDbEntity
  8
SOLDERMASK_PADS_BTM
100
AcDbCircle
 10
15.385935
 20
22.195491
 30
0.0
 40
0.14
  0
CIRCLE
  5
157
100
AcDbEntity
  8
SOLDERMASK_PADS_BTM
100
AcDbCircle
 10
14.410475
 20
22.907977
 30
0.0
 40
0.14
  0
CIRCLE
  5
158
100
AcDbEntity
  8
SOLDERMASK_PADS_BTM
100
AcDbCircle
 10
13.827587
 20
22.117996
 30
0.0
 40
0.14
  0
CIRCLE
  5
159
100
AcDbEntity
  8
SOLDERMASK_PADS_BTM
100
AcDbCircle
 10
13.845
 20
23.968936
 30
0.0
 40
0.14
  0
CIRCLE
  5
15A
100
AcDbEntity
  8
SOLDERMASK_PADS_BTM
100
AcDbCircle
 10
10.895
 20
25.14969
 30
0.0
 40
0.14
  0
CIRCLE
  5
15B
100
AcDbEntity
  8
SOLDERMASK_PADS_BTM
100
AcDbCircle
 10
10.023827
 20
25.056335
 30
0.0
 40
0.14
  0
CIRCLE
  5
15C
100
AcDbEntity
  8
SOLDERMASK_PADS_BTM
100
AcDbCircle
 10
10.563706
 20
26.271345
 30
0.0
 40
0.14
  0
CIRCLE
  5
15D
100
AcDbEntity
  8
SOLDERMASK_PADS_BTM
100
AcDbCircle
 10
9.639451
 20
26.156335
 30
0.0
 40
0.14
  0
CIRCLE
  5
15E
100
AcDbEntity
  8
SOLDERMASK_PADS_BTM
100
AcDbCircle
 10
20.563956
 20
29.634977
 30
0.0
 40
0.14
  0
CIRCLE
  5
15F
100
AcDbEntity
  8
SOLDERMASK_PADS_BTM
100
AcDbCircle
 10
11.695
 20
25.084437
 30
0.0
 40
0.14
  0
CIRCLE
  5
160
100
AcDbEntity
  8
SOLDERMASK_PADS_BTM
100
AcDbCircle
 10
21.803979
 20
29.625
 30
0.0
 40
0.14
  0
LWPOLYLINE
  5
161
100
AcDbEntity
  8
SOLDERMASK_PADS_BTM
100
AcDbPolyline
 90
        4
 70
         1
 10
8.57
 20
61.342
 10
8.57
 20
63.142
 42
-1.0
 10
10.07
 20
63.142
 10
10.07
 20
61.342
 42
-1.0
  0
LWPOLYLINE
  5
162
100
AcDbEntity
  8
SOLDERMASK_PADS_BTM
100
AcDbPolyline
 90
        4
 70
         1
 10
23.07
 20
61.342
 10
23.07
 20
63.142
 42
-1.0
 10
24.57
 20
63.142
 10
24.57
 20
61.342
 42
-1.0
  0
LWPOLYLINE
  5
163
100
AcDbEntity
  8
SOLDERMASK_PADS_BTM
100
AcDbPolyline
 90
        4
 70
         1
 10
8.57
 20
67.642
 10
8.57
 20
68.842
 42
-1.0
 10
10.07
 20
68.842
 10
10.07
 20
67.642
 42
-1.0
  0
LWPOLYLINE
  5
164
100
AcDbEntity
  8
SOLDERMASK_PADS_BTM
100
AcDbPolyline
 90
        4
 70
         1
 10
23.07
 20
67.642
 10
23.07
 20
68.842
 42
-1.0
 10
24.57
 20
68.842
 10
24.57
 20
67.642
 42
-1.0
  0
CIRCLE
  5
165
100
AcDbEntity
  8
SOLDERMASK_PADS_BTM
100
AcDbCircle
 10
6.7
 20
3.4
 30
0.0
 40
0.625
  0
CIRCLE
  5
166
100
AcDbEntity
  8
SOLDERMASK_PADS_BTM
100
AcDbCircle
 10
6.7
 20
5.4
 30
0.0
 40
0.625
  0
CIRCLE
  5
167
100
AcDbEntity
  8
SOLDERMASK_PADS_BTM
100
AcDbCircle
 10
8.7
 20
3.4
 30
0.0
 40
0.625
  0
CIRCLE
  5
168
100
AcDbEntity
  8
SOLDERMASK_PADS_BTM
100
AcDbCircle
 10
8.7
 20
5.4
 30
0.0
 40
0.625
  0
CIRCLE
  5
169
100
AcDbEntity
  8
SOLDERMASK_PADS_BTM
100
AcDbCircle
 10
10.7
 20
3.4
 30
0.0
 40
0.625
  0
CIRCLE
  5
16A
100
AcDbEntity
  8
SOLDERMASK_PADS_BTM
100
AcDbCircle
 10
10.7
 20
5.4
 30
0.0
 40
0.625
  0
CIRCLE
  5
16B
100
AcDbEntity
  8
SOLDERMASK_PADS_BTM
100
AcDbCircle
 10
12.7
 20
3.4
 30
0.0
 40
0.625
  0
CIRCLE
  5
16C
100
AcDbEntity
  8
SOLDERMASK_PADS_BTM
100
AcDbCircle
 10
12.7
 20
5.4
 30
0.0
 40
0.625
  0
CIRCLE
  5
16D
100
AcDbEntity
  8
SOLDERMASK_PADS_BTM
100
AcDbCircle
 10
14.7
 20
3.4
 30
0.0
 40
0.625
  0
CIRCLE
  5
16E
100
AcDbEntity
  8
SOLDERMASK_PADS_BTM
100
AcDbCircle
 10
14.7
 20
5.4
 30
0.0
 40
0.625
  0
CIRCLE
  5
16F
100
AcDbEntity
  8
SOLDERMASK_PADS_BTM
100
AcDbCircle
 10
16.7
 20
3.4
 30
0.0
 40
0.625
  0
CIRCLE
  5
170
100
AcDbEntity
  8
SOLDERMASK_PADS_BTM
100
AcDbCircle
 10
16.7
 20
5.4
 30
0.0
 40
0.625
  0
CIRCLE
  5
171
100
AcDbEntity
  8
SOLDERMASK_PADS_BTM
100
AcDbCircle
 10
18.7
 20
3.4
 30
0.0
 40
0.625
  0
CIRCLE
  5
172
100
AcDbEntity
  8
SOLDERMASK_PADS_BTM
100
AcDbCircle
 10
18.7
 20
5.4
 30
0.0
 40
0.625
  0
CIRCLE
  5
173
100
AcDbEntity
  8
SOLDERMASK_PADS_BTM
100
AcDbCircle
 10
20.7
 20
3.4
 30
0.0
 40
0.625
  0
CIRCLE
  5
174
100
AcDbEntity
  8
SOLDERMASK_PADS_BTM
100
AcDbCircle
 10
20.7
 20
5.4
 30
0.0
 40
0.625
  0
CIRCLE
  5
175
100
AcDbEntity
  8
SOLDERMASK_PADS_BTM
100
AcDbCircle
 10
3.0
 20
69.0
 30
0.0
 40
2.0
  0
CIRCLE
  5
176
100
AcDbEntity
  8
SOLDERMASK_PADS_BTM
100
AcDbCircle
 10
24.0
 20
45.0
 30
0.0
 40
2.25
  0
CIRCLE
  5
177
100
AcDbEntity
  8
SOLDERMASK_PADS_BTM
100
AcDbCircle
 10
24.0
 20
3.0
 30
0.0
 40
2.25
  0
CIRCLE
  5
178
100
AcDbEntity
  8
SOLDERMASK_PADS_BTM
100
AcDbCircle
 10
2.8
 20
3.0
 30
0.0
 40
2.0
  0
CIRCLE
  5
179
100
AcDbEntity
  8
SOLDERMASK_PADS_BTM
100
AcDbCircle
 10
5.5
 20
11.93
 30
0.0
 40
0.625
  0
CIRCLE
  5
17A
100
AcDbEntity
  8
SOLDERMASK_PADS_BTM
100
AcDbCircle
 10
3.5
 20
11.93
 30
0.0
 40
0.625
  0
CIRCLE
  5
17B
100
AcDbEntity
  8
SOLDERMASK_PADS_BTM
100
AcDbCircle
 10
5.5
 20
13.93
 30
0.0
 40
0.625
  0
CIRCLE
  5
17C
100
AcDbEntity
  8
SOLDERMASK_PADS_BTM
100
AcDbCircle
 10
3.5
 20
13.93
 30
0.0
 40
0.625
  0
CIRCLE
  5
17D
100
AcDbEntity
  8
SOLDERMASK_PADS_BTM
100
AcDbCircle
 10
5.5
 20
15.93
 30
0.0
 40
0.625
  0
CIRCLE
  5
17E
100
AcDbEntity
  8
SOLDERMASK_PADS_BTM
100
AcDbCircle
 10
3.5
 20
15.93
 30
0.0
 40
0.625
  0
CIRCLE
  5
17F
100
AcDbEntity
  8
SOLDERMASK_PADS_BTM
100
AcDbCircle
 10
5.5
 20
17.93
 30
0.0
 40
0.625
  0
CIRCLE
  5
180
100
AcDbEntity
  8
SOLDERMASK_PADS_BTM
100
AcDbCircle
 10
3.5
 20
17.93
 30
0.0
 40
0.625
  0
CIRCLE
  5
181
100
AcDbEntity
  8
SOLDERMASK_PADS_BTM
100
AcDbCircle
 10
5.5
 20
19.93
 30
0.0
 40
0.625
  0
CIRCLE
  5
182
100
AcDbEntity
  8
SOLDERMASK_PADS_BTM
100
AcDbCircle
 10
3.5
 20
19.93
 30
0.0
 40
0.625
  0
CIRCLE
  5
183
100
AcDbEntity
  8
SOLDERMASK_PADS_BTM
100
AcDbCircle
 10
5.5
 20
21.93
 30
0.0
 40
0.625
  0
CIRCLE
  5
184
100
AcDbEntity
  8
SOLDERMASK_PADS_BTM
100
AcDbCircle
 10
3.5
 20
21.93
 30
0.0
 40
0.625
  0
CIRCLE
  5
185
100
AcDbEntity
  8
SOLDERMASK_PADS_BTM
100
AcDbCircle
 10
5.5
 20
23.93
 30
0.0
 40
0.625
  0
CIRCLE
  5
186
100
AcDbEntity
  8
SOLDERMASK_PADS_BTM
100
AcDbCircle
 10
3.5
 20
23.93
 30
0.0
 40
0.625
  0
CIRCLE
  5
187
100
AcDbEntity
  8
SOLDERMASK_PADS_BTM
100
AcDbCircle
 10
5.5
 20
25.93
 30
0.0
 40
0.625
  0
CIRCLE
  5
188
100
AcDbEntity
  8
SOLDERMASK_PADS_BTM
100
AcDbCircle
 10
3.5
 20
25.93
 30
0.0
 40
0.625
  0
CIRCLE
  5
189
100
AcDbEntity
  8
SOLDERMASK_PADS_BTM
100
AcDbCircle
 10
5.5
 20
27.93
 30
0.0
 40
0.625
  0
CIRCLE
  5
18A
100
AcDbEntity
  8
SOLDERMASK_PADS_BTM
100
AcDbCircle
 10
3.5
 20
27.93
 30
0.0
 40
0.625
  0
CIRCLE
  5
18B
100
AcDbEntity
  8
SOLDERMASK_PADS_BTM
100
AcDbCircle
 10
5.5
 20
29.93
 30
0.0
 40
0.625
  0
CIRCLE
  5
18C
100
AcDbEntity
  8
SOLDERMASK_PADS_BTM
100
AcDbCircle
 10
3.5
 20
29.93
 30
0.0
 40
0.625
  0
CIRCLE
  5
18D
100
AcDbEntity
  8
SOLDERMASK_PADS_BTM
100
AcDbCircle
 10
5.5
 20
31.93
 30
0.0
 40
0.625
  0
CIRCLE
  5
18E
100
AcDbEntity
  8
SOLDERMASK_PADS_BTM
100
AcDbCircle
 10
3.5
 20
31.93
 30
0.0
 40
0.625
  0
CIRCLE
  5
18F
100
AcDbEntity
  8
SOLDERMASK_PADS_BTM
100
AcDbCircle
 10
5.5
 20
33.93
 30
0.0
 40
0.625
  0
CIRCLE
  5
190
100
AcDbEntity
  8
SOLDERMASK_PADS_BTM
100
AcDbCircle
 10
3.5
 20
33.93
 30
0.0
 40
0.625
  0
CIRCLE
  5
191
100
AcDbEntity
  8
SOLDERMASK_PADS_BTM
100
AcDbCircle
 10
5.5
 20
35.93
 30
0.0
 40
0.625
  0
CIRCLE
  5
192
100
AcDbEntity
  8
SOLDERMASK_PADS_BTM
100
AcDbCircle
 10
3.5
 20
35.93
 30
0.0
 40
0.625
  0
CIRCLE
  5
193
100
AcDbEntity
  8
SOLDERMASK_PADS_BTM
100
AcDbCircle
 10
5.5
 20
37.93
 30
0.0
 40
0.625
  0
CIRCLE
  5
194
100
AcDbEntity
  8
SOLDERMASK_PADS_BTM
100
AcDbCircle
 10
3.5
 20
37.93
 30
0.0
 40
0.625
  0
CIRCLE
  5
195
100
AcDbEntity
  8
SOLDERMASK_PADS_BTM
100
AcDbCircle
 10
5.5
 20
39.93
 30
0.0
 40
0.625
  0
CIRCLE
  5
196
100
AcDbEntity
  8
SOLDERMASK_PADS_BTM
100
AcDbCircle
 10
3.5
 20
39.93
 30
0.0
 40
0.625
  0
CIRCLE
  5
197
100
AcDbEntity
  8
SOLDERMASK_PADS_BTM
100
AcDbCircle
 10
5.5
 20
41.93
 30
0.0
 40
0.625
  0
CIRCLE
  5
198
100
AcDbEntity
  8
SOLDERMASK_PADS_BTM
100
AcDbCircle
 10
3.5
 20
41.93
 30
0.0
 40
0.625
  0
CIRCLE
  5
199
100
AcDbEntity
  8
SOLDERMASK_PADS_BTM
100
AcDbCircle
 10
5.5
 20
43.93
 30
0.0
 40
0.625
  0
CIRCLE
  5
19A
100
AcDbEntity
  8
SOLDERMASK_PADS_BTM
100
AcDbCircle
 10
3.5
 20
43.93
 30
0.0
 40
0.625
  0
CIRCLE
  5
19B
100
AcDbEntity
  8
SOLDERMASK_PADS_BTM
100
AcDbCircle
 10
5.5
 20
45.93
 30
0.0
 40
0.625
  0
CIRCLE
  5
19C
100
AcDbEntity
  8
SOLDERMASK_PADS_BTM
100
AcDbCircle
 10
3.5
 20
45.93
 30
0.0
 40
0.625
  0
CIRCLE
  5
19D
100
AcDbEntity
  8
SOLDERMASK_PADS_BTM
100
AcDbCircle
 10
5.5
 20
47.93
 30
0.0
 40
0.625
  0
CIRCLE
  5
19E
100
AcDbEntity
  8
SOLDERMASK_PADS_BTM
100
AcDbCircle
 10
3.5
 20
47.93
 30
0.0
 40
0.625
  0
CIRCLE
  5
19F
100
AcDbEntity
  8
SOLDERMASK_PADS_BTM
100
AcDbCircle
 10
5.5
 20
49.93
 30
0.0
 40
0.625
  0
CIRCLE
  5
1A0
100
AcDbEntity
  8
SOLDERMASK_PADS_BTM
100
AcDbCircle
 10
3.5
 20
49.93
 30
0.0
 40
0.625
  0
LWPOLYLINE
  5
1A1
100
AcDbEntity
  8
SOLDERMASK_PADS_TOP
100
AcDbPolyline
 90
        4
 70
         1
 10
24.2
 20
57.0
 10
24.2
 20
58.6
 10
25.8
 20
58.6
 10
25.8
 20
57.0
  0
CIRCLE
  5
1A2
100
AcDbEntity
  8
SOLDERMASK_PADS_TOP
100
AcDbCircle
 10
2.7
 20
7.4
 30
0.0
 40
0.8
  0
CIRCLE
  5
1A3
100
AcDbEntity
  8
SOLDERMASK_PADS_TOP
100
AcDbCircle
 10
11.820333
 20
14.216974
 30
0.0
 40
0.14
  0
CIRCLE
  5
1A4
100
AcDbEntity
  8
SOLDERMASK_PADS_TOP
100
AcDbCircle
 10
12.069201
 20
10.413608
 30
0.0
 40
0.14
  0
CIRCLE
  5
1A5
100
AcDbEntity
  8
SOLDERMASK_PADS_TOP
100
AcDbCircle
 10
25.175174
 20
35.569476
 30
0.0
 40
0.14
  0
CIRCLE
  5
1A6
100
AcDbEntity
  8
SOLDERMASK_PADS_TOP
100
AcDbCircle
 10
24.679382
 20
37.927154
 30
0.0
 40
0.14
  0
CIRCLE
  5
1A7
100
AcDbEntity
  8
SOLDERMASK_PADS_TOP
100
AcDbCircle
 10
25.46093
 20
28.887861
 30
0.0
 40
0.14
  0
CIRCLE
  5
1A8
100
AcDbEntity
  8
SOLDERMASK_PADS_TOP
100
AcDbCircle
 10
20.798238
 20
32.074442
 30
0.0
 40
0.14
  0
CIRCLE
  5
1A9
100
AcDbEntity
  8
SOLDERMASK_PADS_TOP
100
AcDbCircle
 10
18.454956
 20
41.034917
 30
0.0
 40
0.14
  0
CIRCLE
  5
1AA
100
AcDbEntity
  8
SOLDERMASK_PADS_TOP
100
AcDbCircle
 10
7.398384
 20
51.843114
 30
0.0
 40
0.14
  0
CIRCLE
  5
1AB
100
AcDbEntity
  8
SOLDERMASK_PADS_TOP
100
AcDbCircle
 10
7.78221
 20
50.185818
 30
0.0
 40
0.14
  0
CIRCLE
  5
1AC
100
AcDbEntity
  8
SOLDERMASK_PADS_TOP
100
AcDbCircle
 10
11.23915
 20
40.418273
 30
0.0
 40
0.14
  0
CIRCLE
  5
1AD
100
AcDbEntity
  8
SOLDERMASK_PADS_TOP
100
AcDbCircle
 10
11.083386
 20
44.284558
 30
0.0
 40
0.14
  0
CIRCLE
  5
1AE
100
AcDbEntity
  8
SOLDERMASK_PADS_TOP
100
AcDbCircle
 10
11.73982
 20
44.768539
 30
0.0
 40
0.14
  0
CIRCLE
  5
1AF
100
AcDbEntity
  8
SOLDERMASK_PADS_TOP
100
AcDbCircle
 10
4.278166
 20
51.855031
 30
0.0
 40
0.14
  0
CIRCLE
  5
1B0
100
AcDbEntity
  8
SOLDERMASK_PADS_TOP
100
AcDbCircle
 10
7.775951
 20
47.74908
 30
0.0
 40
0.14
  0
CIRCLE
  5
1B1
100
AcDbEntity
  8
SOLDERMASK_PADS_TOP
100
AcDbCircle
 10
20.112459
 20
63.219029
 30
0.0
 40
0.14
  0
CIRCLE
  5
1B2
100
AcDbEntity
  8
SOLDERMASK_PADS_TOP
100
AcDbCircle
 10
17.168238
 20
63.227978
 30
0.0
 40
0.14
  0
CIRCLE
  5
1B3
100
AcDbEntity
  8
SOLDERMASK_PADS_TOP
100
AcDbCircle
 10
15.582197
 20
59.601965
 30
0.0
 40
0.14
  0
CIRCLE
  5
1B4
100
AcDbEntity
  8
SOLDERMASK_PADS_TOP
100
AcDbCircle
 10
14.036088
 20
63.227978
 30
0.0
 40
0.14
  0
CIRCLE
  5
1B5
100
AcDbEntity
  8
SOLDERMASK_PADS_TOP
100
AcDbCircle
 10
12.567157
 20
59.588505
 30
0.0
 40
0.14
  0
CIRCLE
  5
1B6
100
AcDbEntity
  8
SOLDERMASK_PADS_TOP
100
AcDbCircle
 10
14.143479
 20
38.821646
 30
0.0
 40
0.14
  0
CIRCLE
  5
1B7
100
AcDbEntity
  8
SOLDERMASK_PADS_TOP
100
AcDbCircle
 10
22.417411
 20
32.720715
 30
0.0
 40
0.14
  0
CIRCLE
  5
1B8
100
AcDbEntity
  8
SOLDERMASK_PADS_TOP
100
AcDbCircle
 10
18.705322
 20
23.818702
 30
0.0
 40
0.14
  0
CIRCLE
  5
1B9
100
AcDbEntity
  8
SOLDERMASK_PADS_TOP
100
AcDbCircle
 10
20.212093
 20
21.939754
 30
0.0
 40
0.14
  0
CIRCLE
  5
1BA
100
AcDbEntity
  8
SOLDERMASK_PADS_TOP
100
AcDbCircle
 10
7.654013
 20
31.028682
 30
0.0
 40
0.14
  0
CIRCLE
  5
1BB
100
AcDbEntity
  8
SOLDERMASK_PADS_TOP
100
AcDbCircle
 10
10.604021
 20
35.592503
 30
0.0
 40
0.14
  0
CIRCLE
  5
1BC
100
AcDbEntity
  8
SOLDERMASK_PADS_TOP
100
AcDbCircle
 10
10.68
 20
38.085559
 30
0.0
 40
0.14
  0
CIRCLE
  5
1BD
100
AcDbEntity
  8
SOLDERMASK_PADS_TOP
100
AcDbCircle
 10
22.619
 20
58.47
 30
0.0
 40
0.14
  0
CIRCLE
  5
1BE
100
AcDbEntity
  8
SOLDERMASK_PADS_TOP
100
AcDbCircle
 10
25.581492
 20
19.920735
 30
0.0
 40
0.14
  0
CIRCLE
  5
1BF
100
AcDbEntity
  8
SOLDERMASK_PADS_TOP
100
AcDbCircle
 10
9.918913
 20
18.453614
 30
0.0
 40
0.14
  0
CIRCLE
  5
1C0
100
AcDbEntity
  8
SOLDERMASK_PADS_TOP
100
AcDbCircle
 10
9.770853
 20
15.653934
 30
0.0
 40
0.14
  0
CIRCLE
  5
1C1
100
AcDbEntity
  8
SOLDERMASK_PADS_TOP
100
AcDbCircle
 10
11.3
 20
54.417265
 30
0.0
 40
0.14
  0
CIRCLE
  5
1C2
100
AcDbEntity
  8
SOLDERMASK_PADS_TOP
100
AcDbCircle
 10
15.383017
 20
51.607232
 30
0.0
 40
0.14
  0
CIRCLE
  5
1C3
100
AcDbEntity
  8
SOLDERMASK_PADS_TOP
100
AcDbCircle
 10
9.215617
 20
53.681765
 30
0.0
 40
0.14
  0
CIRCLE
  5
1C4
100
AcDbEntity
  8
SOLDERMASK_PADS_TOP
100
AcDbCircle
 10
9.955917
 20
56.575665
 30
0.0
 40
0.14
  0
CIRCLE
  5
1C5
100
AcDbEntity
  8
SOLDERMASK_PADS_TOP
100
AcDbCircle
 10
13.845643
 20
54.181486
 30
0.0
 40
0.14
  0
CIRCLE
  5
1C6
100
AcDbEntity
  8
SOLDERMASK_PADS_TOP
100
AcDbCircle
 10
16.792775
 20
54.13363
 30
0.0
 40
0.14
  0
CIRCLE
  5
1C7
100
AcDbEntity
  8
SOLDERMASK_PADS_TOP
100
AcDbCircle
 10
12.318742
 20
51.79195
 30
0.0
 40
0.14
  0
CIRCLE
  5
1C8
100
AcDbEntity
  8
SOLDERMASK_PADS_TOP
100
AcDbCircle
 10
16.8
 20
48.340448
 30
0.0
 40
0.14
  0
CIRCLE
  5
1C9
100
AcDbEntity
  8
SOLDERMASK_PADS_TOP
100
AcDbCircle
 10
15.3
 20
48.434668
 30
0.0
 40
0.14
  0
CIRCLE
  5
1CA
100
AcDbEntity
  8
SOLDERMASK_PADS_TOP
100
AcDbCircle
 10
12.3
 20
48.420227
 30
0.0
 40
0.14
  0
CIRCLE
  5
1CB
100
AcDbEntity
  8
SOLDERMASK_PADS_TOP
100
AcDbCircle
 10
13.8
 20
48.219308
 30
0.0
 40
0.14
  0
CIRCLE
  5
1CC
100
AcDbEntity
  8
SOLDERMASK_PADS_TOP
100
AcDbCircle
 10
11.120902
 20
48.220069
 30
0.0
 40
0.14
  0
CIRCLE
  5
1CD
100
AcDbEntity
  8
SOLDERMASK_PADS_TOP
100
AcDbCircle
 10
19.14332
 20
38.532575
 30
0.0
 40
0.14
  0
CIRCLE
  5
1CE
100
AcDbEntity
  8
SOLDERMASK_PADS_TOP
100
AcDbCircle
 10
20.885231
 20
27.672708
 30
0.0
 40
0.14
  0
CIRCLE
  5
1CF
100
AcDbEntity
  8
SOLDERMASK_PADS_TOP
100
AcDbCircle
 10
8.053982
 20
37.197578
 30
0.0
 40
0.14
  0
CIRCLE
  5
1D0
100
AcDbEntity
  8
SOLDERMASK_PADS_TOP
100
AcDbCircle
 10
3.183904
 20
59.874059
 30
0.0
 40
0.14
  0
CIRCLE
  5
1D1
100
AcDbEntity
  8
SOLDERMASK_PADS_TOP
100
AcDbCircle
 10
14.050951
 20
20.451576
 30
0.0
 40
0.14
  0
CIRCLE
  5
1D2
100
AcDbEntity
  8
SOLDERMASK_PADS_TOP
100
AcDbCircle
 10
22.684
 20
28.55
 30
0.0
 40
0.14
  0
CIRCLE
  5
1D3
100
AcDbEntity
  8
SOLDERMASK_PADS_TOP
100
AcDbCircle
 10
22.62225
 20
36.469032
 30
0.0
 40
0.14
  0
CIRCLE
  5
1D4
100
AcDbEntity
  8
SOLDERMASK_PADS_TOP
100
AcDbCircle
 10
18.681473
 20
8.695114
 30
0.0
 40
0.14
  0
CIRCLE
  5
1D5
100
AcDbEntity
  8
SOLDERMASK_PADS_TOP
100
AcDbCircle
 10
18.635837
 20
12.3244
 30
0.0
 40
0.14
  0
CIRCLE
  5
1D6
100
AcDbEntity
  8
SOLDERMASK_PADS_TOP
100
AcDbCircle
 10
14.197163
 20
12.262072
 30
0.0
 40
0.14
  0
CIRCLE
  5
1D7
100
AcDbEntity
  8
SOLDERMASK_PADS_TOP
100
AcDbCircle
 10
21.633988
 20
15.864246
 30
0.0
 40
0.14
  0
CIRCLE
  5
1D8
100
AcDbEntity
  8
SOLDERMASK_PADS_TOP
100
AcDbCircle
 10
12.171883
 20
23.342245
 30
0.0
 40
0.14
  0
CIRCLE
  5
1D9
100
AcDbEntity
  8
SOLDERMASK_PADS_TOP
100
AcDbCircle
 10
18.135444
 20
38.165415
 30
0.0
 40
0.14
  0
CIRCLE
  5
1DA
100
AcDbEntity
  8
SOLDERMASK_PADS_TOP
100
AcDbCircle
 10
5.409624
 20
60.948885
 30
0.0
 40
0.14
  0
CIRCLE
  5
1DB
100
AcDbEntity
  8
SOLDERMASK_PADS_TOP
100
AcDbCircle
 10
11.779972
 20
41.841985
 30
0.0
 40
0.14
  0
CIRCLE
  5
1DC
100
AcDbEntity
  8
SOLDERMASK_PADS_TOP
100
AcDbCircle
 10
4.95913
 20
8.510024
 30
0.0
 40
0.14
  0
CIRCLE
  5
1DD
100
AcDbEntity
  8
SOLDERMASK_PADS_TOP
100
AcDbCircle
 10
7.186717
 20
36.007124
 30
0.0
 40
0.14
  0
CIRCLE
  5
1DE
100
AcDbEntity
  8
SOLDERMASK_PADS_TOP
100
AcDbCircle
 10
12.049252
 20
9.447278
 30
0.0
 40
0.14
  0
CIRCLE
  5
1DF
100
AcDbEntity
  8
SOLDERMASK_PADS_TOP
100
AcDbCircle
 10
24.28982
 20
35.569476
 30
0.0
 40
0.14
  0
CIRCLE
  5
1E0
100
AcDbEntity
  8
SOLDERMASK_PADS_TOP
100
AcDbCircle
 10
24.622553
 20
37.041818
 30
0.0
 40
0.14
  0
CIRCLE
  5
1E1
100
AcDbEntity
  8
SOLDERMASK_PADS_TOP
100
AcDbCircle
 10
24.62477
 20
28.887861
 30
0.0
 40
0.14
  0
CIRCLE
  5
1E2
100
AcDbEntity
  8
SOLDERMASK_PADS_TOP
100
AcDbCircle
 10
20.666911
 20
42.014792
 30
0.0
 40
0.14
  0
CIRCLE
  5
1E3
100
AcDbEntity
  8
SOLDERMASK_PADS_TOP
100
AcDbCircle
 10
17.588341
 20
42.014792
 30
0.0
 40
0.14
  0
CIRCLE
  5
1E4
100
AcDbEntity
  8
SOLDERMASK_PADS_TOP
100
AcDbCircle
 10
18.435316
 20
42.022157
 30
0.0
 40
0.14
  0
CIRCLE
  5
1E5
100
AcDbEntity
  8
SOLDERMASK_PADS_TOP
100
AcDbCircle
 10
18.454956
 20
40.234917
 30
0.0
 40
0.14
  0
CIRCLE
  5
1E6
100
AcDbEntity
  8
SOLDERMASK_PADS_TOP
100
AcDbCircle
 10
19.538998
 20
41.925024
 30
0.0
 40
0.14
  0
CIRCLE
  5
1E7
100
AcDbEntity
  8
SOLDERMASK_PADS_TOP
100
AcDbCircle
 10
8.266648
 20
33.373532
 30
0.0
 40
0.14
  0
CIRCLE
  5
1E8
100
AcDbEntity
  8
SOLDERMASK_PADS_TOP
100
AcDbCircle
 10
20.359
 20
54.72
 30
0.0
 40
0.14
  0
CIRCLE
  5
1E9
100
AcDbEntity
  8
SOLDERMASK_PADS_TOP
100
AcDbCircle
 10
21.734
 20
14.275
 30
0.0
 40
0.14
  0
CIRCLE
  5
1EA
100
AcDbEntity
  8
SOLDERMASK_PADS_TOP
100
AcDbCircle
 10
25.590465
 20
19.095219
 30
0.0
 40
0.14
  0
CIRCLE
  5
1EB
100
AcDbEntity
  8
SOLDERMASK_PADS_TOP
100
AcDbCircle
 10
17.806473
 20
8.722034
 30
0.0
 40
0.14
  0
CIRCLE
  5
1EC
100
AcDbEntity
  8
SOLDERMASK_PADS_TOP
100
AcDbCircle
 10
20.010733
 20
18.157505
 30
0.0
 40
0.14
  0
CIRCLE
  5
1ED
100
AcDbEntity
  8
SOLDERMASK_PADS_TOP
100
AcDbCircle
 10
10.06621
 20
45.647726
 30
0.0
 40
0.14
  0
CIRCLE
  5
1EE
100
AcDbEntity
  8
SOLDERMASK_PADS_TOP
100
AcDbCircle
 10
10.420982
 20
40.440189
 30
0.0
 40
0.14
  0
CIRCLE
  5
1EF
100
AcDbEntity
  8
SOLDERMASK_PADS_TOP
100
AcDbCircle
 10
4.122784
 20
8.504029
 30
0.0
 40
0.14
  0
CIRCLE
  5
1F0
100
AcDbEntity
  8
SOLDERMASK_PADS_TOP
100
AcDbCircle
 10
17.718568
 20
11.976906
 30
0.0
 40
0.14
  0
CIRCLE
  5
1F1
100
AcDbEntity
  8
SOLDERMASK_PADS_TOP
100
AcDbCircle
 10
10.999273
 20
14.216974
 30
0.0
 40
0.14
  0
CIRCLE
  5
1F2
100
AcDbEntity
  8
SOLDERMASK_PADS_TOP
100
AcDbCircle
 10
9.044013
 20
18.453614
 30
0.0
 40
0.14
  0
CIRCLE
  5
1F3
100
AcDbEntity
  8
SOLDERMASK_PADS_TOP
100
AcDbCircle
 10
14.944846
 20
38.843078
 30
0.0
 40
0.14
  0
CIRCLE
  5
1F4
100
AcDbEntity
  8
SOLDERMASK_PADS_TOP
100
AcDbCircle
 10
15.022679
 20
12.262072
 30
0.0
 40
0.14
  0
CIRCLE
  5
1F5
100
AcDbEntity
  8
SOLDERMASK_PADS_TOP
100
AcDbCircle
 10
18.598336
 20
13.908399
 30
0.0
 40
0.14
  0
CIRCLE
  5
1F6
100
AcDbEntity
  8
SOLDERMASK_PADS_TOP
100
AcDbCircle
 10
22.626481
 20
35.669032
 30
0.0
 40
0.14
  0
CIRCLE
  5
1F7
100
AcDbEntity
  8
SOLDERMASK_PADS_TOP
100
AcDbCircle
 10
22.629375
 20
27.686165
 30
0.0
 40
0.14
  0
CIRCLE
  5
1F8
100
AcDbEntity
  8
SOLDERMASK_PADS_TOP
100
AcDbCircle
 10
13.195393
 20
20.432234
 30
0.0
 40
0.14
  0
CIRCLE
  5
1F9
100
AcDbEntity
  8
SOLDERMASK_PADS_TOP
100
AcDbCircle
 10
8.970853
 20
15.653934
 30
0.0
 40
0.14
  0
CIRCLE
  5
1FA
100
AcDbEntity
  8
SOLDERMASK_PADS_TOP
100
AcDbCircle
 10
19.112093
 20
21.980134
 30
0.0
 40
0.14
  0
CIRCLE
  5
1FB
100
AcDbEntity
  8
SOLDERMASK_PADS_TOP
100
AcDbCircle
 10
11.539232
 20
38.079421
 30
0.0
 40
0.14
  0
CIRCLE
  5
1FC
100
AcDbEntity
  8
SOLDERMASK_PADS_TOP
100
AcDbCircle
 10
7.407332
 20
31.828682
 30
0.0
 40
0.14
  0
CIRCLE
  5
1FD
100
AcDbEntity
  8
SOLDERMASK_PADS_TOP
100
AcDbCircle
 10
17.905343
 20
23.824596
 30
0.0
 40
0.14
  0
CIRCLE
  5
1FE
100
AcDbEntity
  8
SOLDERMASK_PADS_TOP
100
AcDbCircle
 10
22.425448
 20
33.580674
 30
0.0
 40
0.14
  0
CIRCLE
  5
1FF
100
AcDbEntity
  8
SOLDERMASK_PADS_TOP
100
AcDbCircle
 10
13.149867
 20
23.325669
 30
0.0
 40
0.14
  0
CIRCLE
  5
200
100
AcDbEntity
  8
SOLDERMASK_PADS_TOP
100
AcDbCircle
 10
17.335444
 20
38.091684
 30
0.0
 40
0.14
  0
CIRCLE
  5
201
100
AcDbEntity
  8
SOLDERMASK_PADS_TOP
100
AcDbCircle
 10
21.609823
 20
41.042564
 30
0.0
 40
0.14
  0
CIRCLE
  5
202
100
AcDbEntity
  8
SOLDERMASK_PADS_TOP
100
AcDbCircle
 10
17.794561
 20
44.180102
 30
0.0
 40
0.14
  0
CIRCLE
  5
203
100
AcDbEntity
  8
SOLDERMASK_PADS_TOP
100
AcDbCircle
 10
18.026615
 20
51.402225
 30
0.0
 40
0.14
  0
CIRCLE
  5
204
100
AcDbEntity
  8
SOLDERMASK_PADS_TOP
100
AcDbCircle
 10
18.77455
 20
56.104297
 30
0.0
 40
0.14
  0
CIRCLE
  5
205
100
AcDbEntity
  8
SOLDERMASK_PADS_TOP
100
AcDbCircle
 10
20.204606
 20
58.344325
 30
0.0
 40
0.14
  0
CIRCLE
  5
206
100
AcDbEntity
  8
SOLDERMASK_PADS_TOP
100
AcDbCircle
 10
18.8
 20
51.698345
 30
0.0
 40
0.14
  0
CIRCLE
  5
207
100
AcDbEntity
  8
SOLDERMASK_PADS_TOP
100
AcDbCircle
 10
21.041655
 20
59.556785
 30
0.0
 40
0.14
  0
CIRCLE
  5
208
100
AcDbEntity
  8
SOLDERMASK_PADS_TOP
100
AcDbCircle
 10
19.911015
 20
52.96
 30
0.0
 40
0.14
  0
CIRCLE
  5
209
100
AcDbEntity
  8
SOLDERMASK_PADS_TOP
100
AcDbCircle
 10
20.225897
 20
59.144325
 30
0.0
 40
0.14
  0
CIRCLE
  5
20A
100
AcDbEntity
  8
SOLDERMASK_PADS_TOP
100
AcDbCircle
 10
9.323297
 20
58.877325
 30
0.0
 40
0.14
  0
CIRCLE
  5
20B
100
AcDbEntity
  8
SOLDERMASK_PADS_TOP
100
AcDbCircle
 10
9.739696
 20
50.60113
 30
0.0
 40
0.14
  0
CIRCLE
  5
20C
100
AcDbEntity
  8
SOLDERMASK_PADS_TOP
100
AcDbCircle
 10
22.871617
 20
52.735961
 30
0.0
 40
0.14
  0
CIRCLE
  5
20D
100
AcDbEntity
  8
SOLDERMASK_PADS_TOP
100
AcDbCircle
 10
14.89879
 20
10.978619
 30
0.0
 40
0.14
  0
CIRCLE
  5
20E
100
AcDbEntity
  8
SOLDERMASK_PADS_TOP
100
AcDbCircle
 10
9.616418
 20
35.02447
 30
0.0
 40
0.14
  0
CIRCLE
  5
20F
100
AcDbEntity
  8
SOLDERMASK_PADS_TOP
100
AcDbCircle
 10
9.894183
 20
33.357129
 30
0.0
 40
0.14
  0
CIRCLE
  5
210
100
AcDbEntity
  8
SOLDERMASK_PADS_TOP
100
AcDbCircle
 10
22.346428
 20
18.881142
 30
0.0
 40
0.14
  0
CIRCLE
  5
211
100
AcDbEntity
  8
SOLDERMASK_PADS_TOP
100
AcDbCircle
 10
9.706853
 20
34.157129
 30
0.0
 40
0.14
  0
CIRCLE
  5
212
100
AcDbEntity
  8
SOLDERMASK_PADS_TOP
100
AcDbCircle
 10
22.270456
 20
20.229645
 30
0.0
 40
0.14
  0
CIRCLE
  5
213
100
AcDbEntity
  8
SOLDERMASK_PADS_TOP
100
AcDbCircle
 10
21.055
 20
28.472708
 30
0.0
 40
0.14
  0
CIRCLE
  5
214
100
AcDbEntity
  8
SOLDERMASK_PADS_TOP
100
AcDbCircle
 10
20.973071
 20
23.065463
 30
0.0
 40
0.14
  0
CIRCLE
  5
215
100
AcDbEntity
  8
SOLDERMASK_PADS_TOP
100
AcDbCircle
 10
20.526524
 20
23.802752
 30
0.0
 40
0.14
  0
CIRCLE
  5
216
100
AcDbEntity
  8
SOLDERMASK_PADS_TOP
100
AcDbCircle
 10
20.037558
 20
24.641605
 30
0.0
 40
0.14
  0
CIRCLE
  5
217
100
AcDbEntity
  8
SOLDERMASK_PADS_TOP
100
AcDbCircle
 10
19.428517
 20
25.5882
 30
0.0
 40
0.14
  0
CIRCLE
  5
218
100
AcDbEntity
  8
SOLDERMASK_PADS_TOP
100
AcDbCircle
 10
17.263832
 20
24.437821
 30
0.0
 40
0.14
  0
CIRCLE
  5
219
100
AcDbEntity
  8
SOLDERMASK_PADS_TOP
100
AcDbCircle
 10
16.973074
 20
25.569703
 30
0.0
 40
0.14
  0
CIRCLE
  5
21A
100
AcDbEntity
  8
SOLDERMASK_PADS_TOP
100
AcDbCircle
 10
16.441682
 20
24.630794
 30
0.0
 40
0.14
  0
CIRCLE
  5
21B
100
AcDbEntity
  8
SOLDERMASK_PADS_TOP
100
AcDbCircle
 10
15.873074
 20
25.617823
 30
0.0
 40
0.14
  0
CIRCLE
  5
21C
100
AcDbEntity
  8
SOLDERMASK_PADS_TOP
100
AcDbCircle
 10
15.385935
 20
22.195491
 30
0.0
 40
0.14
  0
CIRCLE
  5
21D
100
AcDbEntity
  8
SOLDERMASK_PADS_TOP
100
AcDbCircle
 10
14.410475
 20
22.907977
 30
0.0
 40
0.14
  0
CIRCLE
  5
21E
100
AcDbEntity
  8
SOLDERMASK_PADS_TOP
100
AcDbCircle
 10
13.827587
 20
22.117996
 30
0.0
 40
0.14
  0
CIRCLE
  5
21F
100
AcDbEntity
  8
SOLDERMASK_PADS_TOP
100
AcDbCircle
 10
13.845
 20
23.968936
 30
0.0
 40
0.14
  0
CIRCLE
  5
220
100
AcDbEntity
  8
SOLDERMASK_PADS_TOP
100
AcDbCircle
 10
10.895
 20
25.14969
 30
0.0
 40
0.14
  0
CIRCLE
  5
221
100
AcDbEntity
  8
SOLDERMASK_PADS_TOP
100
AcDbCircle
 10
10.023827
 20
25.056335
 30
0.0
 40
0.14
  0
CIRCLE
  5
222
100
AcDbEntity
  8
SOLDERMASK_PADS_TOP
100
AcDbCircle
 10
10.563706
 20
26.271345
 30
0.0
 40
0.14
  0
CIRCLE
  5
223
100
AcDbEntity
  8
SOLDERMASK_PADS_TOP
100
AcDbCircle
 10
9.639451
 20
26.156335
 30
0.0
 40
0.14
  0
CIRCLE
  5
224
100
AcDbEntity
  8
SOLDERMASK_PADS_TOP
100
AcDbCircle
 10
20.563956
 20
29.634977
 30
0.0
 40
0.14
  0
CIRCLE
  5
225
100
AcDbEntity
  8
SOLDERMASK_PADS_TOP
100
AcDbCircle
 10
11.695
 20
25.084437
 30
0.0
 40
0.14
  0
CIRCLE
  5
226
100
AcDbEntity
  8
SOLDERMASK_PADS_TOP
100
AcDbCircle
 10
21.803979
 20
29.625
 30
0.0
 40
0.14
  0
LWPOLYLINE
  5
227
100
AcDbEntity
  8
SOLDERMASK_PADS_TOP
100
AcDbPolyline
 90
        4
 70
         1
 10
11.591
 20
13.238
 10
11.591
 20
13.738
 10
11.991
 20
13.738
 10
11.991
 20
13.238
  0
LWPOLYLINE
  5
228
100
AcDbEntity
  8
SOLDERMASK_PADS_TOP
100
AcDbPolyline
 90
        4
 70
         1
 10
10.791
 20
13.238
 10
10.791
 20
13.738
 10
11.191
 20
13.738
 10
11.191
 20
13.238
  0
LWPOLYLINE
  5
229
100
AcDbEntity
  8
SOLDERMASK_PADS_TOP
100
AcDbPolyline
 90
        4
 70
         1
 10
11.073
 20
10.316
 10
11.073
 20
10.716
 10
11.573
 20
10.716
 10
11.573
 20
10.316
  0
LWPOLYLINE
  5
22A
100
AcDbEntity
  8
SOLDERMASK_PADS_TOP
100
AcDbPolyline
 90
        4
 70
         1
 10
11.073
 20
9.516
 10
11.073
 20
9.916
 10
11.573
 20
9.916
 10
11.573
 20
9.516
  0
LWPOLYLINE
  5
22B
100
AcDbEntity
  8
SOLDERMASK_PADS_TOP
100
AcDbPolyline
 90
        4
 70
         1
 10
6.57
 20
7.321
 10
6.57
 20
7.821
 10
6.97
 20
7.821
 10
6.97
 20
7.321
  0
LWPOLYLINE
  5
22C
100
AcDbEntity
  8
SOLDERMASK_PADS_TOP
100
AcDbPolyline
 90
        4
 70
         1
 10
7.37
 20
7.321
 10
7.37
 20
7.821
 10
7.77
 20
7.821
 10
7.77
 20
7.321
  0
LWPOLYLINE
  5
22D
100
AcDbEntity
  8
SOLDERMASK_PADS_TOP
100
AcDbPolyline
 90
        4
 70
         1
 10
9.579
 20
8.753
 10
9.579
 20
9.953
 10
10.579
 20
9.953
 10
10.579
 20
8.753
  0
LWPOLYLINE
  5
22E
100
AcDbEntity
  8
SOLDERMASK_PADS_TOP
100
AcDbPolyline
 90
        4
 70
         1
 10
9.579
 20
11.053
 10
9.579
 20
12.253
 10
10.579
 20
12.253
 10
10.579
 20
11.053
  0
LWPOLYLINE
  5
22F
100
AcDbEntity
  8
SOLDERMASK_PADS_TOP
100
AcDbPolyline
 90
        4
 70
         1
 10
7.679
 20
11.053
 10
7.679
 20
12.253
 10
8.679
 20
12.253
 10
8.679
 20
11.053
  0
LWPOLYLINE
  5
230
100
AcDbEntity
  8
SOLDERMASK_PADS_TOP
100
AcDbPolyline
 90
        4
 70
         1
 10
7.679
 20
8.753
 10
7.679
 20
9.953
 10
8.679
 20
9.953
 10
8.679
 20
8.753
  0
LWPOLYLINE
  5
231
100
AcDbEntity
  8
SOLDERMASK_PADS_TOP
100
AcDbPolyline
 90
        4
 70
         1
 10
4.708
 20
8.993
 10
4.708
 20
9.493
 10
5.108
 20
9.493
 10
5.108
 20
8.993
  0
LWPOLYLINE
  5
232
100
AcDbEntity
  8
SOLDERMASK_PADS_TOP
100
AcDbPolyline
 90
        4
 70
         1
 10
3.908
 20
8.993
 10
3.908
 20
9.493
 10
4.308
 20
9.493
 10
4.308
 20
8.993
  0
LWPOLYLINE
  5
233
100
AcDbEntity
  8
SOLDERMASK_PADS_TOP
100
AcDbPolyline
 90
        4
 70
         1
 10
24.946
 20
34.587
 10
24.946
 20
35.087
 10
25.346
 20
35.087
 10
25.346
 20
34.587
  0
LWPOLYLINE
  5
234
100
AcDbEntity
  8
SOLDERMASK_PADS_TOP
100
AcDbPolyline
 90
        4
 70
         1
 10
24.146
 20
34.587
 10
24.146
 20
35.087
 10
24.546
 20
35.087
 10
24.546
 20
34.587
  0
LWPOLYLINE
  5
235
100
AcDbEntity
  8
SOLDERMASK_PADS_TOP
100
AcDbPolyline
 90
        4
 70
         1
 10
23.639
 20
37.617
 10
23.639
 20
38.017
 10
24.139
 20
38.017
 10
24.139
 20
37.617
  0
LWPOLYLINE
  5
236
100
AcDbEntity
  8
SOLDERMASK_PADS_TOP
100
AcDbPolyline
 90
        4
 70
         1
 10
23.639
 20
36.817
 10
23.639
 20
37.217
 10
24.139
 20
37.217
 10
24.139
 20
36.817
  0
LWPOLYLINE
  5
237
100
AcDbEntity
  8
SOLDERMASK_PADS_TOP
100
AcDbPolyline
 90
        4
 70
         1
 10
25.258
 20
29.364
 10
25.258
 20
29.864
 10
25.658
 20
29.864
 10
25.658
 20
29.364
  0
LWPOLYLINE
  5
238
100
AcDbEntity
  8
SOLDERMASK_PADS_TOP
100
AcDbPolyline
 90
        4
 70
         1
 10
24.458
 20
29.364
 10
24.458
 20
29.864
 10
24.858
 20
29.864
 10
24.858
 20
29.364
  0
LWPOLYLINE
  5
239
100
AcDbEntity
  8
SOLDERMASK_PADS_TOP
100
AcDbPolyline
 90
        4
 70
         1
 10
22.17
 20
53.448
 10
22.17
 20
54.358
 10
23.39
 20
54.358
 10
23.39
 20
53.448
  0
LWPOLYLINE
  5
23A
100
AcDbEntity
  8
SOLDERMASK_PADS_TOP
100
AcDbPolyline
 90
        4
 70
         1
 10
22.17
 20
56.728
 10
22.17
 20
57.638
 10
23.39
 20
57.638
 10
23.39
 20
56.728
  0
LWPOLYLINE
  5
23B
100
AcDbEntity
  8
SOLDERMASK_PADS_TOP
100
AcDbPolyline
 90
        4
 70
         1
 10
22.974432
 20
32.44087
 10
22.974432
 20
33.74087
 10
24.074432
 20
33.74087
 10
24.074432
 20
32.44087
  0
LWPOLYLINE
  5
23C
100
AcDbEntity
  8
SOLDERMASK_PADS_TOP
100
AcDbPolyline
 90
        4
 70
         1
 10
22.974432
 20
30.44087
 10
22.974432
 20
31.74087
 10
24.074432
 20
31.74087
 10
24.074432
 20
30.44087
  0
LWPOLYLINE
  5
23D
100
AcDbEntity
  8
SOLDERMASK_PADS_TOP
100
AcDbPolyline
 90
        4
 70
         1
 10
24.974432
 20
30.44087
 10
24.974432
 20
31.74087
 10
26.074432
 20
31.74087
 10
26.074432
 20
30.44087
  0
LWPOLYLINE
  5
23E
100
AcDbEntity
  8
SOLDERMASK_PADS_TOP
100
AcDbPolyline
 90
        4
 70
         1
 10
24.974432
 20
32.44087
 10
24.974432
 20
33.74087
 10
26.074432
 20
33.74087
 10
26.074432
 20
32.44087
  0
LWPOLYLINE
  5
23F
100
AcDbEntity
  8
SOLDERMASK_PADS_TOP
100
AcDbPolyline
 90
        4
 70
         1
 10
22.124
 20
31.461
 10
22.124
 20
31.961
 10
22.524
 20
31.961
 10
22.524
 20
31.461
  0
LWPOLYLINE
  5
240
100
AcDbEntity
  8
SOLDERMASK_PADS_TOP
100
AcDbPolyline
 90
        4
 70
         1
 10
21.324
 20
31.461
 10
21.324
 20
31.961
 10
21.724
 20
31.961
 10
21.724
 20
31.461
  0
LWPOLYLINE
  5
241
100
AcDbEntity
  8
SOLDERMASK_PADS_TOP
100
AcDbPolyline
 90
        4
 70
         1
 10
17.368997
 20
42.503
 10
17.368997
 20
42.903
 10
17.868997
 20
42.903
 10
17.868997
 20
42.503
  0
LWPOLYLINE
  5
242
100
AcDbEntity
  8
SOLDERMASK_PADS_TOP
100
AcDbPolyline
 90
        4
 70
         1
 10
17.368997
 20
43.303
 10
17.368997
 20
43.703
 10
17.868997
 20
43.703
 10
17.868997
 20
43.303
  0
LWPOLYLINE
  5
243
100
AcDbEntity
  8
SOLDERMASK_PADS_TOP
100
AcDbPolyline
 90
        4
 70
         1
 10
20.097
 20
42.503
 10
20.097
 20
42.903
 10
20.597
 20
42.903
 10
20.597
 20
42.503
  0
LWPOLYLINE
  5
244
100
AcDbEntity
  8
SOLDERMASK_PADS_TOP
100
AcDbPolyline
 90
        4
 70
         1
 10
20.097
 20
43.303
 10
20.097
 20
43.703
 10
20.597
 20
43.703
 10
20.597
 20
43.303
  0
LWPOLYLINE
  5
245
100
AcDbEntity
  8
SOLDERMASK_PADS_TOP
100
AcDbPolyline
 90
        4
 70
         1
 10
19.142999
 20
42.503
 10
19.142999
 20
42.903
 10
19.642999
 20
42.903
 10
19.642999
 20
42.503
  0
LWPOLYLINE
  5
246
100
AcDbEntity
  8
SOLDERMASK_PADS_TOP
100
AcDbPolyline
 90
        4
 70
         1
 10
19.142999
 20
43.303
 10
19.142999
 20
43.703
 10
19.642999
 20
43.703
 10
19.642999
 20
43.303
  0
LWPOLYLINE
  5
247
100
AcDbEntity
  8
SOLDERMASK_PADS_TOP
100
AcDbPolyline
 90
        4
 70
         1
 10
18.188998
 20
42.503
 10
18.188998
 20
42.903
 10
18.688998
 20
42.903
 10
18.688998
 20
42.503
  0
LWPOLYLINE
  5
248
100
AcDbEntity
  8
SOLDERMASK_PADS_TOP
100
AcDbPolyline
 90
        4
 70
         1
 10
18.188998
 20
43.303
 10
18.188998
 20
43.703
 10
18.688998
 20
43.703
 10
18.688998
 20
43.303
  0
LWPOLYLINE
  5
249
100
AcDbEntity
  8
SOLDERMASK_PADS_TOP
100
AcDbPolyline
 90
        4
 70
         1
 10
17.47
 20
40.935
 10
17.47
 20
41.335
 10
17.97
 20
41.335
 10
17.97
 20
40.935
  0
LWPOLYLINE
  5
24A
100
AcDbEntity
  8
SOLDERMASK_PADS_TOP
100
AcDbPolyline
 90
        4
 70
         1
 10
17.47
 20
40.135
 10
17.47
 20
40.535
 10
17.97
 20
40.535
 10
17.97
 20
40.135
  0
LWPOLYLINE
  5
24B
100
AcDbEntity
  8
SOLDERMASK_PADS_TOP
100
AcDbPolyline
 90
        4
 70
         1
 10
7.146
 20
52.327
 10
7.146
 20
52.827
 10
7.546
 20
52.827
 10
7.546
 20
52.327
  0
LWPOLYLINE
  5
24C
100
AcDbEntity
  8
SOLDERMASK_PADS_TOP
100
AcDbPolyline
 90
        4
 70
         1
 10
6.346
 20
52.327
 10
6.346
 20
52.827
 10
6.746
 20
52.827
 10
6.746
 20
52.327
  0
LWPOLYLINE
  5
24D
100
AcDbEntity
  8
SOLDERMASK_PADS_TOP
100
AcDbPolyline
 90
        4
 70
         1
 10
8.26
 20
50.074
 10
8.26
 20
50.474
 10
8.76
 20
50.474
 10
8.76
 20
50.074
  0
LWPOLYLINE
  5
24E
100
AcDbEntity
  8
SOLDERMASK_PADS_TOP
100
AcDbPolyline
 90
        4
 70
         1
 10
8.26
 20
49.274
 10
8.26
 20
49.674
 10
8.76
 20
49.674
 10
8.76
 20
49.274
  0
LWPOLYLINE
  5
24F
100
AcDbEntity
  8
SOLDERMASK_PADS_TOP
100
AcDbPolyline
 90
        4
 70
         1
 10
10.165
 20
46.46
 10
10.165
 20
47.66
 10
10.435
 20
47.66
 10
10.435
 20
46.46
  0
LWPOLYLINE
  5
250
100
AcDbEntity
  8
SOLDERMASK_PADS_TOP
100
AcDbPolyline
 90
        4
 70
         1
 10
10.665
 20
46.46
 10
10.665
 20
47.66
 10
10.935
 20
47.66
 10
10.935
 20
46.46
  0
LWPOLYLINE
  5
251
100
AcDbEntity
  8
SOLDERMASK_PADS_TOP
100
AcDbPolyline
 90
        4
 70
         1
 10
11.165
 20
46.46
 10
11.165
 20
47.66
 10
11.435
 20
47.66
 10
11.435
 20
46.46
  0
LWPOLYLINE
  5
252
100
AcDbEntity
  8
SOLDERMASK_PADS_TOP
100
AcDbPolyline
 90
        4
 70
         1
 10
11.665
 20
46.46
 10
11.665
 20
47.66
 10
11.935
 20
47.66
 10
11.935
 20
46.46
  0
LWPOLYLINE
  5
253
100
AcDbEntity
  8
SOLDERMASK_PADS_TOP
100
AcDbPolyline
 90
        4
 70
         1
 10
12.165
 20
46.46
 10
12.165
 20
47.66
 10
12.435
 20
47.66
 10
12.435
 20
46.46
  0
LWPOLYLINE
  5
254
100
AcDbEntity
  8
SOLDERMASK_PADS_TOP
100
AcDbPolyline
 90
        4
 70
         1
 10
12.665
 20
46.46
 10
12.665
 20
47.66
 10
12.935
 20
47.66
 10
12.935
 20
46.46
  0
LWPOLYLINE
  5
255
100
AcDbEntity
  8
SOLDERMASK_PADS_TOP
100
AcDbPolyline
 90
        4
 70
         1
 10
13.165
 20
46.46
 10
13.165
 20
47.66
 10
13.435
 20
47.66
 10
13.435
 20
46.46
  0
LWPOLYLINE
  5
256
100
AcDbEntity
  8
SOLDERMASK_PADS_TOP
100
AcDbPolyline
 90
        4
 70
         1
 10
13.665
 20
46.46
 10
13.665
 20
47.66
 10
13.935
 20
47.66
 10
13.935
 20
46.46
  0
LWPOLYLINE
  5
257
100
AcDbEntity
  8
SOLDERMASK_PADS_TOP
100
AcDbPolyline
 90
        4
 70
         1
 10
14.165
 20
46.46
 10
14.165
 20
47.66
 10
14.435
 20
47.66
 10
14.435
 20
46.46
  0
LWPOLYLINE
  5
258
100
AcDbEntity
  8
SOLDERMASK_PADS_TOP
100
AcDbPolyline
 90
        4
 70
         1
 10
14.665
 20
46.46
 10
14.665
 20
47.66
 10
14.935
 20
47.66
 10
14.935
 20
46.46
  0
LWPOLYLINE
  5
259
100
AcDbEntity
  8
SOLDERMASK_PADS_TOP
100
AcDbPolyline
 90
        4
 70
         1
 10
15.165
 20
46.46
 10
15.165
 20
47.66
 10
15.435
 20
47.66
 10
15.435
 20
46.46
  0
LWPOLYLINE
  5
25A
100
AcDbEntity
  8
SOLDERMASK_PADS_TOP
100
AcDbPolyline
 90
        4
 70
         1
 10
15.665
 20
46.46
 10
15.665
 20
47.66
 10
15.935
 20
47.66
 10
15.935
 20
46.46
  0
LWPOLYLINE
  5
25B
100
AcDbEntity
  8
SOLDERMASK_PADS_TOP
100
AcDbPolyline
 90
        4
 70
         1
 10
16.165
 20
46.46
 10
16.165
 20
47.66
 10
16.435
 20
47.66
 10
16.435
 20
46.46
  0
LWPOLYLINE
  5
25C
100
AcDbEntity
  8
SOLDERMASK_PADS_TOP
100
AcDbPolyline
 90
        4
 70
         1
 10
16.665
 20
46.46
 10
16.665
 20
47.66
 10
16.935
 20
47.66
 10
16.935
 20
46.46
  0
LWPOLYLINE
  5
25D
100
AcDbEntity
  8
SOLDERMASK_PADS_TOP
100
AcDbPolyline
 90
        4
 70
         1
 10
17.165
 20
46.46
 10
17.165
 20
47.66
 10
17.435
 20
47.66
 10
17.435
 20
46.46
  0
LWPOLYLINE
  5
25E
100
AcDbEntity
  8
SOLDERMASK_PADS_TOP
100
AcDbPolyline
 90
        4
 70
         1
 10
17.665
 20
46.46
 10
17.665
 20
47.66
 10
17.935
 20
47.66
 10
17.935
 20
46.46
  0
LWPOLYLINE
  5
25F
100
AcDbEntity
  8
SOLDERMASK_PADS_TOP
100
AcDbPolyline
 90
        4
 70
         1
 10
18.165
 20
46.46
 10
18.165
 20
47.66
 10
18.435
 20
47.66
 10
18.435
 20
46.46
  0
LWPOLYLINE
  5
260
100
AcDbEntity
  8
SOLDERMASK_PADS_TOP
100
AcDbPolyline
 90
        4
 70
         1
 10
18.665
 20
46.46
 10
18.665
 20
47.66
 10
18.935
 20
47.66
 10
18.935
 20
46.46
  0
LWPOLYLINE
  5
261
100
AcDbEntity
  8
SOLDERMASK_PADS_TOP
100
AcDbPolyline
 90
        4
 70
         1
 10
19.165
 20
46.46
 10
19.165
 20
47.66
 10
19.435
 20
47.66
 10
19.435
 20
46.46
  0
LWPOLYLINE
  5
262
100
AcDbEntity
  8
SOLDERMASK_PADS_TOP
100
AcDbPolyline
 90
        4
 70
         1
 10
19.165
 20
52.36
 10
19.165
 20
53.56
 10
19.435
 20
53.56
 10
19.435
 20
52.36
  0
LWPOLYLINE
  5
263
100
AcDbEntity
  8
SOLDERMASK_PADS_TOP
100
AcDbPolyline
 90
        4
 70
         1
 10
18.665
 20
52.36
 10
18.665
 20
53.56
 10
18.935
 20
53.56
 10
18.935
 20
52.36
  0
LWPOLYLINE
  5
264
100
AcDbEntity
  8
SOLDERMASK_PADS_TOP
100
AcDbPolyline
 90
        4
 70
         1
 10
18.165
 20
52.36
 10
18.165
 20
53.56
 10
18.435
 20
53.56
 10
18.435
 20
52.36
  0
LWPOLYLINE
  5
265
100
AcDbEntity
  8
SOLDERMASK_PADS_TOP
100
AcDbPolyline
 90
        4
 70
         1
 10
17.665
 20
52.36
 10
17.665
 20
53.56
 10
17.935
 20
53.56
 10
17.935
 20
52.36
  0
LWPOLYLINE
  5
266
100
AcDbEntity
  8
SOLDERMASK_PADS_TOP
100
AcDbPolyline
 90
        4
 70
         1
 10
17.165
 20
52.36
 10
17.165
 20
53.56
 10
17.435
 20
53.56
 10
17.435
 20
52.36
  0
LWPOLYLINE
  5
267
100
AcDbEntity
  8
SOLDERMASK_PADS_TOP
100
AcDbPolyline
 90
        4
 70
         1
 10
16.665
 20
52.36
 10
16.665
 20
53.56
 10
16.935
 20
53.56
 10
16.935
 20
52.36
  0
LWPOLYLINE
  5
268
100
AcDbEntity
  8
SOLDERMASK_PADS_TOP
100
AcDbPolyline
 90
        4
 70
         1
 10
16.165
 20
52.36
 10
16.165
 20
53.56
 10
16.435
 20
53.56
 10
16.435
 20
52.36
  0
LWPOLYLINE
  5
269
100
AcDbEntity
  8
SOLDERMASK_PADS_TOP
100
AcDbPolyline
 90
        4
 70
         1
 10
15.665
 20
52.36
 10
15.665
 20
53.56
 10
15.935
 20
53.56
 10
15.935
 20
52.36
  0
LWPOLYLINE
  5
26A
100
AcDbEntity
  8
SOLDERMASK_PADS_TOP
100
AcDbPolyline
 90
        4
 70
         1
 10
15.165
 20
52.36
 10
15.165
 20
53.56
 10
15.435
 20
53.56
 10
15.435
 20
52.36
  0
LWPOLYLINE
  5
26B
100
AcDbEntity
  8
SOLDERMASK_PADS_TOP
100
AcDbPolyline
 90
        4
 70
         1
 10
14.665
 20
52.36
 10
14.665
 20
53.56
 10
14.935
 20
53.56
 10
14.935
 20
52.36
  0
LWPOLYLINE
  5
26C
100
AcDbEntity
  8
SOLDERMASK_PADS_TOP
100
AcDbPolyline
 90
        4
 70
         1
 10
14.165
 20
52.36
 10
14.165
 20
53.56
 10
14.435
 20
53.56
 10
14.435
 20
52.36
  0
LWPOLYLINE
  5
26D
100
AcDbEntity
  8
SOLDERMASK_PADS_TOP
100
AcDbPolyline
 90
        4
 70
         1
 10
13.665
 20
52.36
 10
13.665
 20
53.56
 10
13.935
 20
53.56
 10
13.935
 20
52.36
  0
LWPOLYLINE
  5
26E
100
AcDbEntity
  8
SOLDERMASK_PADS_TOP
100
AcDbPolyline
 90
        4
 70
         1
 10
13.165
 20
52.36
 10
13.165
 20
53.56
 10
13.435
 20
53.56
 10
13.435
 20
52.36
  0
LWPOLYLINE
  5
26F
100
AcDbEntity
  8
SOLDERMASK_PADS_TOP
100
AcDbPolyline
 90
        4
 70
         1
 10
12.665
 20
52.36
 10
12.665
 20
53.56
 10
12.935
 20
53.56
 10
12.935
 20
52.36
  0
LWPOLYLINE
  5
270
100
AcDbEntity
  8
SOLDERMASK_PADS_TOP
100
AcDbPolyline
 90
        4
 70
         1
 10
12.165
 20
52.36
 10
12.165
 20
53.56
 10
12.435
 20
53.56
 10
12.435
 20
52.36
  0
LWPOLYLINE
  5
271
100
AcDbEntity
  8
SOLDERMASK_PADS_TOP
100
AcDbPolyline
 90
        4
 70
         1
 10
11.665
 20
52.36
 10
11.665
 20
53.56
 10
11.935
 20
53.56
 10
11.935
 20
52.36
  0
LWPOLYLINE
  5
272
100
AcDbEntity
  8
SOLDERMASK_PADS_TOP
100
AcDbPolyline
 90
        4
 70
         1
 10
11.165
 20
52.36
 10
11.165
 20
53.56
 10
11.435
 20
53.56
 10
11.435
 20
52.36
  0
LWPOLYLINE
  5
273
100
AcDbEntity
  8
SOLDERMASK_PADS_TOP
100
AcDbPolyline
 90
        4
 70
         1
 10
10.665
 20
52.36
 10
10.665
 20
53.56
 10
10.935
 20
53.56
 10
10.935
 20
52.36
  0
LWPOLYLINE
  5
274
100
AcDbEntity
  8
SOLDERMASK_PADS_TOP
100
AcDbPolyline
 90
        4
 70
         1
 10
10.165
 20
52.36
 10
10.165
 20
53.56
 10
10.435
 20
53.56
 10
10.435
 20
52.36
  0
LWPOLYLINE
  5
275
100
AcDbEntity
  8
SOLDERMASK_PADS_TOP
100
AcDbPolyline
 90
        4
 70
         1
 10
12.575
 20
44.33
 10
12.575
 20
44.78
 10
12.825
 20
44.78
 10
12.825
 20
44.33
  0
LWPOLYLINE
  5
276
100
AcDbEntity
  8
SOLDERMASK_PADS_TOP
100
AcDbPolyline
 90
        4
 70
         1
 10
13.075
 20
44.33
 10
13.075
 20
44.78
 10
13.325
 20
44.78
 10
13.325
 20
44.33
  0
LWPOLYLINE
  5
277
100
AcDbEntity
  8
SOLDERMASK_PADS_TOP
100
AcDbPolyline
 90
        4
 70
         1
 10
13.575
 20
44.33
 10
13.575
 20
44.78
 10
13.825
 20
44.78
 10
13.825
 20
44.33
  0
LWPOLYLINE
  5
278
100
AcDbEntity
  8
SOLDERMASK_PADS_TOP
100
AcDbPolyline
 90
        4
 70
         1
 10
14.075
 20
44.33
 10
14.075
 20
44.78
 10
14.325
 20
44.78
 10
14.325
 20
44.33
  0
LWPOLYLINE
  5
279
100
AcDbEntity
  8
SOLDERMASK_PADS_TOP
100
AcDbPolyline
 90
        4
 70
         1
 10
14.075
 20
45.18
 10
14.075
 20
45.63
 10
14.325
 20
45.63
 10
14.325
 20
45.18
  0
LWPOLYLINE
  5
27A
100
AcDbEntity
  8
SOLDERMASK_PADS_TOP
100
AcDbPolyline
 90
        4
 70
         1
 10
13.575
 20
45.18
 10
13.575
 20
45.63
 10
13.825
 20
45.63
 10
13.825
 20
45.18
  0
LWPOLYLINE
  5
27B
100
AcDbEntity
  8
SOLDERMASK_PADS_TOP
100
AcDbPolyline
 90
        4
 70
         1
 10
13.075
 20
45.18
 10
13.075
 20
45.63
 10
13.325
 20
45.63
 10
13.325
 20
45.18
  0
LWPOLYLINE
  5
27C
100
AcDbEntity
  8
SOLDERMASK_PADS_TOP
100
AcDbPolyline
 90
        4
 70
         1
 10
12.575
 20
45.18
 10
12.575
 20
45.63
 10
12.825
 20
45.63
 10
12.825
 20
45.18
  0
LWPOLYLINE
  5
27D
100
AcDbEntity
  8
SOLDERMASK_PADS_TOP
100
AcDbPolyline
 90
        4
 70
         1
 10
15.355
 20
44.33
 10
15.355
 20
44.78
 10
15.605
 20
44.78
 10
15.605
 20
44.33
  0
LWPOLYLINE
  5
27E
100
AcDbEntity
  8
SOLDERMASK_PADS_TOP
100
AcDbPolyline
 90
        4
 70
         1
 10
15.855
 20
44.33
 10
15.855
 20
44.78
 10
16.105
 20
44.78
 10
16.105
 20
44.33
  0
LWPOLYLINE
  5
27F
100
AcDbEntity
  8
SOLDERMASK_PADS_TOP
100
AcDbPolyline
 90
        4
 70
         1
 10
16.355
 20
44.33
 10
16.355
 20
44.78
 10
16.605
 20
44.78
 10
16.605
 20
44.33
  0
LWPOLYLINE
  5
280
100
AcDbEntity
  8
SOLDERMASK_PADS_TOP
100
AcDbPolyline
 90
        4
 70
         1
 10
16.855
 20
44.33
 10
16.855
 20
44.78
 10
17.105
 20
44.78
 10
17.105
 20
44.33
  0
LWPOLYLINE
  5
281
100
AcDbEntity
  8
SOLDERMASK_PADS_TOP
100
AcDbPolyline
 90
        4
 70
         1
 10
16.855
 20
45.18
 10
16.855
 20
45.63
 10
17.105
 20
45.63
 10
17.105
 20
45.18
  0
LWPOLYLINE
  5
282
100
AcDbEntity
  8
SOLDERMASK_PADS_TOP
100
AcDbPolyline
 90
        4
 70
         1
 10
16.355
 20
45.18
 10
16.355
 20
45.63
 10
16.605
 20
45.63
 10
16.605
 20
45.18
  0
LWPOLYLINE
  5
283
100
AcDbEntity
  8
SOLDERMASK_PADS_TOP
100
AcDbPolyline
 90
        4
 70
         1
 10
15.855
 20
45.18
 10
15.855
 20
45.63
 10
16.105
 20
45.63
 10
16.105
 20
45.18
  0
LWPOLYLINE
  5
284
100
AcDbEntity
  8
SOLDERMASK_PADS_TOP
100
AcDbPolyline
 90
        4
 70
         1
 10
15.355
 20
45.18
 10
15.355
 20
45.63
 10
15.605
 20
45.63
 10
15.605
 20
45.18
  0
LWPOLYLINE
  5
285
100
AcDbEntity
  8
SOLDERMASK_PADS_TOP
100
AcDbPolyline
 90
        4
 70
         1
 10
1.35
 20
64.95
 10
1.35
 20
66.05
 10
4.85
 20
66.05
 10
4.85
 20
64.95
  0
LWPOLYLINE
  5
286
100
AcDbEntity
  8
SOLDERMASK_PADS_TOP
100
AcDbPolyline
 90
        4
 70
         1
 10
1.35
 20
60.35
 10
1.35
 20
61.45
 10
4.85
 20
61.45
 10
4.85
 20
60.35
  0
LWPOLYLINE
  5
287
100
AcDbEntity
  8
SOLDERMASK_PADS_TOP
100
AcDbPolyline
 90
        4
 70
         1
 10
17.931
 20
36.153
 10
17.931
 20
36.653
 10
18.331
 20
36.653
 10
18.331
 20
36.153
  0
LWPOLYLINE
  5
288
100
AcDbEntity
  8
SOLDERMASK_PADS_TOP
100
AcDbPolyline
 90
        4
 70
         1
 10
17.131
 20
36.153
 10
17.131
 20
36.653
 10
17.531
 20
36.653
 10
17.531
 20
36.153
  0
LWPOLYLINE
  5
289
100
AcDbEntity
  8
SOLDERMASK_PADS_TOP
100
AcDbPolyline
 90
        4
 70
         1
 10
17.911
 20
37.073
 10
17.911
 20
37.573
 10
18.311
 20
37.573
 10
18.311
 20
37.073
  0
LWPOLYLINE
  5
28A
100
AcDbEntity
  8
SOLDERMASK_PADS_TOP
100
AcDbPolyline
 90
        4
 70
         1
 10
17.111
 20
37.073
 10
17.111
 20
37.573
 10
17.511
 20
37.573
 10
17.511
 20
37.073
  0
LWPOLYLINE
  5
28B
100
AcDbEntity
  8
SOLDERMASK_PADS_TOP
100
AcDbPolyline
 90
        4
 70
         1
 10
11.93
 20
60.142
 10
11.93
 20
62.742
 10
12.21
 20
62.742
 10
12.21
 20
60.142
  0
LWPOLYLINE
  5
28C
100
AcDbEntity
  8
SOLDERMASK_PADS_TOP
100
AcDbPolyline
 90
        4
 70
         1
 10
12.43
 20
60.142
 10
12.43
 20
62.742
 10
12.71
 20
62.742
 10
12.71
 20
60.142
  0
LWPOLYLINE
  5
28D
100
AcDbEntity
  8
SOLDERMASK_PADS_TOP
100
AcDbPolyline
 90
        4
 70
         1
 10
12.93
 20
60.142
 10
12.93
 20
62.742
 10
13.21
 20
62.742
 10
13.21
 20
60.142
  0
LWPOLYLINE
  5
28E
100
AcDbEntity
  8
SOLDERMASK_PADS_TOP
100
AcDbPolyline
 90
        4
 70
         1
 10
13.43
 20
60.142
 10
13.43
 20
62.742
 10
13.71
 20
62.742
 10
13.71
 20
60.142
  0
LWPOLYLINE
  5
28F
100
AcDbEntity
  8
SOLDERMASK_PADS_TOP
100
AcDbPolyline
 90
        4
 70
         1
 10
13.93
 20
60.142
 10
13.93
 20
62.742
 10
14.21
 20
62.742
 10
14.21
 20
60.142
  0
LWPOLYLINE
  5
290
100
AcDbEntity
  8
SOLDERMASK_PADS_TOP
100
AcDbPolyline
 90
        4
 70
         1
 10
14.43
 20
60.142
 10
14.43
 20
62.742
 10
14.71
 20
62.742
 10
14.71
 20
60.142
  0
LWPOLYLINE
  5
291
100
AcDbEntity
  8
SOLDERMASK_PADS_TOP
100
AcDbPolyline
 90
        4
 70
         1
 10
14.93
 20
60.142
 10
14.93
 20
62.742
 10
15.21
 20
62.742
 10
15.21
 20
60.142
  0
LWPOLYLINE
  5
292
100
AcDbEntity
  8
SOLDERMASK_PADS_TOP
100
AcDbPolyline
 90
        4
 70
         1
 10
15.43
 20
60.142
 10
15.43
 20
62.742
 10
15.71
 20
62.742
 10
15.71
 20
60.142
  0
LWPOLYLINE
  5
293
100
AcDbEntity
  8
SOLDERMASK_PADS_TOP
100
AcDbPolyline
 90
        4
 70
         1
 10
15.93
 20
60.142
 10
15.93
 20
62.742
 10
16.21
 20
62.742
 10
16.21
 20
60.142
  0
LWPOLYLINE
  5
294
100
AcDbEntity
  8
SOLDERMASK_PADS_TOP
100
AcDbPolyline
 90
        4
 70
         1
 10
16.43
 20
60.142
 10
16.43
 20
62.742
 10
16.71
 20
62.742
 10
16.71
 20
60.142
  0
LWPOLYLINE
  5
295
100
AcDbEntity
  8
SOLDERMASK_PADS_TOP
100
AcDbPolyline
 90
        4
 70
         1
 10
16.93
 20
60.142
 10
16.93
 20
62.742
 10
17.21
 20
62.742
 10
17.21
 20
60.142
  0
LWPOLYLINE
  5
296
100
AcDbEntity
  8
SOLDERMASK_PADS_TOP
100
AcDbPolyline
 90
        4
 70
         1
 10
17.43
 20
60.142
 10
17.43
 20
62.742
 10
17.71
 20
62.742
 10
17.71
 20
60.142
  0
LWPOLYLINE
  5
297
100
AcDbEntity
  8
SOLDERMASK_PADS_TOP
100
AcDbPolyline
 90
        4
 70
         1
 10
17.93
 20
60.142
 10
17.93
 20
62.742
 10
18.21
 20
62.742
 10
18.21
 20
60.142
  0
LWPOLYLINE
  5
298
100
AcDbEntity
  8
SOLDERMASK_PADS_TOP
100
AcDbPolyline
 90
        4
 70
         1
 10
18.43
 20
60.142
 10
18.43
 20
62.742
 10
18.71
 20
62.742
 10
18.71
 20
60.142
  0
LWPOLYLINE
  5
299
100
AcDbEntity
  8
SOLDERMASK_PADS_TOP
100
AcDbPolyline
 90
        4
 70
         1
 10
18.93
 20
60.142
 10
18.93
 20
62.742
 10
19.21
 20
62.742
 10
19.21
 20
60.142
  0
LWPOLYLINE
  5
29A
100
AcDbEntity
  8
SOLDERMASK_PADS_TOP
100
AcDbPolyline
 90
        4
 70
         1
 10
19.43
 20
60.142
 10
19.43
 20
62.742
 10
19.71
 20
62.742
 10
19.71
 20
60.142
  0
LWPOLYLINE
  5
29B
100
AcDbEntity
  8
SOLDERMASK_PADS_TOP
100
AcDbPolyline
 90
        4
 70
         1
 10
19.93
 20
60.142
 10
19.93
 20
62.742
 10
20.21
 20
62.742
 10
20.21
 20
60.142
  0
LWPOLYLINE
  5
29C
100
AcDbEntity
  8
SOLDERMASK_PADS_TOP
100
AcDbPolyline
 90
        4
 70
         1
 10
20.43
 20
60.142
 10
20.43
 20
62.742
 10
20.71
 20
62.742
 10
20.71
 20
60.142
  0
LWPOLYLINE
  5
29D
100
AcDbEntity
  8
SOLDERMASK_PADS_TOP
100
AcDbPolyline
 90
        4
 70
         1
 10
20.93
 20
60.142
 10
20.93
 20
62.742
 10
21.21
 20
62.742
 10
21.21
 20
60.142
  0
LWPOLYLINE
  5
29E
100
AcDbEntity
  8
SOLDERMASK_PADS_TOP
100
AcDbPolyline
 90
        4
 70
         1
 10
8.57
 20
61.342
 10
8.57
 20
63.142
 42
-1.0
 10
10.07
 20
63.142
 10
10.07
 20
61.342
 42
-1.0
  0
LWPOLYLINE
  5
29F
100
AcDbEntity
  8
SOLDERMASK_PADS_TOP
100
AcDbPolyline
 90
        4
 70
         1
 10
23.07
 20
61.342
 10
23.07
 20
63.142
 42
-1.0
 10
24.57
 20
63.142
 10
24.57
 20
61.342
 42
-1.0
  0
LWPOLYLINE
  5
2A0
100
AcDbEntity
  8
SOLDERMASK_PADS_TOP
100
AcDbPolyline
 90
        4
 70
         1
 10
8.57
 20
67.642
 10
8.57
 20
68.842
 42
-1.0
 10
10.07
 20
68.842
 10
10.07
 20
67.642
 42
-1.0
  0
LWPOLYLINE
  5
2A1
100
AcDbEntity
  8
SOLDERMASK_PADS_TOP
100
AcDbPolyline
 90
        4
 70
         1
 10
23.07
 20
67.642
 10
23.07
 20
68.842
 42
-1.0
 10
24.57
 20
68.842
 10
24.57
 20
67.642
 42
-1.0
  0
LWPOLYLINE
  5
2A2
100
AcDbEntity
  8
SOLDERMASK_PADS_TOP
100
AcDbPolyline
 90
        4
 70
         1
 10
20.4
 20
32.55
 10
20.4
 20
32.95
 10
20.9
 20
32.95
 10
20.9
 20
32.55
  0
LWPOLYLINE
  5
2A3
100
AcDbEntity
  8
SOLDERMASK_PADS_TOP
100
AcDbPolyline
 90
        4
 70
         1
 10
20.4
 20
33.35
 10
20.4
 20
33.75
 10
20.9
 20
33.75
 10
20.9
 20
33.35
  0
LWPOLYLINE
  5
2A4
100
AcDbEntity
  8
SOLDERMASK_PADS_TOP
100
AcDbPolyline
 90
        4
 70
         1
 10
21.29
 20
32.54
 10
21.29
 20
32.94
 10
21.79
 20
32.94
 10
21.79
 20
32.54
  0
LWPOLYLINE
  5
2A5
100
AcDbEntity
  8
SOLDERMASK_PADS_TOP
100
AcDbPolyline
 90
        4
 70
         1
 10
21.29
 20
33.34
 10
21.29
 20
33.74
 10
21.79
 20
33.74
 10
21.79
 20
33.34
  0
LWPOLYLINE
  5
2A6
100
AcDbEntity
  8
SOLDERMASK_PADS_TOP
100
AcDbPolyline
 90
        4
 70
         1
 10
18.55
 20
25.19
 10
18.55
 20
25.69
 10
18.95
 20
25.69
 10
18.95
 20
25.19
  0
LWPOLYLINE
  5
2A7
100
AcDbEntity
  8
SOLDERMASK_PADS_TOP
100
AcDbPolyline
 90
        4
 70
         1
 10
17.75
 20
25.19
 10
17.75
 20
25.69
 10
18.15
 20
25.69
 10
18.15
 20
25.19
  0
LWPOLYLINE
  5
2A8
100
AcDbEntity
  8
SOLDERMASK_PADS_TOP
100
AcDbPolyline
 90
        4
 70
         1
 10
18.55
 20
24.31
 10
18.55
 20
24.81
 10
18.95
 20
24.81
 10
18.95
 20
24.31
  0
LWPOLYLINE
  5
2A9
100
AcDbEntity
  8
SOLDERMASK_PADS_TOP
100
AcDbPolyline
 90
        4
 70
         1
 10
17.75
 20
24.31
 10
17.75
 20
24.81
 10
18.15
 20
24.81
 10
18.15
 20
24.31
  0
LWPOLYLINE
  5
2AA
100
AcDbEntity
  8
SOLDERMASK_PADS_TOP
100
AcDbPolyline
 90
        4
 70
         1
 10
12.15
 20
23.82
 10
12.15
 20
24.32
 10
12.55
 20
24.32
 10
12.55
 20
23.82
  0
LWPOLYLINE
  5
2AB
100
AcDbEntity
  8
SOLDERMASK_PADS_TOP
100
AcDbPolyline
 90
        4
 70
         1
 10
12.95
 20
23.82
 10
12.95
 20
24.32
 10
13.35
 20
24.32
 10
13.35
 20
23.82
  0
LWPOLYLINE
  5
2AC
100
AcDbEntity
  8
SOLDERMASK_PADS_TOP
100
AcDbPolyline
 90
        4
 70
         1
 10
12.17
 20
24.69
 10
12.17
 20
25.19
 10
12.57
 20
25.19
 10
12.57
 20
24.69
  0
LWPOLYLINE
  5
2AD
100
AcDbEntity
  8
SOLDERMASK_PADS_TOP
100
AcDbPolyline
 90
        4
 70
         1
 10
12.97
 20
24.69
 10
12.97
 20
25.19
 10
13.37
 20
25.19
 10
13.37
 20
24.69
  0
LWPOLYLINE
  5
2AE
100
AcDbEntity
  8
SOLDERMASK_PADS_TOP
100
AcDbPolyline
 90
        4
 70
         1
 10
9.12
 20
30.63
 10
9.12
 20
31.03
 10
9.62
 20
31.03
 10
9.62
 20
30.63
  0
LWPOLYLINE
  5
2AF
100
AcDbEntity
  8
SOLDERMASK_PADS_TOP
100
AcDbPolyline
 90
        4
 70
         1
 10
9.12
 20
31.43
 10
9.12
 20
31.83
 10
9.62
 20
31.83
 10
9.62
 20
31.43
  0
LWPOLYLINE
  5
2B0
100
AcDbEntity
  8
SOLDERMASK_PADS_TOP
100
AcDbPolyline
 90
        4
 70
         1
 10
8.2
 20
30.63
 10
8.2
 20
31.03
 10
8.7
 20
31.03
 10
8.7
 20
30.63
  0
LWPOLYLINE
  5
2B1
100
AcDbEntity
  8
SOLDERMASK_PADS_TOP
100
AcDbPolyline
 90
        4
 70
         1
 10
8.2
 20
31.43
 10
8.2
 20
31.83
 10
8.7
 20
31.83
 10
8.7
 20
31.43
  0
LWPOLYLINE
  5
2B2
100
AcDbEntity
  8
SOLDERMASK_PADS_TOP
100
AcDbPolyline
 90
        4
 70
         1
 10
10.48
 20
36.08
 10
10.48
 20
36.58
 10
10.88
 20
36.58
 10
10.88
 20
36.08
  0
LWPOLYLINE
  5
2B3
100
AcDbEntity
  8
SOLDERMASK_PADS_TOP
100
AcDbPolyline
 90
        4
 70
         1
 10
11.28
 20
36.08
 10
11.28
 20
36.58
 10
11.68
 20
36.58
 10
11.68
 20
36.08
  0
LWPOLYLINE
  5
2B4
100
AcDbEntity
  8
SOLDERMASK_PADS_TOP
100
AcDbPolyline
 90
        4
 70
         1
 10
10.48
 20
36.99
 10
10.48
 20
37.49
 10
10.88
 20
37.49
 10
10.88
 20
36.99
  0
LWPOLYLINE
  5
2B5
100
AcDbEntity
  8
SOLDERMASK_PADS_TOP
100
AcDbPolyline
 90
        4
 70
         1
 10
11.28
 20
36.99
 10
11.28
 20
37.49
 10
11.68
 20
37.49
 10
11.68
 20
36.99
  0
LWPOLYLINE
  5
2B6
100
AcDbEntity
  8
SOLDERMASK_PADS_TOP
100
AcDbPolyline
 90
        4
 70
         1
 10
14.04
 20
12.74
 10
14.04
 20
13.24
 10
14.44
 20
13.24
 10
14.44
 20
12.74
  0
LWPOLYLINE
  5
2B7
100
AcDbEntity
  8
SOLDERMASK_PADS_TOP
100
AcDbPolyline
 90
        4
 70
         1
 10
14.84
 20
12.74
 10
14.84
 20
13.24
 10
15.24
 20
13.24
 10
15.24
 20
12.74
  0
LWPOLYLINE
  5
2B8
100
AcDbEntity
  8
SOLDERMASK_PADS_TOP
100
AcDbPolyline
 90
        4
 70
         1
 10
18.32
 20
12.8
 10
18.32
 20
13.3
 10
18.72
 20
13.3
 10
18.72
 20
12.8
  0
LWPOLYLINE
  5
2B9
100
AcDbEntity
  8
SOLDERMASK_PADS_TOP
100
AcDbPolyline
 90
        4
 70
         1
 10
17.52
 20
12.8
 10
17.52
 20
13.3
 10
17.92
 20
13.3
 10
17.92
 20
12.8
  0
LWPOLYLINE
  5
2BA
100
AcDbEntity
  8
SOLDERMASK_PADS_TOP
100
AcDbPolyline
 90
        4
 70
         1
 10
21.64
 20
36.29
 10
21.64
 20
36.69
 10
22.14
 20
36.69
 10
22.14
 20
36.29
  0
LWPOLYLINE
  5
2BB
100
AcDbEntity
  8
SOLDERMASK_PADS_TOP
100
AcDbPolyline
 90
        4
 70
         1
 10
21.64
 20
35.49
 10
21.64
 20
35.89
 10
22.14
 20
35.89
 10
22.14
 20
35.49
  0
LWPOLYLINE
  5
2BC
100
AcDbEntity
  8
SOLDERMASK_PADS_TOP
100
AcDbPolyline
 90
        4
 70
         1
 10
21.53
 20
28.35
 10
21.53
 20
28.75
 10
22.03
 20
28.75
 10
22.03
 20
28.35
  0
LWPOLYLINE
  5
2BD
100
AcDbEntity
  8
SOLDERMASK_PADS_TOP
100
AcDbPolyline
 90
        4
 70
         1
 10
21.53
 20
27.55
 10
21.53
 20
27.95
 10
22.03
 20
27.95
 10
22.03
 20
27.55
  0
LWPOLYLINE
  5
2BE
100
AcDbEntity
  8
SOLDERMASK_PADS_TOP
100
AcDbPolyline
 90
        4
 70
         1
 10
13.75
 20
20.96
 10
13.75
 20
21.46
 10
14.15
 20
21.46
 10
14.15
 20
20.96
  0
LWPOLYLINE
  5
2BF
100
AcDbEntity
  8
SOLDERMASK_PADS_TOP
100
AcDbPolyline
 90
        4
 70
         1
 10
12.95
 20
20.96
 10
12.95
 20
21.46
 10
13.35
 20
21.46
 10
13.35
 20
20.96
  0
LWPOLYLINE
  5
2C0
100
AcDbEntity
  8
SOLDERMASK_PADS_TOP
100
AcDbPolyline
 90
        4
 70
         1
 10
7.18
 20
34.02
 10
7.18
 20
34.52
 10
7.58
 20
34.52
 10
7.58
 20
34.02
  0
LWPOLYLINE
  5
2C1
100
AcDbEntity
  8
SOLDERMASK_PADS_TOP
100
AcDbPolyline
 90
        4
 70
         1
 10
7.98
 20
34.02
 10
7.98
 20
34.52
 10
8.38
 20
34.52
 10
8.38
 20
34.02
  0
LWPOLYLINE
  5
2C2
100
AcDbEntity
  8
SOLDERMASK_PADS_TOP
100
AcDbPolyline
 90
        4
 70
         1
 10
8.7675
 20
34.02
 10
8.7675
 20
34.52
 10
9.1675
 20
34.52
 10
9.1675
 20
34.02
  0
LWPOLYLINE
  5
2C3
100
AcDbEntity
  8
SOLDERMASK_PADS_TOP
100
AcDbPolyline
 90
        4
 70
         1
 10
7.78
 20
35.23
 10
7.78
 20
35.73
 10
8.18
 20
35.73
 10
8.18
 20
35.23
  0
LWPOLYLINE
  5
2C4
100
AcDbEntity
  8
SOLDERMASK_PADS_TOP
100
AcDbPolyline
 90
        4
 70
         1
 10
8.58
 20
35.23
 10
8.58
 20
35.73
 10
8.98
 20
35.73
 10
8.98
 20
35.23
  0
LWPOLYLINE
  5
2C5
100
AcDbEntity
  8
SOLDERMASK_PADS_TOP
100
AcDbPolyline
 90
        4
 70
         1
 10
8.58
 20
36.18
 10
8.58
 20
36.68
 10
8.98
 20
36.68
 10
8.98
 20
36.18
  0
LWPOLYLINE
  5
2C6
100
AcDbEntity
  8
SOLDERMASK_PADS_TOP
100
AcDbPolyline
 90
        4
 70
         1
 10
7.78
 20
36.18
 10
7.78
 20
36.68
 10
8.18
 20
36.68
 10
8.18
 20
36.18
  0
LWPOLYLINE
  5
2C7
100
AcDbEntity
  8
SOLDERMASK_PADS_TOP
100
AcDbPolyline
 90
        4
 70
         1
 10
13.94
 20
36.9
 10
13.94
 20
37.4
 10
14.34
 20
37.4
 10
14.34
 20
36.9
  0
LWPOLYLINE
  5
2C8
100
AcDbEntity
  8
SOLDERMASK_PADS_TOP
100
AcDbPolyline
 90
        4
 70
         1
 10
14.74
 20
36.9
 10
14.74
 20
37.4
 10
15.14
 20
37.4
 10
15.14
 20
36.9
  0
LWPOLYLINE
  5
2C9
100
AcDbEntity
  8
SOLDERMASK_PADS_TOP
100
AcDbPolyline
 90
        4
 70
         1
 10
13.89
 20
37.81
 10
13.89
 20
38.31
 10
14.29
 20
38.31
 10
14.29
 20
37.81
  0
LWPOLYLINE
  5
2CA
100
AcDbEntity
  8
SOLDERMASK_PADS_TOP
100
AcDbPolyline
 90
        4
 70
         1
 10
14.69
 20
37.81
 10
14.69
 20
38.31
 10
15.09
 20
38.31
 10
15.09
 20
37.81
  0
LWPOLYLINE
  5
2CB
100
AcDbEntity
  8
SOLDERMASK_PADS_TOP
100
AcDbPolyline
 90
        4
 70
         1
 10
11.6
 20
26.71
 10
11.6
 20
26.16
 10
11.3
 20
26.16
 10
11.3
 20
26.71
 42
-1.0
  0
LWPOLYLINE
  5
2CC
100
AcDbEntity
  8
SOLDERMASK_PADS_TOP
100
AcDbPolyline
 90
        4
 70
         1
 10
12.1
 20
26.71
 10
12.1
 20
26.16
 10
11.8
 20
26.16
 10
11.8
 20
26.71
 42
-1.0
  0
LWPOLYLINE
  5
2CD
100
AcDbEntity
  8
SOLDERMASK_PADS_TOP
100
AcDbPolyline
 90
        4
 70
         1
 10
12.6
 20
26.71
 10
12.6
 20
26.16
 10
12.3
 20
26.16
 10
12.3
 20
26.71
 42
-1.0
  0
LWPOLYLINE
  5
2CE
100
AcDbEntity
  8
SOLDERMASK_PADS_TOP
100
AcDbPolyline
 90
        4
 70
         1
 10
13.1
 20
26.71
 10
13.1
 20
26.16
 10
12.8
 20
26.16
 10
12.8
 20
26.71
 42
-1.0
  0
LWPOLYLINE
  5
2CF
100
AcDbEntity
  8
SOLDERMASK_PADS_TOP
100
AcDbPolyline
 90
        4
 70
         1
 10
13.6
 20
26.71
 10
13.6
 20
26.16
 10
13.3
 20
26.16
 10
13.3
 20
26.71
 42
-1.0
  0
LWPOLYLINE
  5
2D0
100
AcDbEntity
  8
SOLDERMASK_PADS_TOP
100
AcDbPolyline
 90
        4
 70
         1
 10
14.1
 20
26.71
 10
14.1
 20
26.16
 10
13.8
 20
26.16
 10
13.8
 20
26.71
 42
-1.0
  0
LWPOLYLINE
  5
2D1
100
AcDbEntity
  8
SOLDERMASK_PADS_TOP
100
AcDbPolyline
 90
        4
 70
         1
 10
14.6
 20
26.71
 10
14.6
 20
26.16
 10
14.3
 20
26.16
 10
14.3
 20
26.71
 42
-1.0
  0
LWPOLYLINE
  5
2D2
100
AcDbEntity
  8
SOLDERMASK_PADS_TOP
100
AcDbPolyline
 90
        4
 70
         1
 10
15.1
 20
26.71
 10
15.1
 20
26.16
 10
14.8
 20
26.16
 10
14.8
 20
26.71
 42
-1.0
  0
LWPOLYLINE
  5
2D3
100
AcDbEntity
  8
SOLDERMASK_PADS_TOP
100
AcDbPolyline
 90
        4
 70
         1
 10
15.6
 20
26.71
 10
15.6
 20
26.16
 10
15.3
 20
26.16
 10
15.3
 20
26.71
 42
-1.0
  0
LWPOLYLINE
  5
2D4
100
AcDbEntity
  8
SOLDERMASK_PADS_TOP
100
AcDbPolyline
 90
        4
 70
         1
 10
16.1
 20
26.71
 10
16.1
 20
26.16
 10
15.8
 20
26.16
 10
15.8
 20
26.71
 42
-1.0
  0
LWPOLYLINE
  5
2D5
100
AcDbEntity
  8
SOLDERMASK_PADS_TOP
100
AcDbPolyline
 90
        4
 70
         1
 10
16.6
 20
26.71
 10
16.6
 20
26.16
 10
16.3
 20
26.16
 10
16.3
 20
26.71
 42
-1.0
  0
LWPOLYLINE
  5
2D6
100
AcDbEntity
  8
SOLDERMASK_PADS_TOP
100
AcDbPolyline
 90
        4
 70
         1
 10
17.1
 20
26.71
 10
17.1
 20
26.16
 10
16.8
 20
26.16
 10
16.8
 20
26.71
 42
-1.0
  0
LWPOLYLINE
  5
2D7
100
AcDbEntity
  8
SOLDERMASK_PADS_TOP
100
AcDbPolyline
 90
        4
 70
         1
 10
17.6
 20
26.71
 10
17.6
 20
26.16
 10
17.3
 20
26.16
 10
17.3
 20
26.71
 42
-1.0
  0
LWPOLYLINE
  5
2D8
100
AcDbEntity
  8
SOLDERMASK_PADS_TOP
100
AcDbPolyline
 90
        4
 70
         1
 10
18.1
 20
26.71
 10
18.1
 20
26.16
 10
17.8
 20
26.16
 10
17.8
 20
26.71
 42
-1.0
  0
LWPOLYLINE
  5
2D9
100
AcDbEntity
  8
SOLDERMASK_PADS_TOP
100
AcDbPolyline
 90
        4
 70
         1
 10
18.6
 20
26.71
 10
18.6
 20
26.16
 10
18.3
 20
26.16
 10
18.3
 20
26.71
 42
-1.0
  0
LWPOLYLINE
  5
2DA
100
AcDbEntity
  8
SOLDERMASK_PADS_TOP
100
AcDbPolyline
 90
        4
 70
         1
 10
19.1
 20
26.71
 10
19.1
 20
26.16
 10
18.8
 20
26.16
 10
18.8
 20
26.71
 42
-1.0
  0
LWPOLYLINE
  5
2DB
100
AcDbEntity
  8
SOLDERMASK_PADS_TOP
100
AcDbPolyline
 90
        4
 70
         1
 10
19.45
 20
27.36
 10
20.0
 20
27.36
 10
20.0
 20
27.06
 10
19.45
 20
27.06
 42
-1.0
  0
LWPOLYLINE
  5
2DC
100
AcDbEntity
  8
SOLDERMASK_PADS_TOP
100
AcDbPolyline
 90
        4
 70
         1
 10
19.45
 20
27.86
 10
20.0
 20
27.86
 10
20.0
 20
27.56
 10
19.45
 20
27.56
 42
-1.0
  0
LWPOLYLINE
  5
2DD
100
AcDbEntity
  8
SOLDERMASK_PADS_TOP
100
AcDbPolyline
 90
        4
 70
         1
 10
19.45
 20
28.36
 10
20.0
 20
28.36
 10
20.0
 20
28.06
 10
19.45
 20
28.06
 42
-1.0
  0
LWPOLYLINE
  5
2DE
100
AcDbEntity
  8
SOLDERMASK_PADS_TOP
100
AcDbPolyline
 90
        4
 70
         1
 10
19.45
 20
28.86
 10
20.0
 20
28.86
 10
20.0
 20
28.56
 10
19.45
 20
28.56
 42
-1.0
  0
LWPOLYLINE
  5
2DF
100
AcDbEntity
  8
SOLDERMASK_PADS_TOP
100
AcDbPolyline
 90
        4
 70
         1
 10
19.45
 20
29.36
 10
20.0
 20
29.36
 10
20.0
 20
29.06
 10
19.45
 20
29.06
 42
-1.0
  0
LWPOLYLINE
  5
2E0
100
AcDbEntity
  8
SOLDERMASK_PADS_TOP
100
AcDbPolyline
 90
        4
 70
         1
 10
19.45
 20
29.86
 10
20.0
 20
29.86
 10
20.0
 20
29.56
 10
19.45
 20
29.56
 42
-1.0
  0
LWPOLYLINE
  5
2E1
100
AcDbEntity
  8
SOLDERMASK_PADS_TOP
100
AcDbPolyline
 90
        4
 70
         1
 10
19.45
 20
30.36
 10
20.0
 20
30.36
 10
20.0
 20
30.06
 10
19.45
 20
30.06
 42
-1.0
  0
LWPOLYLINE
  5
2E2
100
AcDbEntity
  8
SOLDERMASK_PADS_TOP
100
AcDbPolyline
 90
        4
 70
         1
 10
19.45
 20
30.86
 10
20.0
 20
30.86
 10
20.0
 20
30.56
 10
19.45
 20
30.56
 42
-1.0
  0
LWPOLYLINE
  5
2E3
100
AcDbEntity
  8
SOLDERMASK_PADS_TOP
100
AcDbPolyline
 90
        4
 70
         1
 10
19.45
 20
31.36
 10
20.0
 20
31.36
 10
20.0
 20
31.06
 10
19.45
 20
31.06
 42
-1.0
  0
LWPOLYLINE
  5
2E4
100
AcDbEntity
  8
SOLDERMASK_PADS_TOP
100
AcDbPolyline
 90
        4
 70
         1
 10
19.45
 20
31.86
 10
20.0
 20
31.86
 10
20.0
 20
31.56
 10
19.45
 20
31.56
 42
-1.0
  0
LWPOLYLINE
  5
2E5
100
AcDbEntity
  8
SOLDERMASK_PADS_TOP
100
AcDbPolyline
 90
        4
 70
         1
 10
19.45
 20
32.36
 10
20.0
 20
32.36
 10
20.0
 20
32.06
 10
19.45
 20
32.06
 42
-1.0
  0
LWPOLYLINE
  5
2E6
100
AcDbEntity
  8
SOLDERMASK_PADS_TOP
100
AcDbPolyline
 90
        4
 70
         1
 10
19.45
 20
32.86
 10
20.0
 20
32.86
 10
20.0
 20
32.56
 10
19.45
 20
32.56
 42
-1.0
  0
LWPOLYLINE
  5
2E7
100
AcDbEntity
  8
SOLDERMASK_PADS_TOP
100
AcDbPolyline
 90
        4
 70
         1
 10
19.45
 20
33.36
 10
20.0
 20
33.36
 10
20.0
 20
33.06
 10
19.45
 20
33.06
 42
-1.0
  0
LWPOLYLINE
  5
2E8
100
AcDbEntity
  8
SOLDERMASK_PADS_TOP
100
AcDbPolyline
 90
        4
 70
         1
 10
19.45
 20
33.86
 10
20.0
 20
33.86
 10
20.0
 20
33.56
 10
19.45
 20
33.56
 42
-1.0
  0
LWPOLYLINE
  5
2E9
100
AcDbEntity
  8
SOLDERMASK_PADS_TOP
100
AcDbPolyline
 90
        4
 70
         1
 10
19.45
 20
34.36
 10
20.0
 20
34.36
 10
20.0
 20
34.06
 10
19.45
 20
34.06
 42
-1.0
  0
LWPOLYLINE
  5
2EA
100
AcDbEntity
  8
SOLDERMASK_PADS_TOP
100
AcDbPolyline
 90
        4
 70
         1
 10
19.45
 20
34.86
 10
20.0
 20
34.86
 10
20.0
 20
34.56
 10
19.45
 20
34.56
 42
-1.0
  0
LWPOLYLINE
  5
2EB
100
AcDbEntity
  8
SOLDERMASK_PADS_TOP
100
AcDbPolyline
 90
        4
 70
         1
 10
18.8
 20
35.21
 10
18.8
 20
35.76
 10
19.1
 20
35.76
 10
19.1
 20
35.21
 42
-1.0
  0
LWPOLYLINE
  5
2EC
100
AcDbEntity
  8
SOLDERMASK_PADS_TOP
100
AcDbPolyline
 90
        4
 70
         1
 10
18.3
 20
35.21
 10
18.3
 20
35.76
 10
18.6
 20
35.76
 10
18.6
 20
35.21
 42
-1.0
  0
LWPOLYLINE
  5
2ED
100
AcDbEntity
  8
SOLDERMASK_PADS_TOP
100
AcDbPolyline
 90
        4
 70
         1
 10
17.8
 20
35.21
 10
17.8
 20
35.76
 10
18.1
 20
35.76
 10
18.1
 20
35.21
 42
-1.0
  0
LWPOLYLINE
  5
2EE
100
AcDbEntity
  8
SOLDERMASK_PADS_TOP
100
AcDbPolyline
 90
        4
 70
         1
 10
17.3
 20
35.21
 10
17.3
 20
35.76
 10
17.6
 20
35.76
 10
17.6
 20
35.21
 42
-1.0
  0
LWPOLYLINE
  5
2EF
100
AcDbEntity
  8
SOLDERMASK_PADS_TOP
100
AcDbPolyline
 90
        4
 70
         1
 10
16.8
 20
35.21
 10
16.8
 20
35.76
 10
17.1
 20
35.76
 10
17.1
 20
35.21
 42
-1.0
  0
LWPOLYLINE
  5
2F0
100
AcDbEntity
  8
SOLDERMASK_PADS_TOP
100
AcDbPolyline
 90
        4
 70
         1
 10
16.3
 20
35.21
 10
16.3
 20
35.76
 10
16.6
 20
35.76
 10
16.6
 20
35.21
 42
-1.0
  0
LWPOLYLINE
  5
2F1
100
AcDbEntity
  8
SOLDERMASK_PADS_TOP
100
AcDbPolyline
 90
        4
 70
         1
 10
15.8
 20
35.21
 10
15.8
 20
35.76
 10
16.1
 20
35.76
 10
16.1
 20
35.21
 42
-1.0
  0
LWPOLYLINE
  5
2F2
100
AcDbEntity
  8
SOLDERMASK_PADS_TOP
100
AcDbPolyline
 90
        4
 70
         1
 10
15.3
 20
35.21
 10
15.3
 20
35.76
 10
15.6
 20
35.76
 10
15.6
 20
35.21
 42
-1.0
  0
LWPOLYLINE
  5
2F3
100
AcDbEntity
  8
SOLDERMASK_PADS_TOP
100
AcDbPolyline
 90
        4
 70
         1
 10
14.8
 20
35.21
 10
14.8
 20
35.76
 10
15.1
 20
35.76
 10
15.1
 20
35.21
 42
-1.0
  0
LWPOLYLINE
  5
2F4
100
AcDbEntity
  8
SOLDERMASK_PADS_TOP
100
AcDbPolyline
 90
        4
 70
         1
 10
14.3
 20
35.21
 10
14.3
 20
35.76
 10
14.6
 20
35.76
 10
14.6
 20
35.21
 42
-1.0
  0
LWPOLYLINE
  5
2F5
100
AcDbEntity
  8
SOLDERMASK_PADS_TOP
100
AcDbPolyline
 90
        4
 70
         1
 10
13.8
 20
35.21
 10
13.8
 20
35.76
 10
14.1
 20
35.76
 10
14.1
 20
35.21
 42
-1.0
  0
LWPOLYLINE
  5
2F6
100
AcDbEntity
  8
SOLDERMASK_PADS_TOP
100
AcDbPolyline
 90
        4
 70
         1
 10
13.3
 20
35.21
 10
13.3
 20
35.76
 10
13.6
 20
35.76
 10
13.6
 20
35.21
 42
-1.0
  0
LWPOLYLINE
  5
2F7
100
AcDbEntity
  8
SOLDERMASK_PADS_TOP
100
AcDbPolyline
 90
        4
 70
         1
 10
12.8
 20
35.21
 10
12.8
 20
35.76
 10
13.1
 20
35.76
 10
13.1
 20
35.21
 42
-1.0
  0
LWPOLYLINE
  5
2F8
100
AcDbEntity
  8
SOLDERMASK_PADS_TOP
100
AcDbPolyline
 90
        4
 70
         1
 10
12.3
 20
35.21
 10
12.3
 20
35.76
 10
12.6
 20
35.76
 10
12.6
 20
35.21
 42
-1.0
  0
LWPOLYLINE
  5
2F9
100
AcDbEntity
  8
SOLDERMASK_PADS_TOP
100
AcDbPolyline
 90
        4
 70
         1
 10
11.8
 20
35.21
 10
11.8
 20
35.76
 10
12.1
 20
35.76
 10
12.1
 20
35.21
 42
-1.0
  0
LWPOLYLINE
  5
2FA
100
AcDbEntity
  8
SOLDERMASK_PADS_TOP
100
AcDbPolyline
 90
        4
 70
         1
 10
11.3
 20
35.21
 10
11.3
 20
35.76
 10
11.6
 20
35.76
 10
11.6
 20
35.21
 42
-1.0
  0
LWPOLYLINE
  5
2FB
100
AcDbEntity
  8
SOLDERMASK_PADS_TOP
100
AcDbPolyline
 90
        4
 70
         1
 10
10.95
 20
34.56
 10
10.4
 20
34.56
 10
10.4
 20
34.86
 10
10.95
 20
34.86
 42
-1.0
  0
LWPOLYLINE
  5
2FC
100
AcDbEntity
  8
SOLDERMASK_PADS_TOP
100
AcDbPolyline
 90
        4
 70
         1
 10
10.95
 20
34.06
 10
10.4
 20
34.06
 10
10.4
 20
34.36
 10
10.95
 20
34.36
 42
-1.0
  0
LWPOLYLINE
  5
2FD
100
AcDbEntity
  8
SOLDERMASK_PADS_TOP
100
AcDbPolyline
 90
        4
 70
         1
 10
10.95
 20
33.56
 10
10.4
 20
33.56
 10
10.4
 20
33.86
 10
10.95
 20
33.86
 42
-1.0
  0
LWPOLYLINE
  5
2FE
100
AcDbEntity
  8
SOLDERMASK_PADS_TOP
100
AcDbPolyline
 90
        4
 70
         1
 10
10.95
 20
33.06
 10
10.4
 20
33.06
 10
10.4
 20
33.36
 10
10.95
 20
33.36
 42
-1.0
  0
LWPOLYLINE
  5
2FF
100
AcDbEntity
  8
SOLDERMASK_PADS_TOP
100
AcDbPolyline
 90
        4
 70
         1
 10
10.95
 20
32.56
 10
10.4
 20
32.56
 10
10.4
 20
32.86
 10
10.95
 20
32.86
 42
-1.0
  0
LWPOLYLINE
  5
300
100
AcDbEntity
  8
SOLDERMASK_PADS_TOP
100
AcDbPolyline
 90
        4
 70
         1
 10
10.95
 20
32.06
 10
10.4
 20
32.06
 10
10.4
 20
32.36
 10
10.95
 20
32.36
 42
-1.0
  0
LWPOLYLINE
  5
301
100
AcDbEntity
  8
SOLDERMASK_PADS_TOP
100
AcDbPolyline
 90
        4
 70
         1
 10
10.95
 20
31.56
 10
10.4
 20
31.56
 10
10.4
 20
31.86
 10
10.95
 20
31.86
 42
-1.0
  0
LWPOLYLINE
  5
302
100
AcDbEntity
  8
SOLDERMASK_PADS_TOP
100
AcDbPolyline
 90
        4
 70
         1
 10
10.95
 20
31.06
 10
10.4
 20
31.06
 10
10.4
 20
31.36
 10
10.95
 20
31.36
 42
-1.0
  0
LWPOLYLINE
  5
303
100
AcDbEntity
  8
SOLDERMASK_PADS_TOP
100
AcDbPolyline
 90
        4
 70
         1
 10
10.95
 20
30.56
 10
10.4
 20
30.56
 10
10.4
 20
30.86
 10
10.95
 20
30.86
 42
-1.0
  0
LWPOLYLINE
  5
304
100
AcDbEntity
  8
SOLDERMASK_PADS_TOP
100
AcDbPolyline
 90
        4
 70
         1
 10
10.95
 20
30.06
 10
10.4
 20
30.06
 10
10.4
 20
30.36
 10
10.95
 20
30.36
 42
-1.0
  0
LWPOLYLINE
  5
305
100
AcDbEntity
  8
SOLDERMASK_PADS_TOP
100
AcDbPolyline
 90
        4
 70
         1
 10
10.95
 20
29.56
 10
10.4
 20
29.56
 10
10.4
 20
29.86
 10
10.95
 20
29.86
 42
-1.0
  0
LWPOLYLINE
  5
306
100
AcDbEntity
  8
SOLDERMASK_PADS_TOP
100
AcDbPolyline
 90
        4
 70
         1
 10
10.95
 20
29.06
 10
10.4
 20
29.06
 10
10.4
 20
29.36
 10
10.95
 20
29.36
 42
-1.0
  0
LWPOLYLINE
  5
307
100
AcDbEntity
  8
SOLDERMASK_PADS_TOP
100
AcDbPolyline
 90
        4
 70
         1
 10
10.95
 20
28.56
 10
10.4
 20
28.56
 10
10.4
 20
28.86
 10
10.95
 20
28.86
 42
-1.0
  0
LWPOLYLINE
  5
308
100
AcDbEntity
  8
SOLDERMASK_PADS_TOP
100
AcDbPolyline
 90
        4
 70
         1
 10
10.95
 20
28.06
 10
10.4
 20
28.06
 10
10.4
 20
28.36
 10
10.95
 20
28.36
 42
-1.0
  0
LWPOLYLINE
  5
309
100
AcDbEntity
  8
SOLDERMASK_PADS_TOP
100
AcDbPolyline
 90
        4
 70
         1
 10
10.95
 20
27.56
 10
10.4
 20
27.56
 10
10.4
 20
27.86
 10
10.95
 20
27.86
 42
-1.0
  0
LWPOLYLINE
  5
30A
100
AcDbEntity
  8
SOLDERMASK_PADS_TOP
100
AcDbPolyline
 90
        4
 70
         1
 10
10.95
 20
27.06
 10
10.4
 20
27.06
 10
10.4
 20
27.36
 10
10.95
 20
27.36
 42
-1.0
  0
LWPOLYLINE
  5
30B
100
AcDbEntity
  8
SOLDERMASK_PADS_TOP
100
AcDbPolyline
 90
        4
 70
         1
 10
12.6
 20
28.36
 10
12.6
 20
33.56
 10
17.8
 20
33.56
 10
17.8
 20
28.36
  0
LWPOLYLINE
  5
30C
100
AcDbEntity
  8
SOLDERMASK_PADS_TOP
100
AcDbPolyline
 90
        4
 70
         1
 10
7.16
 20
32.32
 10
7.16
 20
32.82
 10
7.56
 20
32.82
 10
7.56
 20
32.32
  0
LWPOLYLINE
  5
30D
100
AcDbEntity
  8
SOLDERMASK_PADS_TOP
100
AcDbPolyline
 90
        4
 70
         1
 10
7.96
 20
32.32
 10
7.96
 20
32.82
 10
8.36
 20
32.82
 10
8.36
 20
32.32
  0
LWPOLYLINE
  5
30E
100
AcDbEntity
  8
SOLDERMASK_PADS_TOP
100
AcDbPolyline
 90
        4
 70
         1
 10
8.7475
 20
32.32
 10
8.7475
 20
32.82
 10
9.1475
 20
32.82
 10
9.1475
 20
32.32
  0
LWPOLYLINE
  5
30F
100
AcDbEntity
  8
SOLDERMASK_PADS_TOP
100
AcDbPolyline
 90
        4
 70
         1
 10
18.88
 20
36.85
 10
18.88
 20
37.25
 10
19.38
 20
37.25
 10
19.38
 20
36.85
  0
LWPOLYLINE
  5
310
100
AcDbEntity
  8
SOLDERMASK_PADS_TOP
100
AcDbPolyline
 90
        4
 70
         1
 10
18.88
 20
37.65
 10
18.88
 20
38.05
 10
19.38
 20
38.05
 10
19.38
 20
37.65
  0
LWPOLYLINE
  5
311
100
AcDbEntity
  8
SOLDERMASK_PADS_TOP
100
AcDbPolyline
 90
        4
 70
         1
 10
9.78
 20
55.6
 10
9.78
 20
56.1
 10
10.18
 20
56.1
 10
10.18
 20
55.6
  0
LWPOLYLINE
  5
312
100
AcDbEntity
  8
SOLDERMASK_PADS_TOP
100
AcDbPolyline
 90
        4
 70
         1
 10
10.58
 20
55.6
 10
10.58
 20
56.1
 10
10.98
 20
56.1
 10
10.98
 20
55.6
  0
LWPOLYLINE
  5
313
100
AcDbEntity
  8
SOLDERMASK_PADS_TOP
100
AcDbPolyline
 90
        4
 70
         1
 10
19.77
 20
20.96
 10
19.77
 20
21.46
 10
20.17
 20
21.46
 10
20.17
 20
20.96
  0
LWPOLYLINE
  5
314
100
AcDbEntity
  8
SOLDERMASK_PADS_TOP
100
AcDbPolyline
 90
        4
 70
         1
 10
18.97
 20
20.96
 10
18.97
 20
21.46
 10
19.37
 20
21.46
 10
19.37
 20
20.96
  0
LWPOLYLINE
  5
315
100
AcDbEntity
  8
SOLDERMASK_PADS_TOP
100
AcDbPolyline
 90
        4
 70
         1
 10
9.69
 20
18.95
 10
9.69
 20
19.45
 10
10.09
 20
19.45
 10
10.09
 20
18.95
  0
LWPOLYLINE
  5
316
100
AcDbEntity
  8
SOLDERMASK_PADS_TOP
100
AcDbPolyline
 90
        4
 70
         1
 10
8.89
 20
18.95
 10
8.89
 20
19.45
 10
9.29
 20
19.45
 10
9.29
 20
18.95
  0
LWPOLYLINE
  5
317
100
AcDbEntity
  8
SOLDERMASK_PADS_TOP
100
AcDbPolyline
 90
        4
 70
         1
 10
9.56
 20
14.67
 10
9.56
 20
15.17
 10
9.96
 20
15.17
 10
9.96
 20
14.67
  0
LWPOLYLINE
  5
318
100
AcDbEntity
  8
SOLDERMASK_PADS_TOP
100
AcDbPolyline
 90
        4
 70
         1
 10
8.76
 20
14.67
 10
8.76
 20
15.17
 10
9.16
 20
15.17
 10
9.16
 20
14.67
  0
LWPOLYLINE
  5
319
100
AcDbEntity
  8
SOLDERMASK_PADS_TOP
100
AcDbPolyline
 90
        4
 70
         1
 10
19.905
 20
13.85
 10
19.905
 20
14.7
 10
21.155
 20
14.7
 10
21.155
 20
13.85
  0
LWPOLYLINE
  5
31A
100
AcDbEntity
  8
SOLDERMASK_PADS_TOP
100
AcDbPolyline
 90
        4
 70
         1
 10
19.905
 20
15.4
 10
19.905
 20
16.25
 10
21.155
 20
16.25
 10
21.155
 20
15.4
  0
LWPOLYLINE
  5
31B
100
AcDbEntity
  8
SOLDERMASK_PADS_TOP
100
AcDbPolyline
 90
        4
 70
         1
 10
18.77
 20
15.23
 10
18.77
 20
15.63
 10
19.27
 20
15.63
 10
19.27
 20
15.23
  0
LWPOLYLINE
  5
31C
100
AcDbEntity
  8
SOLDERMASK_PADS_TOP
100
AcDbPolyline
 90
        4
 70
         1
 10
18.77
 20
14.43
 10
18.77
 20
14.83
 10
19.27
 20
14.83
 10
19.27
 20
14.43
  0
LWPOLYLINE
  5
31D
100
AcDbEntity
  8
SOLDERMASK_PADS_TOP
100
AcDbPolyline
 90
        4
 70
         1
 10
15.44
 20
18.22
 10
15.44
 20
18.72
 10
15.84
 20
18.72
 10
15.84
 20
18.22
  0
LWPOLYLINE
  5
31E
100
AcDbEntity
  8
SOLDERMASK_PADS_TOP
100
AcDbPolyline
 90
        4
 70
         1
 10
16.24
 20
18.22
 10
16.24
 20
18.72
 10
16.64
 20
18.72
 10
16.64
 20
18.22
  0
LWPOLYLINE
  5
31F
100
AcDbEntity
  8
SOLDERMASK_PADS_TOP
100
AcDbPolyline
 90
        4
 70
         1
 10
17.0275
 20
18.22
 10
17.0275
 20
18.72
 10
17.4275
 20
18.72
 10
17.4275
 20
18.22
  0
LWPOLYLINE
  5
320
100
AcDbEntity
  8
SOLDERMASK_PADS_TOP
100
AcDbPolyline
 90
        4
 70
         1
 10
17.4
 20
15.25
 10
17.4
 20
15.85
 10
18.08
 20
15.85
 10
18.08
 20
15.25
  0
LWPOLYLINE
  5
321
100
AcDbEntity
  8
SOLDERMASK_PADS_TOP
100
AcDbPolyline
 90
        4
 70
         1
 10
16.85
 20
15.25
 10
16.85
 20
15.85
 10
17.53
 20
15.85
 10
17.53
 20
15.25
  0
LWPOLYLINE
  5
322
100
AcDbEntity
  8
SOLDERMASK_PADS_TOP
100
AcDbPolyline
 90
        4
 70
         1
 10
17.4
 20
14.3
 10
17.4
 20
14.9
 10
18.08
 20
14.9
 10
18.08
 20
14.3
  0
LWPOLYLINE
  5
323
100
AcDbEntity
  8
SOLDERMASK_PADS_TOP
100
AcDbPolyline
 90
        4
 70
         1
 10
14.7
 20
16.2
 10
14.7
 20
16.8
 10
15.38
 20
16.8
 10
15.38
 20
16.2
  0
LWPOLYLINE
  5
324
100
AcDbEntity
  8
SOLDERMASK_PADS_TOP
100
AcDbPolyline
 90
        4
 70
         1
 10
14.7
 20
14.3
 10
14.7
 20
14.9
 10
15.38
 20
14.9
 10
15.38
 20
14.3
  0
LWPOLYLINE
  5
325
100
AcDbEntity
  8
SOLDERMASK_PADS_TOP
100
AcDbPolyline
 90
        4
 70
         1
 10
17.4
 20
16.2
 10
17.4
 20
16.8
 10
18.08
 20
16.8
 10
18.08
 20
16.2
  0
LWPOLYLINE
  5
326
100
AcDbEntity
  8
SOLDERMASK_PADS_TOP
100
AcDbPolyline
 90
        4
 70
         1
 10
19.77
 20
17.18
 10
19.77
 20
17.68
 10
20.17
 20
17.68
 10
20.17
 20
17.18
  0
LWPOLYLINE
  5
327
100
AcDbEntity
  8
SOLDERMASK_PADS_TOP
100
AcDbPolyline
 90
        4
 70
         1
 10
18.97
 20
17.18
 10
18.97
 20
17.68
 10
19.37
 20
17.68
 10
19.37
 20
17.18
  0
LWPOLYLINE
  5
328
100
AcDbEntity
  8
SOLDERMASK_PADS_TOP
100
AcDbPolyline
 90
        4
 70
         1
 10
24.6
 20
19.69
 10
24.6
 20
20.09
 10
25.1
 20
20.09
 10
25.1
 20
19.69
  0
LWPOLYLINE
  5
329
100
AcDbEntity
  8
SOLDERMASK_PADS_TOP
100
AcDbPolyline
 90
        4
 70
         1
 10
24.6
 20
18.89
 10
24.6
 20
19.29
 10
25.1
 20
19.29
 10
25.1
 20
18.89
  0
LWPOLYLINE
  5
32A
100
AcDbEntity
  8
SOLDERMASK_PADS_TOP
100
AcDbPolyline
 90
        4
 70
         1
 10
10.98
 20
40.93
 10
10.98
 20
41.43
 10
11.38
 20
41.43
 10
11.38
 20
40.93
  0
LWPOLYLINE
  5
32B
100
AcDbEntity
  8
SOLDERMASK_PADS_TOP
100
AcDbPolyline
 90
        4
 70
         1
 10
10.18
 20
40.93
 10
10.18
 20
41.43
 10
10.58
 20
41.43
 10
10.58
 20
40.93
  0
LWPOLYLINE
  5
32C
100
AcDbEntity
  8
SOLDERMASK_PADS_TOP
100
AcDbPolyline
 90
        4
 70
         1
 10
18.48
 20
7.72
 10
18.48
 20
8.22
 10
18.88
 20
8.22
 10
18.88
 20
7.72
  0
LWPOLYLINE
  5
32D
100
AcDbEntity
  8
SOLDERMASK_PADS_TOP
100
AcDbPolyline
 90
        4
 70
         1
 10
17.68
 20
7.72
 10
17.68
 20
8.22
 10
18.08
 20
8.22
 10
18.08
 20
7.72
  0
LWPOLYLINE
  5
32E
100
AcDbEntity
  8
SOLDERMASK_PADS_TOP
100
AcDbPolyline
 90
        4
 70
         1
 10
8.26
 20
47.57
 10
8.26
 20
47.97
 10
8.76
 20
47.97
 10
8.76
 20
47.57
  0
LWPOLYLINE
  5
32F
100
AcDbEntity
  8
SOLDERMASK_PADS_TOP
100
AcDbPolyline
 90
        4
 70
         1
 10
8.26
 20
46.77
 10
8.26
 20
47.17
 10
8.76
 20
47.17
 10
8.76
 20
46.77
  0
LWPOLYLINE
  5
330
100
AcDbEntity
  8
SOLDERMASK_PADS_TOP
100
AcDbPolyline
 90
        4
 70
         1
 10
4.06
 20
52.34
 10
4.06
 20
52.84
 10
4.46
 20
52.84
 10
4.46
 20
52.34
  0
LWPOLYLINE
  5
331
100
AcDbEntity
  8
SOLDERMASK_PADS_TOP
100
AcDbPolyline
 90
        4
 70
         1
 10
3.26
 20
52.34
 10
3.26
 20
52.84
 10
3.66
 20
52.84
 10
3.66
 20
52.34
  0
LWPOLYLINE
  5
332
100
AcDbEntity
  8
SOLDERMASK_PADS_TOP
100
AcDbPolyline
 90
        4
 70
         1
 10
20.08
 20
55.89
 10
20.08
 20
56.39
 10
20.48
 20
56.39
 10
20.48
 20
55.89
  0
LWPOLYLINE
  5
333
100
AcDbEntity
  8
SOLDERMASK_PADS_TOP
100
AcDbPolyline
 90
        4
 70
         1
 10
19.28
 20
55.89
 10
19.28
 20
56.39
 10
19.68
 20
56.39
 10
19.68
 20
55.89
  0
LWPOLYLINE
  5
334
100
AcDbEntity
  8
SOLDERMASK_PADS_TOP
100
AcDbPolyline
 90
        4
 70
         1
 10
20.89
 20
57.09
 10
20.89
 20
57.59
 10
21.29
 20
57.59
 10
21.29
 20
57.09
  0
LWPOLYLINE
  5
335
100
AcDbEntity
  8
SOLDERMASK_PADS_TOP
100
AcDbPolyline
 90
        4
 70
         1
 10
20.09
 20
57.09
 10
20.09
 20
57.59
 10
20.49
 20
57.59
 10
20.49
 20
57.09
  0
LWPOLYLINE
  5
336
100
AcDbEntity
  8
SOLDERMASK_PADS_TOP
100
AcDbPolyline
 90
        4
 70
         1
 10
20.84
 20
58.22
 10
20.84
 20
58.72
 10
21.24
 20
58.72
 10
21.24
 20
58.22
  0
LWPOLYLINE
  5
337
100
AcDbEntity
  8
SOLDERMASK_PADS_TOP
100
AcDbPolyline
 90
        4
 70
         1
 10
21.64
 20
58.22
 10
21.64
 20
58.72
 10
22.04
 20
58.72
 10
22.04
 20
58.22
  0
LWPOLYLINE
  5
338
100
AcDbEntity
  8
SOLDERMASK_PADS_TOP
100
AcDbPolyline
 90
        4
 70
         1
 10
19.38
 20
54.47
 10
19.38
 20
54.97
 10
19.78
 20
54.97
 10
19.78
 20
54.47
  0
LWPOLYLINE
  5
339
100
AcDbEntity
  8
SOLDERMASK_PADS_TOP
100
AcDbPolyline
 90
        4
 70
         1
 10
18.58
 20
54.47
 10
18.58
 20
54.97
 10
18.98
 20
54.97
 10
18.98
 20
54.47
  0
LWPOLYLINE
  5
33A
100
AcDbEntity
  8
SOLDERMASK_PADS_TOP
100
AcDbPolyline
 90
        4
 70
         1
 10
9.05
 20
54.19
 10
9.05
 20
54.69
 10
9.45
 20
54.69
 10
9.45
 20
54.19
  0
LWPOLYLINE
  5
33B
100
AcDbEntity
  8
SOLDERMASK_PADS_TOP
100
AcDbPolyline
 90
        4
 70
         1
 10
9.85
 20
54.19
 10
9.85
 20
54.69
 10
10.25
 20
54.69
 10
10.25
 20
54.19
  0
LWPOLYLINE
  5
33C
100
AcDbEntity
  8
SOLDERMASK_PADS_TOP
100
AcDbPolyline
 90
        4
 70
         1
 10
9.42
 20
42.335
 10
9.42
 20
43.585
 10
10.27
 20
43.585
 10
10.27
 20
42.335
  0
LWPOLYLINE
  5
33D
100
AcDbEntity
  8
SOLDERMASK_PADS_TOP
100
AcDbPolyline
 90
        4
 70
         1
 10
10.97
 20
42.335
 10
10.97
 20
43.585
 10
11.82
 20
43.585
 10
11.82
 20
42.335
  0
LWPOLYLINE
  5
33E
100
AcDbEntity
  8
SOLDERMASK_PADS_TOP
100
AcDbPolyline
 90
        4
 70
         1
 10
10.19
 20
44.3
 10
10.19
 20
44.8
 10
10.59
 20
44.8
 10
10.59
 20
44.3
  0
LWPOLYLINE
  5
33F
100
AcDbEntity
  8
SOLDERMASK_PADS_TOP
100
AcDbPolyline
 90
        4
 70
         1
 10
9.39
 20
44.3
 10
9.39
 20
44.8
 10
9.79
 20
44.8
 10
9.79
 20
44.3
  0
LWPOLYLINE
  5
340
100
AcDbEntity
  8
SOLDERMASK_PADS_TOP
100
AcDbPolyline
 90
        4
 70
         1
 10
11.36
 20
45.31
 10
11.36
 20
45.81
 10
11.76
 20
45.81
 10
11.76
 20
45.31
  0
LWPOLYLINE
  5
341
100
AcDbEntity
  8
SOLDERMASK_PADS_TOP
100
AcDbPolyline
 90
        4
 70
         1
 10
10.56
 20
45.31
 10
10.56
 20
45.81
 10
10.96
 20
45.81
 10
10.96
 20
45.31
  0
CIRCLE
  5
342
100
AcDbEntity
  8
SOLDERMASK_PADS_TOP
100
AcDbCircle
 10
6.7
 20
3.4
 30
0.0
 40
0.625
  0
CIRCLE
  5
343
100
AcDbEntity
  8
SOLDERMASK_PADS_TOP
100
AcDbCircle
 10
6.7
 20
5.4
 30
0.0
 40
0.625
  0
CIRCLE
  5
344
100
AcDbEntity
  8
SOLDERMASK_PADS_TOP
100
AcDbCircle
 10
8.7
 20
3.4
 30
0.0
 40
0.625
  0
CIRCLE
  5
345
100
AcDbEntity
  8
SOLDERMASK_PADS_TOP
100
AcDbCircle
 10
8.7
 20
5.4
 30
0.0
 40
0.625
  0
CIRCLE
  5
346
100
AcDbEntity
  8
SOLDERMASK_PADS_TOP
100
AcDbCircle
 10
10.7
 20
3.4
 30
0.0
 40
0.625
  0
CIRCLE
  5
347
100
AcDbEntity
  8
SOLDERMASK_PADS_TOP
100
AcDbCircle
 10
10.7
 20
5.4
 30
0.0
 40
0.625
  0
CIRCLE
  5
348
100
AcDbEntity
  8
SOLDERMASK_PADS_TOP
100
AcDbCircle
 10
12.7
 20
3.4
 30
0.0
 40
0.625
  0
CIRCLE
  5
349
100
AcDbEntity
  8
SOLDERMASK_PADS_TOP
100
AcDbCircle
 10
12.7
 20
5.4
 30
0.0
 40
0.625
  0
CIRCLE
  5
34A
100
AcDbEntity
  8
SOLDERMASK_PADS_TOP
100
AcDbCircle
 10
14.7
 20
3.4
 30
0.0
 40
0.625
  0
CIRCLE
  5
34B
100
AcDbEntity
  8
SOLDERMASK_PADS_TOP
100
AcDbCircle
 10
14.7
 20
5.4
 30
0.0
 40
0.625
  0
CIRCLE
  5
34C
100
AcDbEntity
  8
SOLDERMASK_PADS_TOP
100
AcDbCircle
 10
16.7
 20
3.4
 30
0.0
 40
0.625
  0
CIRCLE
  5
34D
100
AcDbEntity
  8
SOLDERMASK_PADS_TOP
100
AcDbCircle
 10
16.7
 20
5.4
 30
0.0
 40
0.625
  0
CIRCLE
  5
34E
100
AcDbEntity
  8
SOLDERMASK_PADS_TOP
100
AcDbCircle
 10
18.7
 20
3.4
 30
0.0
 40
0.625
  0
CIRCLE
  5
34F
100
AcDbEntity
  8
SOLDERMASK_PADS_TOP
100
AcDbCircle
 10
18.7
 20
5.4
 30
0.0
 40
0.625
  0
CIRCLE
  5
350
100
AcDbEntity
  8
SOLDERMASK_PADS_TOP
100
AcDbCircle
 10
20.7
 20
3.4
 30
0.0
 40
0.625
  0
CIRCLE
  5
351
100
AcDbEntity
  8
SOLDERMASK_PADS_TOP
100
AcDbCircle
 10
20.7
 20
5.4
 30
0.0
 40
0.625
  0
CIRCLE
  5
352
100
AcDbEntity
  8
SOLDERMASK_PADS_TOP
100
AcDbCircle
 10
3.0
 20
69.0
 30
0.0
 40
2.0
  0
CIRCLE
  5
353
100
AcDbEntity
  8
SOLDERMASK_PADS_TOP
100
AcDbCircle
 10
24.0
 20
45.0
 30
0.0
 40
2.25
  0
CIRCLE
  5
354
100
AcDbEntity
  8
SOLDERMASK_PADS_TOP
100
AcDbCircle
 10
24.0
 20
3.0
 30
0.0
 40
2.25
  0
CIRCLE
  5
355
100
AcDbEntity
  8
SOLDERMASK_PADS_TOP
100
AcDbCircle
 10
2.8
 20
3.0
 30
0.0
 40
2.0
  0
CIRCLE
  5
356
100
AcDbEntity
  8
SOLDERMASK_PADS_TOP
100
AcDbCircle
 10
5.5
 20
11.93
 30
0.0
 40
0.625
  0
CIRCLE
  5
357
100
AcDbEntity
  8
SOLDERMASK_PADS_TOP
100
AcDbCircle
 10
3.5
 20
11.93
 30
0.0
 40
0.625
  0
CIRCLE
  5
358
100
AcDbEntity
  8
SOLDERMASK_PADS_TOP
100
AcDbCircle
 10
5.5
 20
13.93
 30
0.0
 40
0.625
  0
CIRCLE
  5
359
100
AcDbEntity
  8
SOLDERMASK_PADS_TOP
100
AcDbCircle
 10
3.5
 20
13.93
 30
0.0
 40
0.625
  0
CIRCLE
  5
35A
100
AcDbEntity
  8
SOLDERMASK_PADS_TOP
100
AcDbCircle
 10
5.5
 20
15.93
 30
0.0
 40
0.625
  0
CIRCLE
  5
35B
100
AcDbEntity
  8
SOLDERMASK_PADS_TOP
100
AcDbCircle
 10
3.5
 20
15.93
 30
0.0
 40
0.625
  0
CIRCLE
  5
35C
100
AcDbEntity
  8
SOLDERMASK_PADS_TOP
100
AcDbCircle
 10
5.5
 20
17.93
 30
0.0
 40
0.625
  0
CIRCLE
  5
35D
100
AcDbEntity
  8
SOLDERMASK_PADS_TOP
100
AcDbCircle
 10
3.5
 20
17.93
 30
0.0
 40
0.625
  0
CIRCLE
  5
35E
100
AcDbEntity
  8
SOLDERMASK_PADS_TOP
100
AcDbCircle
 10
5.5
 20
19.93
 30
0.0
 40
0.625
  0
CIRCLE
  5
35F
100
AcDbEntity
  8
SOLDERMASK_PADS_TOP
100
AcDbCircle
 10
3.5
 20
19.93
 30
0.0
 40
0.625
  0
CIRCLE
  5
360
100
AcDbEntity
  8
SOLDERMASK_PADS_TOP
100
AcDbCircle
 10
5.5
 20
21.93
 30
0.0
 40
0.625
  0
CIRCLE
  5
361
100
AcDbEntity
  8
SOLDERMASK_PADS_TOP
100
AcDbCircle
 10
3.5
 20
21.93
 30
0.0
 40
0.625
  0
CIRCLE
  5
362
100
AcDbEntity
  8
SOLDERMASK_PADS_TOP
100
AcDbCircle
 10
5.5
 20
23.93
 30
0.0
 40
0.625
  0
CIRCLE
  5
363
100
AcDbEntity
  8
SOLDERMASK_PADS_TOP
100
AcDbCircle
 10
3.5
 20
23.93
 30
0.0
 40
0.625
  0
CIRCLE
  5
364
100
AcDbEntity
  8
SOLDERMASK_PADS_TOP
100
AcDbCircle
 10
5.5
 20
25.93
 30
0.0
 40
0.625
  0
CIRCLE
  5
365
100
AcDbEntity
  8
SOLDERMASK_PADS_TOP
100
AcDbCircle
 10
3.5
 20
25.93
 30
0.0
 40
0.625
  0
CIRCLE
  5
366
100
AcDbEntity
  8
SOLDERMASK_PADS_TOP
100
AcDbCircle
 10
5.5
 20
27.93
 30
0.0
 40
0.625
  0
CIRCLE
  5
367
100
AcDbEntity
  8
SOLDERMASK_PADS_TOP
100
AcDbCircle
 10
3.5
 20
27.93
 30
0.0
 40
0.625
  0
CIRCLE
  5
368
100
AcDbEntity
  8
SOLDERMASK_PADS_TOP
100
AcDbCircle
 10
5.5
 20
29.93
 30
0.0
 40
0.625
  0
CIRCLE
  5
369
100
AcDbEntity
  8
SOLDERMASK_PADS_TOP
100
AcDbCircle
 10
3.5
 20
29.93
 30
0.0
 40
0.625
  0
CIRCLE
  5
36A
100
AcDbEntity
  8
SOLDERMASK_PADS_TOP
100
AcDbCircle
 10
5.5
 20
31.93
 30
0.0
 40
0.625
  0
CIRCLE
  5
36B
100
AcDbEntity
  8
SOLDERMASK_PADS_TOP
100
AcDbCircle
 10
3.5
 20
31.93
 30
0.0
 40
0.625
  0
CIRCLE
  5
36C
100
AcDbEntity
  8
SOLDERMASK_PADS_TOP
100
AcDbCircle
 10
5.5
 20
33.93
 30
0.0
 40
0.625
  0
CIRCLE
  5
36D
100
AcDbEntity
  8
SOLDERMASK_PADS_TOP
100
AcDbCircle
 10
3.5
 20
33.93
 30
0.0
 40
0.625
  0
CIRCLE
  5
36E
100
AcDbEntity
  8
SOLDERMASK_PADS_TOP
100
AcDbCircle
 10
5.5
 20
35.93
 30
0.0
 40
0.625
  0
CIRCLE
  5
36F
100
AcDbEntity
  8
SOLDERMASK_PADS_TOP
100
AcDbCircle
 10
3.5
 20
35.93
 30
0.0
 40
0.625
  0
CIRCLE
  5
370
100
AcDbEntity
  8
SOLDERMASK_PADS_TOP
100
AcDbCircle
 10
5.5
 20
37.93
 30
0.0
 40
0.625
  0
CIRCLE
  5
371
100
AcDbEntity
  8
SOLDERMASK_PADS_TOP
100
AcDbCircle
 10
3.5
 20
37.93
 30
0.0
 40
0.625
  0
CIRCLE
  5
372
100
AcDbEntity
  8
SOLDERMASK_PADS_TOP
100
AcDbCircle
 10
5.5
 20
39.93
 30
0.0
 40
0.625
  0
CIRCLE
  5
373
100
AcDbEntity
  8
SOLDERMASK_PADS_TOP
100
AcDbCircle
 10
3.5
 20
39.93
 30
0.0
 40
0.625
  0
CIRCLE
  5
374
100
AcDbEntity
  8
SOLDERMASK_PADS_TOP
100
AcDbCircle
 10
5.5
 20
41.93
 30
0.0
 40
0.625
  0
CIRCLE
  5
375
100
AcDbEntity
  8
SOLDERMASK_PADS_TOP
100
AcDbCircle
 10
3.5
 20
41.93
 30
0.0
 40
0.625
  0
CIRCLE
  5
376
100
AcDbEntity
  8
SOLDERMASK_PADS_TOP
100
AcDbCircle
 10
5.5
 20
43.93
 30
0.0
 40
0.625
  0
CIRCLE
  5
377
100
AcDbEntity
  8
SOLDERMASK_PADS_TOP
100
AcDbCircle
 10
3.5
 20
43.93
 30
0.0
 40
0.625
  0
CIRCLE
  5
378
100
AcDbEntity
  8
SOLDERMASK_PADS_TOP
100
AcDbCircle
 10
5.5
 20
45.93
 30
0.0
 40
0.625
  0
CIRCLE
  5
379
100
AcDbEntity
  8
SOLDERMASK_PADS_TOP
100
AcDbCircle
 10
3.5
 20
45.93
 30
0.0
 40
0.625
  0
CIRCLE
  5
37A
100
AcDbEntity
  8
SOLDERMASK_PADS_TOP
100
AcDbCircle
 10
5.5
 20
47.93
 30
0.0
 40
0.625
  0
CIRCLE
  5
37B
100
AcDbEntity
  8
SOLDERMASK_PADS_TOP
100
AcDbCircle
 10
3.5
 20
47.93
 30
0.0
 40
0.625
  0
CIRCLE
  5
37C
100
AcDbEntity
  8
SOLDERMASK_PADS_TOP
100
AcDbCircle
 10
5.5
 20
49.93
 30
0.0
 40
0.625
  0
CIRCLE
  5
37D
100
AcDbEntity
  8
SOLDERMASK_PADS_TOP
100
AcDbCircle
 10
3.5
 20
49.93
 30
0.0
 40
0.625
  0
ENDSEC
  0
SECTION
  2
OBJECTS
  0
DICTIONARY
  5
19
100
AcDbDictionary
  3
ACAD_GROUP
350
1A
  3
ACAD_MLINESTYLE
350
1B
  0
DICTIONARY
  5
1A
102
{ACAD_REACTORS
330
19
102
}
100
AcDbDictionary
  0
DICTIONARY
  5
1B
102
{ACAD_REACTORS
330
19
102
}
100
AcDbDictionary
  3
STANDARD
350
1C
  0
MLINESTYLE
  5
1C
102
{ACAD_REACTORS
330
1B
102
}
100
AcDbMlineStyle
  2
STANDARD
 70
         0
  3

 62
         0
 51
90.0
 52
90.0
 71
         2
 49
0.5
 62
       256
  6
BYLAYER
 49
-0.5
 62
       256
  6
BYLAYER
  0
DICTIONARY
  5
22
102
{ACAD_REACTORS
330
19
102
}
100
AcDbDictionary
  0
ENDSEC
  0
EOF
