  0
SECTION
  2
HEADER
  9
$ACADVER
  1
AC1014
  9
$ACADMAINTVER
 70
         0
  9
$DWGCODEPAGE
  3
ANSI_1252
  9
$INSBASE
 10
0.0
 20
0.0
 30
0.0
  9
$EXTMIN
 10
-247.37
 20
0.0
 30
0.0
  9
$EXTMAX
 10
21960.0
 20
23000.0
 30
0.0
  9
$LIMMIN
 10
0.0
 20
0.0
  9
$LIMMAX
 10
0.0
 20
0.0
  9
$ORTHOMODE
 70
         0
  9
$REGENMODE
 70
         1
  9
$FILLMODE
 70
         1
  9
$QTEXTMODE
 70
         0
  9
$MIRRTEXT
 70
         1
  9
$DRAGMODE
 70
         2
  9
$LTSCALE
 40
1.0
  9
$OSMODE
 70
         0
  9
$ATTMODE
 70
         1
  9
$TEXTSIZE
 40
0.2
  9
$TRACEWID
 40
0.05
  9
$TEXTSTYLE
  7
STANDARD
  9
$CLAYER
  8
0
  9
$CELTYPE
  6
CONTINUOUS
  9
$CECOLOR
 62
       256
  9
$CELTSCALE
 40
1.0
  9
$DELOBJ
 70
         1
  9
$DISPSILH
 70
         0
  9
$DIMSCALE
 40
1.0
  9
$DIMASZ
 40
0.18
  9
$DIMEXO
 40
0.0625
  9
$DIMDLI
 40
0.38
  9
$DIMRND
 40
0.0
  9
$DIMDLE
 40
0.0
  9
$DIMEXE
 40
0.18
  9
$DIMTP
 40
0.0
  9
$DIMTM
 40
0.0
  9
$DIMTXT
 40
0.18
  9
$DIMCEN
 40
0.09
  9
$DIMTSZ
 40
0.0
  9
$DIMTOL
 70
         0
  9
$DIMLIM
 70
         0
  9
$DIMTIH
 70
         1
  9
$DIMTOH
 70
         1
  9
$DIMSE1
 70
         0
  9
$DIMSE2
 70
         0
  9
$DIMTAD
 70
         0
  9
$DIMZIN
 70
         0
  9
$DIMBLK
  1

  9
$DIMASO
 70
         1
  9
$DIMSHO
 70
         1
  9
$DIMPOST
  1

  9
$DIMAPOST
  1

  9
$DIMALT
 70
         0
  9
$DIMALTD
 70
         2
  9
$DIMALTF
 40
25.4
  9
$DIMLFAC
 40
1.0
  9
$DIMTOFL
 70
         0
  9
$DIMTVP
 40
0.0
  9
$DIMTIX
 70
         0
  9
$DIMSOXD
 70
         0
  9
$DIMSAH
 70
         0
  9
$DIMBLK1
  1

  9
$DIMBLK2
  1

  9
$DIMSTYLE
  2
STANDARD
  9
$DIMCLRD
 70
         0
  9
$DIMCLRE
 70
         0
  9
$DIMCLRT
 70
         0
  9
$DIMTFAC
 40
1.0
  9
$DIMGAP
 40
0.09
  9
$DIMJUST
 70
         0
  9
$DIMSD1
 70
         0
  9
$DIMSD2
 70
         0
  9
$DIMTOLJ
 70
         1
  9
$DIMTZIN
 70
         0
  9
$DIMALTZ
 70
         0
  9
$DIMALTTZ
 70
         0
  9
$DIMFIT
 70
         3
  9
$DIMUPT
 70
         0
  9
$DIMUNIT
 70
         2
  9
$DIMDEC
 70
         4
  9
$DIMTDEC
 70
         4
  9
$DIMALTU
 70
         2
  9
$DIMALTTD
 70
         2
  9
$DIMTXSTY
  7
STANDARD
  9
$DIMAUNIT
 70
         0
  9
$LUNITS
 70
         2
  9
$LUPREC
 70
         4
  9
$SKETCHINC
 40
0.1
  9
$FILLETRAD
 40
0.0
  9
$AUNITS
 70
         0
  9
$AUPREC
 70
         0
  9
$MENU
  1
acad
  9
$ELEVATION
 40
0.0
  9
$PELEVATION
 40
0.0
  9
$THICKNESS
 40
0.0
  9
$LIMCHECK
 70
         0
  9
$BLIPMODE
 70
         1
  9
$CHAMFERA
 40
0.0
  9
$CHAMFERB
 40
0.0
  9
$CHAMFERC
 40
0.0
  9
$CHAMFERD
 40
0.0
  9
$SKPOLY
 70
         0
  9
$TDCREATE
 40
2457716.334259259
  9
$TDUPDATE
 40
0.000000000
  9
$TDINDWG
 40
0.0000000000
  9
$TDUSRTIMER
 40
0.0000000000
  9
$USRTIMER
 70
         1
  9
$ANGBASE
 50
0.0
  9
$ANGDIR
 70
         0
  9
$PDMODE
 70
         0
  9
$PDSIZE
 40
0.0
  9
$PLINEWID
 40
0.0
  9
$COORDS
 70
         0
  9
$SPLFRAME
 70
         0
  9
$SPLINETYPE
 70
         6
  9
$SPLINESEGS
 70
         8
  9
$ATTDIA
 70
         0
  9
$ATTREQ
 70
         1
  9
$HANDLING
 70
         1
  9
$HANDSEED
  5
2A7
  9
$SURFTAB1
 70
         6
  9
$SURFTAB2
 70
         6
  9
$SURFTYPE
 70
         6
  9
$SURFU
 70
         6
  9
$SURFV
 70
         6
  9
$UCSNAME
  2

  9
$UCSORG
 10
0.0
 20
0.0
 30
0.0
  9
$UCSXDIR
 10
1.0
 20
0.0
 30
0.0
  9
$UCSYDIR
 10
0.0
 20
1.0
 30
0.0
  9
$PUCSNAME
  2

  9
$PUCSORG
 10
0.0
 20
0.0
 30
0.0
  9
$PUCSXDIR
 10
1.0
 20
0.0
 30
0.0
  9
$PUCSYDIR
 10
0.0
 20
1.0
 30
0.0
  9
$USERI1
 70
        -4
  9
$USERI2
 70
         0
  9
$USERI3
 70
         0
  9
$USERI4
 70
         0
  9
$USERI5
 70
         0
  9
$USERR1
 40
0.0
  9
$USERR2
 40
0.0
  9
$USERR3
 40
0.0
  9
$USERR4
 40
0.0
  9
$USERR5
 40
0.0
  9
$WORLDVIEW
 70
         1
  9
$SHADEDGE
 70
         3
  9
$SHADEDIF
 70
        70
  9
$TILEMODE
 70
         1
  9
$MAXACTVP
 70
        16
  9
$PINSBASE
 10
0.0
 20
0.0
 30
0.0
  9
$PLIMCHECK
 70
         0
  9
$PEXTMIN
 10
1.0000000000E+20
 20
1.0000000000E+20
 30
1.0000000000E+20
  9
$PEXTMAX
 10
-1.0000000000E+20
 20
-1.0000000000E+20
 30
-1.0000000000E+20
  9
$PLIMMIN
 10
0.0
 20
0.0
  9
$PLIMMAX
 10
12.0
 20
9.0
  9
$UNITMODE
 70
         0
  9
$VISRETAIN
 70
         0
  9
$PLINEGEN
 70
         1
  9
$PSLTSCALE
 70
         0
  9
$TREEDEPTH
 70
      3020
  9
$PICKSTYLE
 70
         1
  9
$CMLSTYLE
  2
STANDARD
  9
$CMLJUST
 70
         0
  9
$CMLSCALE
 40
1.0
  9
$PROXYGRAPHICS
 70
         0
  9
$MEASUREMENT
 70
         0
  0
ENDSEC
  0
SECTION
  2
CLASSES
  0
CLASS
  1
LWPOLYLINE
  2
AcDbPolyline
  3
"AutoCAD"
 90
        0
280
         0
281
         1
  0
CLASS
  1
IMAGE
  2
AcDbRasterImage
  3
ISM
 90
      127
280
         0
281
         1
  0
CLASS
  1
OLE2FRAME
  2
AcDbOle2Frame
  3
""
 90
        0
280
         0
281
         1
  0
CLASS
  1
HATCH
  2
AcDbHatch
  3
"ACAD_SEDONA"
 90
        0
280
         0
281
         1
  0
CLASS
  1
DICTIONARYVAR
  2
AcDbDictionaryVar
  3
"AutoCAD"
 90
        0
280
         0
281
         0
  0
CLASS
  1
RASTERVARIABLES
  2
AcDbRasterVariables
  3
ISM
 90
        0
280
         0
281
         0
  0
CLASS
  1
IMAGEDEF
  2
AcDbRasterImageDef
  3
ISM
 90
        0
280
         0
281
         0
  0
CLASS
  1
IMAGEDEF_REACTOR
  2
AcDbRasterImageDefReactor
  3
ISM
 90
        1
280
         0
281
         0
  0
CLASS
  1
IDBUFFER
  2
AcDbIdBuffer
  3
"Acad"
 90
        0
280
         0
281
         0
  0
CLASS
  1
SPATIAL_FILTER
  2
AcDbSpatialFilter
  3
"Acad"
 90
        0
280
         0
281
         0
  0
CLASS
  1
XRECORD
  2
AcDbXrecord
  3
"<Built In>"
 90
        0
280
         0
281
         0
  0
CLASS
  1
SORTENTSTABLE
  2
AcDbSortentsTable
  3
"AutoCAD"
 90
        0
280
         0
281
         0
  0
CLASS
  1
LAYER_INDEX
  2
AcDbLayerIndex
  3
"Acad"
 90
        0
280
         0
281
         0
  0
CLASS
  1
SPATIAL_INDEX
  2
AcDbSpatialIndex
  3
"Acad"
 90
        0
280
         0
281
         0
  0
CLASS
  1
OBJECT_PTR
  2
CAseDLPNTableRecord
  3
"ASE-LPNTableRecord"
 90
        1
280
         0
281
         0
  0
CLASS
  1
LAYOUT
  2
AcDbLayout
  3
"AutoCAD 2000"
 90
        0
280
         0
281
         0
  0
CLASS
  1
PLOTSETTINGS
  2
AcDbPlotSettings
  3
"AutoCAD 2000"
 90
        0
280
         0
281
         0
  0
CLASS
  1
ACDBDICTIONARYWDFLT
  2
AcDbDictionaryWithDefault
  3
"AutoCAD 2000"
 90
        0
280
         0
281
         0
  0
CLASS
  1
ACDBPLACEHOLDER
  2
AcDbPlaceHolder
  3
"AutoCAD 2000"
 90
        0
280
         0
281
         0
  0
CLASS
  1
VBA_PROJECT
  2
AcDbVbaProject
  3
"acadvba"
 90
        0
280
         0
281
         0
  0
CLASS
  1
WIPEOUT
  2
AcDbWipeout
  3
WipeOut|AutoCAD Express Tool|expresstools@autodesk.com
 90
      127
280
         0
281
         1
  0
CLASS
  1
WIPEOUTVARIABLES
  2
AcDbWipeoutVariables
  3
WipeOut|AutoCAD Express Tool|expresstools@autodesk.com
 90
        0
280
         0
281
         0
  0
CLASS
  1
RTEXT
  2
RText
  3
RText|AutoCAD Express Tool|expresstools@autodesk.com
 90
        0
280
         0
281
         1
  0
CLASS
  1
ARCALIGNEDTEXT
  2
AcDbArcAlignedText
  3
ATEXT|AutoCAD Express Tool|expresstools@autodesk.com
 90
        0
280
         0
281
         1
  0
ENDSEC
  0
SECTION
  2
TABLES
  0
TABLE
  2
VPORT
  5
7
100
AcDbSymbolTable
 70
         1
  0
VPORT
  5
15
100
AcDbSymbolTableRecord
100
AcDbViewportTableRecord
  2
*ACTIVE
 70
         0
 10
0.0
 20
0.0
 11
1.0
 21
1.0
 12
6.591288
 22
4.579184
 13
0.0
 23
0.0
 14
1.0
 24
1.0
 15
0.0
 25
0.0
 16
0.0
 26
0.0
 36
1.0
 17
0.0
 27
0.0
 37
0.0
 40
9.158369
 41
0.688564
 42
50.0
 43
0.0
 44
0.0
 50
0.0
 51
0.0
 71
         0
 72
       100
 73
         1
 74
         1
 75
         0
 76
         0
 77
         0
 78
         0
  0
ENDTAB
  0
TABLE
  2
LTYPE
  5
4
100
AcDbSymbolTable
 70
         3
  0
LTYPE
  5
11
100
AcDbSymbolTableRecord
100
AcDbLinetypeTableRecord
  2
BYBLOCK
 70
        64
  3

 72
        65
 73
         0
 40
0.0
  0
LTYPE
  5
12
100
AcDbSymbolTableRecord
100
AcDbLinetypeTableRecord
  2
BYLAYER
 70
        64
  3

 72
        65
 73
         0
 40
0.0
  0
LTYPE
  5
13
100
AcDbSymbolTableRecord
100
AcDbLinetypeTableRecord
  2
CONTINUOUS
 70
        64
  3
Solid line
 72
        65
 73
         0
 40
0.0
  0
ENDTAB
  0
TABLE
  2
LAYER
  5
2
100
AcDbSymbolTable
 70
         8
  0
LAYER
  5
14
100
AcDbSymbolTableRecord
100
AcDbLayerTableRecord
  2
0
 70
         0
 62
         7
  6
CONTINUOUS
  0
LAYER
  5
24
100
AcDbSymbolTableRecord
100
AcDbLayerTableRecord
  2
ASSEMBLY_OUTLINES_BTM
 70
         0
 62
       244
  6
CONTINUOUS
  0
LAYER
  5
25
100
AcDbSymbolTableRecord
100
AcDbLayerTableRecord
  2
ASSEMBLY_OUTLINES_TOP
 70
         0
 62
       104
  6
CONTINUOUS
  0
LAYER
  5
26
100
AcDbSymbolTableRecord
100
AcDbLayerTableRecord
  2
ASSEMBLY_REF_DES_BTM
 70
         0
 62
        10
  6
CONTINUOUS
  0
LAYER
  5
27
100
AcDbSymbolTableRecord
100
AcDbLayerTableRecord
  2
ASSEMBLY_REF_DES_TOP
 70
         0
 62
        30
  6
CONTINUOUS
  0
LAYER
  5
28
100
AcDbSymbolTableRecord
100
AcDbLayerTableRecord
  2
BOARD_OUTLINE
 70
         0
 62
        10
  6
CONTINUOUS
  0
LAYER
  5
29
100
AcDbSymbolTableRecord
100
AcDbLayerTableRecord
  2
SOLDERMASK_PADS_BTM
 70
         0
 62
       151
  6
CONTINUOUS
  0
LAYER
  5
2A
100
AcDbSymbolTableRecord
100
AcDbLayerTableRecord
  2
SOLDERMASK_PADS_TOP
 70
         0
 62
        81
  6
CONTINUOUS
  0
ENDTAB
  0
TABLE
  2
STYLE
  5
3
100
AcDbSymbolTable
 70
         2
  0
STYLE
  5
17
100
AcDbSymbolTableRecord
100
AcDbTextStyleTableRecord
  2
STANDARD
 70
         0
 40
0.0
 41
1.0
 50
0.0
 71
         0
 42
0.0
  3
txt
  4

  0
STYLE
  5
3A
100
AcDbSymbolTableRecord
100
AcDbTextStyleTableRecord
  2
ARIAL
 70
         0
 40
0.0
 41
1.0
 50
0.0
 71
         0
 42
0.0
  3
arial.ttf
  4

  0
ENDTAB
  0
TABLE
  2
VIEW
  5
5
100
AcDbSymbolTable
 70
         0
  0
ENDTAB
  0
TABLE
  2
UCS
  5
6
100
AcDbSymbolTable
 70
         0
  0
ENDTAB
  0
TABLE
  2
APPID
  5
8
100
AcDbSymbolTable
 70
         1
  0
APPID
  5
16
100
AcDbSymbolTableRecord
100
AcDbRegAppTableRecord
  2
ACAD
 70
         0
  0
ENDTAB
  0
TABLE
  2
DIMSTYLE
  5
9
100
AcDbSymbolTable
 70
         1
  0
DIMSTYLE
105
18
100
AcDbSymbolTableRecord
100
AcDbDimStyleTableRecord
  2
STANDARD
 70
         0
  3

  4

  5

  6

  7

 40
1.0
 41
0.18
 42
0.0625
 43
0.38
 44
0.18
 45
0.0
 46
0.0
 47
0.0
 48
0.0
 71
         0
 72
         0
 73
         1
 74
         1
 75
         0
 76
         0
 77
         0
 78
         0
140
0.18
141
0.09
142
0.0
143
25.4
144
1.0
145
0.0
146
1.0
147
0.09
170
         0
171
         2
172
         0
173
         0
174
         0
175
         0
176
         0
177
         0
178
         0
270
         2
271
         4
272
         4
273
         2
274
         2
275
         0
280
         0
281
         0
282
         0
283
         1
284
         0
285
         0
286
         0
287
         3
288
         0
340
17
  0
ENDTAB
  0
TABLE
  2
BLOCK_RECORD
  5
1
100
AcDbSymbolTable
 70
         0
  0
BLOCK_RECORD
  5
A
100
AcDbSymbolTableRecord
100
AcDbBlockTableRecord
  2
*MODEL_SPACE
  0
BLOCK_RECORD
  5
B
100
AcDbSymbolTableRecord
100
AcDbBlockTableRecord
  2
*PAPER_SPACE
  0
ENDTAB
  0
ENDSEC
  0
SECTION
  2
BLOCKS
  0
BLOCK
  5
D
100
AcDbEntity
  8
0
100
AcDbBlockBegin
  2
*MODEL_SPACE
 70
         0
 10
0.0
 20
0.0
 30
0.0
  3
*MODEL_SPACE
  1

  0
ENDBLK
  5
E
100
AcDbEntity
  8
0
100
AcDbBlockEnd
  0
BLOCK
  5
F
100
AcDbEntity
 67
         1
  8
0
100
AcDbBlockBegin
  2
*PAPER_SPACE
 70
         0
 10
0.0
 20
0.0
 30
0.0
  3
*PAPER_SPACE
  1

  0
ENDBLK
  5
10
100
AcDbEntity
 67
         1
  8
0
100
AcDbBlockEnd
  0
ENDSEC
  0
SECTION
  2
ENTITIES
  0
LWPOLYLINE
  5
2B
100
AcDbEntity
  8
ASSEMBLY_OUTLINES_BTM
100
AcDbPolyline
 90
        4
 70
         0
 43
250.0
 10
6570.0
 20
1670.0
 10
6570.0
 20
1470.0
 10
6170.0
 20
1470.0
 10
6170.0
 20
1670.0
  0
LWPOLYLINE
  5
2C
100
AcDbEntity
  8
ASSEMBLY_OUTLINES_BTM
100
AcDbPolyline
 90
        5
 70
         1
 43
100.0
 10
5410.0
 20
1865.0
 10
5410.0
 20
15165.0
 10
4690.0
 20
15865.0
 10
1990.0
 20
15865.0
 10
1990.0
 20
1865.0
  0
LWPOLYLINE
  5
2D
100
AcDbEntity
  8
ASSEMBLY_OUTLINES_BTM
100
AcDbPolyline
 90
        4
 70
         0
 43
250.0
 10
10900.0
 20
11300.0
 10
10700.0
 20
11300.0
 10
10700.0
 20
11700.0
 10
10900.0
 20
11700.0
  0
LWPOLYLINE
  5
2E
100
AcDbEntity
  8
ASSEMBLY_OUTLINES_BTM
100
AcDbPolyline
 90
        4
 70
         0
 43
250.0
 10
10700.0
 20
10950.0
 10
10900.0
 20
10950.0
 10
10900.0
 20
10550.0
 10
10700.0
 20
10550.0
  0
LWPOLYLINE
  5
2F
100
AcDbEntity
  8
ASSEMBLY_OUTLINES_BTM
100
AcDbPolyline
 90
        4
 70
         0
 43
250.0
 10
10130.584
 20
14290.257
 10
10130.584
 20
14490.257
 10
10530.584
 20
14490.257
 10
10530.584
 20
14290.257
  0
LWPOLYLINE
  5
30
100
AcDbEntity
  8
ASSEMBLY_OUTLINES_BTM
100
AcDbPolyline
 90
        4
 70
         0
 43
250.0
 10
10930.584
 20
14290.257
 10
10930.584
 20
14490.257
 10
11330.584
 20
14490.257
 10
11330.584
 20
14290.257
  0
LWPOLYLINE
  5
31
100
AcDbEntity
  8
ASSEMBLY_OUTLINES_BTM
100
AcDbPolyline
 90
        4
 70
         0
 43
250.0
 10
10006.897
 20
18050.257
 10
10206.897
 20
18050.257
 10
10206.897
 20
17650.257
 10
10006.897
 20
17650.257
  0
LWPOLYLINE
  5
32
100
AcDbEntity
  8
ASSEMBLY_OUTLINES_BTM
100
AcDbPolyline
 90
        4
 70
         0
 43
250.0
 10
10200.0
 20
19590.0
 10
10400.0
 20
19590.0
 10
10400.0
 20
19190.0
 10
10200.0
 20
19190.0
  0
LWPOLYLINE
  5
33
100
AcDbEntity
  8
ASSEMBLY_OUTLINES_BTM
100
AcDbPolyline
 90
        4
 70
         0
 43
250.0
 10
10200.0
 20
18850.0
 10
10400.0
 20
18850.0
 10
10400.0
 20
18450.0
 10
10200.0
 20
18450.0
  0
LWPOLYLINE
  5
34
100
AcDbEntity
  8
ASSEMBLY_OUTLINES_BTM
100
AcDbPolyline
 90
        4
 70
         0
 43
250.0
 10
9908.01
 20
16600.614
 10
9708.01
 20
16600.614
 10
9708.01
 20
17000.614
 10
9908.01
 20
17000.614
  0
LWPOLYLINE
  5
35
100
AcDbEntity
  8
ASSEMBLY_OUTLINES_BTM
100
AcDbPolyline
 90
        4
 70
         0
 43
250.0
 10
9606.897
 20
15790.257
 10
9406.897
 20
15790.257
 10
9406.897
 20
16190.257
 10
9606.897
 20
16190.257
  0
LWPOLYLINE
  5
36
100
AcDbEntity
  8
ASSEMBLY_OUTLINES_BTM
100
AcDbPolyline
 90
        4
 70
         0
 43
250.0
 10
8190.257
 20
16193.103
 10
8190.257
 20
16393.103
 10
8590.257
 20
16393.103
 10
8590.257
 20
16193.103
  0
LWPOLYLINE
  5
37
100
AcDbEntity
  8
ASSEMBLY_OUTLINES_BTM
100
AcDbPolyline
 90
        4
 70
         0
 43
250.0
 10
11040.257
 20
21443.103
 10
11240.257
 20
21443.103
 10
11240.257
 20
21043.103
 10
11040.257
 20
21043.103
  0
LWPOLYLINE
  5
38
100
AcDbEntity
  8
ASSEMBLY_OUTLINES_BTM
100
AcDbPolyline
 90
        4
 70
         0
 43
250.0
 10
18656.897
 20
18359.743
 10
18856.897
 20
18359.743
 10
18856.897
 20
17959.743
 10
18656.897
 20
17959.743
  0
LWPOLYLINE
  5
39
100
AcDbEntity
  8
ASSEMBLY_OUTLINES_BTM
100
AcDbPolyline
 90
        4
 70
         1
 43
100.0
 10
13900.0
 20
17600.0
 10
13900.0
 20
21600.0
 10
17900.0
 20
21600.0
 10
17900.0
 20
17600.0
  0
TEXT
  5
3B
100
AcDbEntity
  8
ASSEMBLY_OUTLINES_BTM
100
AcDbText
 10
17630.0
 20
18838.0
 30
0.0
 40
1000.0
  1
DMC
  7
ARIAL
 71
         2
 72
         2
 11
14376.0
 21
18838.0
 31
0.0
100
AcDbText
 73
         1
  0
TEXT
  5
3C
100
AcDbEntity
  8
ASSEMBLY_OUTLINES_BTM
100
AcDbText
 10
17630.0
 20
18838.0
 30
0.0
 40
1000.0
  1
DMC
  7
ARIAL
 71
         2
 72
         2
 11
14376.0
 21
18838.0
 31
0.0
100
AcDbText
 73
         1
  0
LWPOLYLINE
  5
3D
100
AcDbEntity
  8
ASSEMBLY_OUTLINES_BTM
100
AcDbPolyline
 90
        4
 70
         0
 43
250.0
 10
12640.257
 20
20443.103
 10
12440.257
 20
20443.103
 10
12440.257
 20
20843.103
 10
12640.257
 20
20843.103
  0
LWPOLYLINE
  5
3E
100
AcDbEntity
  8
ASSEMBLY_OUTLINES_BTM
100
AcDbPolyline
 90
        4
 70
         0
 43
250.0
 10
8890.257
 20
21706.897
 10
8690.257
 20
21706.897
 10
8690.257
 20
22106.897
 10
8890.257
 20
22106.897
  0
LWPOLYLINE
  5
3F
100
AcDbEntity
  8
ASSEMBLY_OUTLINES_BTM
100
AcDbPolyline
 90
        4
 70
         0
 43
250.0
 10
18040.257
 20
16093.103
 10
18040.257
 20
15893.103
 10
17640.257
 20
15893.103
 10
17640.257
 20
16093.103
  0
LWPOLYLINE
  5
40
100
AcDbEntity
  8
ASSEMBLY_OUTLINES_BTM
100
AcDbPolyline
 90
        4
 70
         0
 43
250.0
 10
14490.257
 20
16593.103
 10
14690.257
 20
16593.103
 10
14690.257
 20
16193.103
 10
14490.257
 20
16193.103
  0
LWPOLYLINE
  5
41
100
AcDbEntity
  8
ASSEMBLY_OUTLINES_BTM
100
AcDbPolyline
 90
        4
 70
         0
 43
250.0
 10
12800.0
 20
17800.0
 10
12800.0
 20
17600.0
 10
12400.0
 20
17600.0
 10
12400.0
 20
17800.0
  0
LWPOLYLINE
  5
42
100
AcDbEntity
  8
ASSEMBLY_OUTLINES_BTM
100
AcDbPolyline
 90
        4
 70
         0
 43
250.0
 10
13600.0
 20
17800.0
 10
13600.0
 20
17600.0
 10
13200.0
 20
17600.0
 10
13200.0
 20
17800.0
  0
LWPOLYLINE
  5
43
100
AcDbEntity
  8
ASSEMBLY_OUTLINES_BTM
100
AcDbPolyline
 90
        4
 70
         0
 43
250.0
 10
8190.0
 20
14310.0
 10
8190.0
 20
14510.0
 10
8590.0
 20
14510.0
 10
8590.0
 20
14310.0
  0
LWPOLYLINE
  5
44
100
AcDbEntity
  8
ASSEMBLY_OUTLINES_BTM
100
AcDbPolyline
 90
        4
 70
         0
 43
250.0
 10
18840.257
 20
11493.103
 10
19040.257
 20
11493.103
 10
19040.257
 20
11093.103
 10
18840.257
 20
11093.103
  0
LWPOLYLINE
  5
45
100
AcDbEntity
  8
ASSEMBLY_OUTLINES_BTM
100
AcDbPolyline
 90
        4
 70
         0
 43
250.0
 10
18840.257
 20
10693.103
 10
19040.257
 20
10693.103
 10
19040.257
 20
10293.103
 10
18840.257
 20
10293.103
  0
LWPOLYLINE
  5
46
100
AcDbEntity
  8
ASSEMBLY_OUTLINES_BTM
100
AcDbPolyline
 90
        4
 70
         0
 43
250.0
 10
17000.0
 20
9500.0
 10
16800.0
 20
9500.0
 10
16800.0
 20
9900.0
 10
17000.0
 20
9900.0
  0
LWPOLYLINE
  5
47
100
AcDbEntity
  8
ASSEMBLY_OUTLINES_BTM
100
AcDbPolyline
 90
        4
 70
         0
 43
250.0
 10
13590.257
 20
14093.103
 10
13590.257
 20
14293.103
 10
13990.257
 20
14293.103
 10
13990.257
 20
14093.103
  0
LWPOLYLINE
  5
48
100
AcDbEntity
  8
ASSEMBLY_OUTLINES_BTM
100
AcDbPolyline
 90
        4
 70
         0
 43
250.0
 10
14390.257
 20
14093.103
 10
14390.257
 20
14293.103
 10
14790.257
 20
14293.103
 10
14790.257
 20
14093.103
  0
LWPOLYLINE
  5
49
100
AcDbEntity
  8
ASSEMBLY_OUTLINES_BTM
100
AcDbPolyline
 90
        4
 70
         0
 43
250.0
 10
15190.257
 20
14093.103
 10
15190.257
 20
14293.103
 10
15590.257
 20
14293.103
 10
15590.257
 20
14093.103
  0
LWPOLYLINE
  5
4A
100
AcDbEntity
  8
ASSEMBLY_OUTLINES_BTM
100
AcDbPolyline
 90
        4
 70
         0
 43
250.0
 10
15990.257
 20
14093.103
 10
15990.257
 20
14293.103
 10
16390.257
 20
14293.103
 10
16390.257
 20
14093.103
  0
LWPOLYLINE
  5
4B
100
AcDbEntity
  8
ASSEMBLY_OUTLINES_BTM
100
AcDbPolyline
 90
        4
 70
         0
 43
250.0
 10
14190.257
 20
10693.103
 10
14390.257
 20
10693.103
 10
14390.257
 20
10293.103
 10
14190.257
 20
10293.103
  0
LWPOLYLINE
  5
4C
100
AcDbEntity
  8
ASSEMBLY_OUTLINES_BTM
100
AcDbPolyline
 90
        4
 70
         0
 43
250.0
 10
14190.257
 20
9893.103
 10
14390.257
 20
9893.103
 10
14390.257
 20
9493.103
 10
14190.257
 20
9493.103
  0
LWPOLYLINE
  5
4D
100
AcDbEntity
  8
ASSEMBLY_OUTLINES_TOP
100
AcDbPolyline
 90
        4
 70
         1
 43
100.0
 10
19959.872
 20
4764.898
 10
19959.872
 20
5084.898
 10
20579.872
 20
5084.898
 10
20579.872
 20
4764.898
  0
LWPOLYLINE
  5
4E
100
AcDbEntity
  8
ASSEMBLY_OUTLINES_TOP
100
AcDbPolyline
 90
        4
 70
         1
 10
4652.63
 20
694.027
 10
4652.63
 20
2894.027
 10
7852.63
 20
2894.027
 10
7852.63
 20
694.027
  0
LWPOLYLINE
  5
4F
100
AcDbEntity
  8
ASSEMBLY_OUTLINES_TOP
100
AcDbPolyline
 90
        4
 70
         1
 10
-247.37
 20
14094.027
 10
-247.37
 20
16294.027
 10
2952.63
 20
16294.027
 10
2952.63
 20
14094.027
  0
LWPOLYLINE
  5
50
100
AcDbEntity
  8
ASSEMBLY_OUTLINES_TOP
100
AcDbPolyline
 90
        2
 70
         1
 43
150.0
 10
358.615
 20
20100.0
 42
-1.0
 10
5641.385
 20
20100.0
 42
-1.0
  0
LWPOLYLINE
  5
51
100
AcDbEntity
  8
ASSEMBLY_OUTLINES_TOP
100
AcDbPolyline
 90
        4
 70
         0
 43
250.0
 10
19340.257
 20
19943.103
 10
19340.257
 20
19743.103
 10
19740.257
 20
19743.103
 10
19740.257
 20
19943.103
  0
LWPOLYLINE
  5
52
100
AcDbEntity
  8
ASSEMBLY_OUTLINES_TOP
100
AcDbPolyline
 90
        4
 70
         1
 43
100.0
 10
8600.0
 20
18800.0
 10
8600.0
 20
22800.0
 10
12600.0
 20
22800.0
 10
12600.0
 20
18800.0
  0
TEXT
  5
53
100
AcDbEntity
  8
ASSEMBLY_OUTLINES_TOP
100
AcDbText
 10
9076.0
 20
20522.0
 30
0.0
 40
1000.0
  1
DMC
  7
ARIAL
 11
9076.0
 21
21562.0
 31
0.0
100
AcDbText
 73
         3
  0
TEXT
  5
54
100
AcDbEntity
  8
ASSEMBLY_OUTLINES_TOP
100
AcDbText
 10
9076.0
 20
20522.0
 30
0.0
 40
1000.0
  1
DMC
  7
ARIAL
 11
9076.0
 21
21562.0
 31
0.0
100
AcDbText
 73
         3
  0
LWPOLYLINE
  5
55
100
AcDbEntity
  8
ASSEMBLY_OUTLINES_TOP
100
AcDbPolyline
 90
        4
 70
         1
 43
100.0
 10
9840.257
 20
8443.103
 10
9840.257
 20
18443.103
 10
19840.257
 20
18443.103
 10
19840.257
 20
8443.103
  0
CIRCLE
  5
56
100
AcDbEntity
  8
ASSEMBLY_OUTLINES_TOP
100
AcDbCircle
 10
19040.257
 20
9243.103
 30
0.0
 40
223.607
  0
HATCH
  5
57
100
AcDbEntity
  8
ASSEMBLY_OUTLINES_TOP
100
AcDbHatch
 10
0.0
 20
0.0
 30
0.0
210
0.0
220
0.0
230
1.0
  2
SOLID
 70
         1
 71
         1
 91
        1
 92
        1
 93
        1
 72
         2
 10
19040.257000000001
 20
9243.1029999999992
 40
223.607
 50
0.0
 51
360.0
 73
         1
 97
        1
330
56
 75
         0
 76
         1
 98
        1
 10
0.0
 20
0.0
  0
LWPOLYLINE
  5
58
100
AcDbEntity
  8
ASSEMBLY_OUTLINES_TOP
100
AcDbPolyline
 90
        4
 70
         0
 43
250.0
 10
13290.257
 20
21393.103
 10
13490.257
 20
21393.103
 10
13490.257
 20
21793.103
 10
13290.257
 20
21793.103
  0
LWPOLYLINE
  5
59
100
AcDbEntity
  8
ASSEMBLY_OUTLINES_TOP
100
AcDbPolyline
 90
        4
 70
         0
 43
250.0
 10
18940.257
 20
20643.103
 10
18940.257
 20
20843.103
 10
18540.257
 20
20843.103
 10
18540.257
 20
20643.103
  0
LWPOLYLINE
  5
5A
100
AcDbEntity
  8
ASSEMBLY_OUTLINES_TOP
100
AcDbPolyline
 90
        4
 70
         1
 43
150.0
 10
14540.257
 20
19243.103
 10
14540.257
 20
21643.103
 10
18140.257
 20
21643.103
 10
18140.257
 20
19243.103
  0
LWPOLYLINE
  5
5B
100
AcDbEntity
  8
ASSEMBLY_OUTLINES_TOP
100
AcDbPolyline
 90
        3
 70
         1
 10
18140.257
 20
21643.103
 10
18140.257
 20
21018.104
 10
17640.258
 20
21643.103
  0
HATCH
  5
5C
100
AcDbEntity
  8
ASSEMBLY_OUTLINES_TOP
100
AcDbHatch
 10
0.0
 20
0.0
 30
0.0
210
0.0
220
0.0
230
1.0
  2
SOLID
 70
         1
 71
         1
 91
        1
 92
        2
 72
         0
 73
         1
 93
        3
 10
18140.257000000001
 20
21643.102999999999
 10
18140.257000000001
 20
21018.103999999999
 10
17640.258000000002
 20
21643.102999999999
 97
        1
330
5B
 75
         0
 76
         1
 98
        1
 10
0.0
 20
0.0
  0
CIRCLE
  5
5D
100
AcDbEntity
  8
ASSEMBLY_OUTLINES_TOP
100
AcDbCircle
 10
17740.257
 20
20843.103
 30
0.0
 40
200.0
  0
HATCH
  5
5E
100
AcDbEntity
  8
ASSEMBLY_OUTLINES_TOP
100
AcDbHatch
 10
0.0
 20
0.0
 30
0.0
210
0.0
220
0.0
230
1.0
  2
SOLID
 70
         1
 71
         1
 91
        1
 92
        1
 93
        1
 72
         2
 10
17740.257000000001
 20
20843.102999999999
 40
200.0
 50
0.0
 51
360.0
 73
         1
 97
        1
330
5D
 75
         0
 76
         1
 98
        1
 10
0.0
 20
0.0
  0
LWPOLYLINE
  5
5F
100
AcDbEntity
  8
ASSEMBLY_OUTLINES_TOP
100
AcDbPolyline
 90
        4
 70
         0
 43
250.0
 10
18969.872
 20
3754.898
 10
19169.872
 20
3754.898
 10
19169.872
 20
4154.898
 10
18969.872
 20
4154.898
  0
LWPOLYLINE
  5
60
100
AcDbEntity
  8
ASSEMBLY_OUTLINES_TOP
100
AcDbPolyline
 90
        4
 70
         0
 43
250.0
 10
19670.129
 20
3448.001
 10
19670.129
 20
3648.001
 10
19270.129
 20
3648.001
 10
19270.129
 20
3448.001
  0
LWPOLYLINE
  5
61
100
AcDbEntity
  8
ASSEMBLY_OUTLINES_TOP
100
AcDbPolyline
 90
        4
 70
         1
 10
15017.499
 20
3363.974
 10
15017.499
 20
6363.974
 10
18017.499
 20
6363.974
 10
18017.499
 20
3363.974
  0
LWPOLYLINE
  5
62
100
AcDbEntity
  8
ASSEMBLY_OUTLINES_TOP
100
AcDbPolyline
 90
        4
 70
         0
 43
250.0
 10
19669.872
 20
6024.898
 10
19669.872
 20
6224.898
 10
19269.872
 20
6224.898
 10
19269.872
 20
6024.898
  0
LWPOLYLINE
  5
63
100
AcDbEntity
  8
ASSEMBLY_OUTLINES_TOP
100
AcDbPolyline
 90
        4
 70
         0
 43
250.0
 10
18482.574
 20
6238.231
 10
18482.574
 20
6038.231
 10
18882.574
 20
6038.231
 10
18882.574
 20
6238.231
  0
SOLID
  5
64
100
AcDbEntity
  8
ASSEMBLY_OUTLINES_TOP
100
AcDbTrace
 10
12790.129
 20
1608.001
 30
0.0
 11
13590.129
 21
1608.001
 31
0.0
 12
12790.129
 22
2008.001
 32
0.0
 13
13590.129
 23
2008.001
 33
0.0
  0
LWPOLYLINE
  5
65
100
AcDbEntity
  8
ASSEMBLY_OUTLINES_TOP
100
AcDbPolyline
 90
        4
 70
         1
 43
100.0
 10
10690.129
 20
1008.001
 10
10690.129
 20
2608.001
 10
13890.129
 20
2608.001
 10
13890.129
 20
1008.001
  0
LWPOLYLINE
  5
66
100
AcDbEntity
  8
ASSEMBLY_OUTLINES_TOP
100
AcDbPolyline
 90
        4
 70
         0
 43
250.0
 10
16040.129
 20
1968.001
 10
16040.129
 20
2168.001
 10
15640.129
 20
2168.001
 10
15640.129
 20
1968.001
  0
LWPOLYLINE
  5
67
100
AcDbEntity
  8
ASSEMBLY_OUTLINES_TOP
100
AcDbPolyline
 90
        4
 70
         0
 43
250.0
 10
16990.129
 20
2228.001
 10
17190.129
 20
2228.001
 10
17190.129
 20
2628.001
 10
16990.129
 20
2628.001
  0
LWPOLYLINE
  5
68
100
AcDbEntity
  8
ASSEMBLY_OUTLINES_TOP
100
AcDbPolyline
 90
        4
 70
         0
 43
250.0
 10
18540.129
 20
1968.001
 10
18540.129
 20
2168.001
 10
18140.129
 20
2168.001
 10
18140.129
 20
1968.001
  0
LWPOLYLINE
  5
69
100
AcDbEntity
  8
ASSEMBLY_OUTLINES_TOP
100
AcDbPolyline
 90
        4
 70
         0
 43
250.0
 10
13540.257
 20
19743.103
 10
13740.257
 20
19743.103
 10
13740.257
 20
20143.103
 10
13540.257
 20
20143.103
  0
LWPOLYLINE
  5
6A
100
AcDbEntity
  8
ASSEMBLY_OUTLINES_TOP
100
AcDbPolyline
 90
        4
 70
         0
 43
250.0
 10
13540.257
 20
18943.103
 10
13740.257
 20
18943.103
 10
13740.257
 20
19343.103
 10
13540.257
 20
19343.103
  0
TEXT
  5
6B
100
AcDbEntity
  8
ASSEMBLY_REF_DES_BTM
100
AcDbText
 10
6786.0
 20
2618.8
 30
0.0
 40
800.0
  1
C10
 50
90.0
  7
ARIAL
 71
         2
 72
         1
 11
6370.0
 21
1570.0
 31
0.0
100
AcDbText
 73
         2
  0
TEXT
  5
6C
100
AcDbEntity
  8
ASSEMBLY_REF_DES_BTM
100
AcDbText
 10
632.8
 20
9316.0
 30
0.0
 40
800.0
  1
Z1
 50
180.0
  7
ARIAL
 71
         2
 72
         1
 11
1300.0
 21
8900.0
 31
0.0
100
AcDbText
 73
         2
  0
TEXT
  5
6D
100
AcDbEntity
  8
ASSEMBLY_REF_DES_BTM
100
AcDbText
 10
3000.8
 20
9281.0
 30
0.0
 40
800.0
  1
X3
 50
180.0
  7
ARIAL
 71
         2
 72
         1
 11
3700.0
 21
8865.0
 31
0.0
100
AcDbText
 73
         2
  0
TEXT
  5
6E
100
AcDbEntity
  8
ASSEMBLY_REF_DES_BTM
100
AcDbText
 10
9751.2
 20
11916.0
 30
0.0
 40
800.0
  1
R13
 50
180.0
  7
ARIAL
 71
         2
 72
         1
 11
10800.0
 21
11500.0
 31
0.0
100
AcDbText
 73
         2
  0
TEXT
  5
6F
100
AcDbEntity
  8
ASSEMBLY_REF_DES_BTM
100
AcDbText
 10
10069.2
 20
11166.0
 30
0.0
 40
800.0
  1
R8
 50
180.0
  7
ARIAL
 71
         2
 72
         1
 11
10800.0
 21
10750.0
 31
0.0
100
AcDbText
 73
         2
  0
TEXT
  5
70
100
AcDbEntity
  8
ASSEMBLY_REF_DES_BTM
100
AcDbText
 10
10746.584
 20
15439.057
 30
0.0
 40
800.0
  1
C11
 50
90.0
  7
ARIAL
 71
         2
 72
         1
 11
10330.584
 21
14390.257
 31
0.0
100
AcDbText
 73
         2
  0
TEXT
  5
71
100
AcDbEntity
  8
ASSEMBLY_REF_DES_BTM
100
AcDbText
 10
11546.584
 20
15121.057
 30
0.0
 40
800.0
  1
C3
 50
90.0
  7
ARIAL
 71
         2
 72
         1
 11
11130.584
 21
14390.257
 31
0.0
100
AcDbText
 73
         2
  0
TEXT
  5
72
100
AcDbEntity
  8
ASSEMBLY_REF_DES_BTM
100
AcDbText
 10
9376.097
 20
18266.257
 30
0.0
 40
800.0
  1
R3
 50
180.0
  7
ARIAL
 71
         2
 72
         1
 11
10106.897
 21
17850.257
 31
0.0
100
AcDbText
 73
         2
  0
TEXT
  5
73
100
AcDbEntity
  8
ASSEMBLY_REF_DES_BTM
100
AcDbText
 10
9251.2
 20
19806.0
 30
0.0
 40
800.0
  1
R21
 50
180.0
  7
ARIAL
 71
         2
 72
         1
 11
10300.0
 21
19390.0
 31
0.0
100
AcDbText
 73
         2
  0
TEXT
  5
74
100
AcDbEntity
  8
ASSEMBLY_REF_DES_BTM
100
AcDbText
 10
9569.2
 20
19066.0
 30
0.0
 40
800.0
  1
R2
 50
180.0
  7
ARIAL
 71
         2
 72
         1
 11
10300.0
 21
18650.0
 31
0.0
100
AcDbText
 73
         2
  0
TEXT
  5
75
100
AcDbEntity
  8
ASSEMBLY_REF_DES_BTM
100
AcDbText
 10
8759.21
 20
17216.614
 30
0.0
 40
800.0
  1
R22
 50
180.0
  7
ARIAL
 71
         2
 72
         1
 11
9808.01
 21
16800.614
 31
0.0
100
AcDbText
 73
         2
  0
TEXT
  5
76
100
AcDbEntity
  8
ASSEMBLY_REF_DES_BTM
100
AcDbText
 10
8776.097
 20
16406.257
 30
0.0
 40
800.0
  1
R4
 50
180.0
  7
ARIAL
 71
         2
 72
         1
 11
9506.897
 21
15990.257
 31
0.0
100
AcDbText
 73
         2
  0
TEXT
  5
77
100
AcDbEntity
  8
ASSEMBLY_REF_DES_BTM
100
AcDbText
 10
8806.257
 20
17341.903
 30
0.0
 40
800.0
  1
R23
 50
90.0
  7
ARIAL
 71
         2
 72
         1
 11
8390.257
 21
16293.103
 31
0.0
100
AcDbText
 73
         2
  0
TEXT
  5
78
100
AcDbEntity
  8
ASSEMBLY_REF_DES_BTM
100
AcDbText
 10
10091.457
 20
21659.103
 30
0.0
 40
800.0
  1
R20
 50
180.0
  7
ARIAL
 71
         2
 72
         1
 11
11140.257
 21
21243.103
 31
0.0
100
AcDbText
 73
         2
  0
TEXT
  5
79
100
AcDbEntity
  8
ASSEMBLY_REF_DES_BTM
100
AcDbText
 10
17708.097
 20
18575.743
 30
0.0
 40
800.0
  1
R19
 50
180.0
  7
ARIAL
 71
         2
 72
         1
 11
18756.897
 21
18159.743
 31
0.0
100
AcDbText
 73
         2
  0
TEXT
  5
7A
100
AcDbEntity
  8
ASSEMBLY_REF_DES_BTM
100
AcDbText
 10
14280.4
 20
20016.0
 30
0.0
 40
800.0
  1
DMC4
 50
180.0
  7
ARIAL
 71
         2
 72
         1
 11
15900.0
 21
19600.0
 31
0.0
100
AcDbText
 73
         2
  0
TEXT
  5
7B
100
AcDbEntity
  8
ASSEMBLY_REF_DES_BTM
100
AcDbText
 10
13271.057
 20
20227.103
 30
0.0
 40
800.0
  1
R1
  7
ARIAL
 71
         2
 72
         1
 11
12540.257
 21
20643.103
 31
0.0
100
AcDbText
 73
         2
  0
TEXT
  5
7C
100
AcDbEntity
  8
ASSEMBLY_REF_DES_BTM
100
AcDbText
 10
9839.057
 20
21490.897
 30
0.0
 40
800.0
  1
R25
  7
ARIAL
 71
         2
 72
         1
 11
8790.257
 21
21906.897
 31
0.0
100
AcDbText
 73
         2
  0
TEXT
  5
7D
100
AcDbEntity
  8
ASSEMBLY_REF_DES_BTM
100
AcDbText
 10
15007.2
 20
7934.0
 30
0.0
 40
800.0
  1
Z5
  7
ARIAL
 71
         2
 72
         1
 11
14340.0
 21
8350.0
 31
0.0
100
AcDbText
 73
         2
  0
TEXT
  5
7E
100
AcDbEntity
  8
ASSEMBLY_REF_DES_BTM
100
AcDbText
 10
20767.2
 20
21284.0
 30
0.0
 40
800.0
  1
Z3
  7
ARIAL
 71
         2
 72
         1
 11
20100.0
 21
21700.0
 31
0.0
100
AcDbText
 73
         2
  0
TEXT
  5
7F
100
AcDbEntity
  8
ASSEMBLY_REF_DES_BTM
100
AcDbText
 10
17424.257
 20
15262.303
 30
0.0
 40
800.0
  1
R7
 50
270.0
  7
ARIAL
 71
         2
 72
         1
 11
17840.257
 21
15993.103
 31
0.0
100
AcDbText
 73
         2
  0
TEXT
  5
80
100
AcDbEntity
  8
ASSEMBLY_REF_DES_BTM
100
AcDbText
 10
15321.057
 20
15977.103
 30
0.0
 40
800.0
  1
R6
  7
ARIAL
 71
         2
 72
         1
 11
14590.257
 21
16393.103
 31
0.0
100
AcDbText
 73
         2
  0
TEXT
  5
81
100
AcDbEntity
  8
ASSEMBLY_REF_DES_BTM
100
AcDbText
 10
12184.0
 20
16651.2
 30
0.0
 40
800.0
  1
R24
 50
270.0
  7
ARIAL
 71
         2
 72
         1
 11
12600.0
 21
17700.0
 31
0.0
100
AcDbText
 73
         2
  0
TEXT
  5
82
100
AcDbEntity
  8
ASSEMBLY_REF_DES_BTM
100
AcDbText
 10
12984.0
 20
16969.2
 30
0.0
 40
800.0
  1
R5
 50
270.0
  7
ARIAL
 71
         2
 72
         1
 11
13400.0
 21
17700.0
 31
0.0
100
AcDbText
 73
         2
  0
TEXT
  5
83
100
AcDbEntity
  8
ASSEMBLY_REF_DES_BTM
100
AcDbText
 10
7974.0
 20
13679.2
 30
0.0
 40
800.0
  1
C8
 50
270.0
  7
ARIAL
 71
         2
 72
         1
 11
8390.0
 21
14410.0
 31
0.0
100
AcDbText
 73
         2
  0
TEXT
  5
84
100
AcDbEntity
  8
ASSEMBLY_REF_DES_BTM
100
AcDbText
 10
19989.057
 20
10877.103
 30
0.0
 40
800.0
  1
C14
  7
ARIAL
 71
         2
 72
         1
 11
18940.257
 21
11293.103
 31
0.0
100
AcDbText
 73
         2
  0
TEXT
  5
85
100
AcDbEntity
  8
ASSEMBLY_REF_DES_BTM
100
AcDbText
 10
19671.057
 20
10077.103
 30
0.0
 40
800.0
  1
C2
  7
ARIAL
 71
         2
 72
         1
 11
18940.257
 21
10493.103
 31
0.0
100
AcDbText
 73
         2
  0
TEXT
  5
86
100
AcDbEntity
  8
ASSEMBLY_REF_DES_BTM
100
AcDbText
 10
17630.8
 20
9284.0
 30
0.0
 40
800.0
  1
R9
  7
ARIAL
 71
         2
 72
         1
 11
16900.0
 21
9700.0
 31
0.0
100
AcDbText
 73
         2
  0
TEXT
  5
87
100
AcDbEntity
  8
ASSEMBLY_REF_DES_BTM
100
AcDbText
 10
13374.257
 20
13144.303
 30
0.0
 40
800.0
  1
R16
 50
270.0
  7
ARIAL
 71
         2
 72
         1
 11
13790.257
 21
14193.103
 31
0.0
100
AcDbText
 73
         2
  0
TEXT
  5
88
100
AcDbEntity
  8
ASSEMBLY_REF_DES_BTM
100
AcDbText
 10
14174.257
 20
13144.303
 30
0.0
 40
800.0
  1
R12
 50
270.0
  7
ARIAL
 71
         2
 72
         1
 11
14590.257
 21
14193.103
 31
0.0
100
AcDbText
 73
         2
  0
TEXT
  5
89
100
AcDbEntity
  8
ASSEMBLY_REF_DES_BTM
100
AcDbText
 10
14974.257
 20
13144.303
 30
0.0
 40
800.0
  1
R11
 50
270.0
  7
ARIAL
 71
         2
 72
         1
 11
15390.257
 21
14193.103
 31
0.0
100
AcDbText
 73
         2
  0
TEXT
  5
8A
100
AcDbEntity
  8
ASSEMBLY_REF_DES_BTM
100
AcDbText
 10
15774.257
 20
13144.303
 30
0.0
 40
800.0
  1
R10
 50
270.0
  7
ARIAL
 71
         2
 72
         1
 11
16190.257
 21
14193.103
 31
0.0
100
AcDbText
 73
         2
  0
TEXT
  5
8B
100
AcDbEntity
  8
ASSEMBLY_REF_DES_BTM
100
AcDbText
 10
15339.057
 20
10077.103
 30
0.0
 40
800.0
  1
R14
  7
ARIAL
 71
         2
 72
         1
 11
14290.257
 21
10493.103
 31
0.0
100
AcDbText
 73
         2
  0
TEXT
  5
8C
100
AcDbEntity
  8
ASSEMBLY_REF_DES_BTM
100
AcDbText
 10
15339.057
 20
9277.103
 30
0.0
 40
800.0
  1
R15
  7
ARIAL
 71
         2
 72
         1
 11
14290.257
 21
9693.103
 31
0.0
100
AcDbText
 73
         2
  0
TEXT
  5
8D
100
AcDbEntity
  8
ASSEMBLY_REF_DES_TOP
100
AcDbText
 10
19853.872
 20
5655.698
 30
0.0
 40
800.0
  1
D1
 50
270.0
  7
ARIAL
 72
         1
 11
20269.872
 21
4924.898
 31
0.0
100
AcDbText
 73
         2
  0
TEXT
  5
8E
100
AcDbEntity
  8
ASSEMBLY_REF_DES_TOP
100
AcDbText
 10
5204.23
 20
1378.027
 30
0.0
 40
800.0
  1
TP1
  7
ARIAL
 72
         1
 11
6252.63
 21
1794.027
 31
0.0
100
AcDbText
 73
         2
  0
TEXT
  5
8F
100
AcDbEntity
  8
ASSEMBLY_REF_DES_TOP
100
AcDbText
 10
632.8
 20
7284.0
 30
0.0
 40
800.0
  1
Z4
  7
ARIAL
 72
         1
 11
1300.0
 21
7700.0
 31
0.0
100
AcDbText
 73
         2
  0
TEXT
  5
90
100
AcDbEntity
  8
ASSEMBLY_REF_DES_TOP
100
AcDbText
 10
304.23
 20
14778.027
 30
0.0
 40
800.0
  1
TP2
  7
ARIAL
 72
         1
 11
1352.63
 21
15194.027
 31
0.0
100
AcDbText
 73
         2
  0
TEXT
  5
91
100
AcDbEntity
  8
ASSEMBLY_REF_DES_TOP
100
AcDbText
 10
2300.8
 20
19684.0
 30
0.0
 40
800.0
  1
X2
  7
ARIAL
 72
         1
 11
3000.0
 21
20100.0
 31
0.0
100
AcDbText
 73
         2
  0
TEXT
  5
92
100
AcDbEntity
  8
ASSEMBLY_REF_DES_TOP
100
AcDbText
 10
19124.257
 20
20891.903
 30
0.0
 40
800.0
  1
R18
 50
270.0
  7
ARIAL
 72
         1
 11
19540.257
 21
19843.103
 31
0.0
100
AcDbText
 73
         2
  0
TEXT
  5
93
100
AcDbEntity
  8
ASSEMBLY_REF_DES_TOP
100
AcDbText
 10
8980.4
 20
20384.0
 30
0.0
 40
800.0
  1
DMC3
  7
ARIAL
 72
         1
 11
10600.0
 21
20800.0
 31
0.0
100
AcDbText
 73
         2
  0
TEXT
  5
94
100
AcDbEntity
  8
ASSEMBLY_REF_DES_TOP
100
AcDbText
 10
14424.257
 20
14173.903
 30
0.0
 40
800.0
  1
U1
 50
270.0
  7
ARIAL
 72
         1
 11
14840.257
 21
13443.103
 31
0.0
100
AcDbText
 73
         2
  0
TEXT
  5
95
100
AcDbEntity
  8
ASSEMBLY_REF_DES_TOP
100
AcDbText
 10
12341.457
 20
21177.103
 30
0.0
 40
800.0
  1
R17
  7
ARIAL
 72
         1
 11
13390.257
 21
21593.103
 31
0.0
100
AcDbText
 73
         2
  0
TEXT
  5
96
100
AcDbEntity
  8
ASSEMBLY_REF_DES_TOP
100
AcDbText
 10
18324.257
 20
21473.903
 30
0.0
 40
800.0
  1
C7
 50
270.0
  7
ARIAL
 72
         1
 11
18740.257
 21
20743.103
 31
0.0
100
AcDbText
 73
         2
  0
TEXT
  5
97
100
AcDbEntity
  8
ASSEMBLY_REF_DES_TOP
100
AcDbText
 10
19432.8
 20
21284.0
 30
0.0
 40
800.0
  1
Z2
  7
ARIAL
 72
         1
 11
20100.0
 21
21700.0
 31
0.0
100
AcDbText
 73
         2
  0
TEXT
  5
98
100
AcDbEntity
  8
ASSEMBLY_REF_DES_TOP
100
AcDbText
 10
15228.257
 20
20027.103
 30
0.0
 40
800.0
  1
OZ1
  7
ARIAL
 72
         1
 11
16340.257
 21
20443.103
 31
0.0
100
AcDbText
 73
         2
  0
TEXT
  5
99
100
AcDbEntity
  8
ASSEMBLY_REF_DES_TOP
100
AcDbText
 10
18433.872
 20
3538.898
 30
0.0
 40
800.0
  1
L1
  7
ARIAL
 72
         1
 11
19069.872
 21
3954.898
 31
0.0
100
AcDbText
 73
         2
  0
TEXT
  5
9A
100
AcDbEntity
  8
ASSEMBLY_REF_DES_TOP
100
AcDbText
 10
19054.129
 20
4184.001
 30
0.0
 40
800.0
  1
L2
 50
270.0
  7
ARIAL
 72
         1
 11
19470.129
 21
3548.001
 31
0.0
100
AcDbText
 73
         2
  0
TEXT
  5
9B
100
AcDbEntity
  8
ASSEMBLY_REF_DES_TOP
100
AcDbText
 10
16651.499
 20
5563.174
 30
0.0
 40
800.0
  1
X1
 50
270.0
  7
ARIAL
 72
         1
 11
17067.499
 21
4863.974
 31
0.0
100
AcDbText
 73
         2
  0
TEXT
  5
9C
100
AcDbEntity
  8
ASSEMBLY_REF_DES_TOP
100
AcDbText
 10
19053.872
 20
6855.698
 30
0.0
 40
800.0
  1
C4
 50
270.0
  7
ARIAL
 72
         1
 11
19469.872
 21
6124.898
 31
0.0
100
AcDbText
 73
         2
  0
TEXT
  5
9D
100
AcDbEntity
  8
ASSEMBLY_REF_DES_TOP
100
AcDbText
 10
18266.574
 20
6869.031
 30
0.0
 40
800.0
  1
C6
 50
270.0
  7
ARIAL
 72
         1
 11
18682.574
 21
6138.231
 31
0.0
100
AcDbText
 73
         2
  0
TEXT
  5
9E
100
AcDbEntity
  8
ASSEMBLY_REF_DES_TOP
100
AcDbText
 10
10828.929
 20
1392.001
 30
0.0
 40
800.0
  1
ANT1
  7
ARIAL
 72
         1
 11
12290.129
 21
1808.001
 31
0.0
100
AcDbText
 73
         2
  0
TEXT
  5
9F
100
AcDbEntity
  8
ASSEMBLY_REF_DES_TOP
100
AcDbText
 10
15424.129
 20
2798.801
 30
0.0
 40
800.0
  1
C1
 50
270.0
  7
ARIAL
 72
         1
 11
15840.129
 21
2068.001
 31
0.0
100
AcDbText
 73
         2
  0
TEXT
  5
A0
100
AcDbEntity
  8
ASSEMBLY_REF_DES_TOP
100
AcDbText
 10
16454.129
 20
2012.001
 30
0.0
 40
800.0
  1
L3
  7
ARIAL
 72
         1
 11
17090.129
 21
2428.001
 31
0.0
100
AcDbText
 73
         2
  0
TEXT
  5
A1
100
AcDbEntity
  8
ASSEMBLY_REF_DES_TOP
100
AcDbText
 10
17924.129
 20
2798.801
 30
0.0
 40
800.0
  1
C5
 50
270.0
  7
ARIAL
 72
         1
 11
18340.129
 21
2068.001
 31
0.0
100
AcDbText
 73
         2
  0
TEXT
  5
A2
100
AcDbEntity
  8
ASSEMBLY_REF_DES_TOP
100
AcDbText
 10
12591.457
 20
19527.103
 30
0.0
 40
800.0
  1
C12
  7
ARIAL
 72
         1
 11
13640.257
 21
19943.103
 31
0.0
100
AcDbText
 73
         2
  0
TEXT
  5
A3
100
AcDbEntity
  8
ASSEMBLY_REF_DES_TOP
100
AcDbText
 10
12591.457
 20
18727.103
 30
0.0
 40
800.0
  1
C13
  7
ARIAL
 72
         1
 11
13640.257
 21
19143.103
 31
0.0
100
AcDbText
 73
         2
  0
LWPOLYLINE
  5
A4
100
AcDbEntity
  8
BOARD_OUTLINE
100
AcDbPolyline
 90
        4
 70
         1
 10
0.0
 20
0.0
 10
0.0
 20
23000.0
 10
21960.0
 20
23000.0
 10
21960.0
 20
0.0
  0
CIRCLE
  5
A5
100
AcDbEntity
  8
SOLDERMASK_PADS_BTM
100
AcDbCircle
 10
20231.592
 20
4105.35
 30
0.0
 40
140.0
  0
CIRCLE
  5
A6
100
AcDbEntity
  8
SOLDERMASK_PADS_BTM
100
AcDbCircle
 10
20231.592
 20
3305.346
 30
0.0
 40
140.0
  0
CIRCLE
  5
A7
100
AcDbEntity
  8
SOLDERMASK_PADS_BTM
100
AcDbCircle
 10
20231.592
 20
2505.342
 30
0.0
 40
140.0
  0
CIRCLE
  5
A8
100
AcDbEntity
  8
SOLDERMASK_PADS_BTM
100
AcDbCircle
 10
20273.228
 20
6395.764
 30
0.0
 40
140.0
  0
CIRCLE
  5
A9
100
AcDbEntity
  8
SOLDERMASK_PADS_BTM
100
AcDbCircle
 10
20273.228
 20
5595.76
 30
0.0
 40
140.0
  0
CIRCLE
  5
AA
100
AcDbEntity
  8
SOLDERMASK_PADS_BTM
100
AcDbCircle
 10
16693.798
 20
1344.037
 30
0.0
 40
140.0
  0
CIRCLE
  5
AB
100
AcDbEntity
  8
SOLDERMASK_PADS_BTM
100
AcDbCircle
 10
17493.802
 20
1344.037
 30
0.0
 40
140.0
  0
CIRCLE
  5
AC
100
AcDbEntity
  8
SOLDERMASK_PADS_BTM
100
AcDbCircle
 10
20051.7
 20
1462.029
 30
0.0
 40
140.0
  0
CIRCLE
  5
AD
100
AcDbEntity
  8
SOLDERMASK_PADS_BTM
100
AcDbCircle
 10
19251.696
 20
1462.029
 30
0.0
 40
140.0
  0
CIRCLE
  5
AE
100
AcDbEntity
  8
SOLDERMASK_PADS_BTM
100
AcDbCircle
 10
7795.579
 20
2296.745
 30
0.0
 40
140.0
  0
CIRCLE
  5
AF
100
AcDbEntity
  8
SOLDERMASK_PADS_BTM
100
AcDbCircle
 10
7358.389
 20
6283.325
 30
0.0
 40
140.0
  0
CIRCLE
  5
B0
100
AcDbEntity
  8
SOLDERMASK_PADS_BTM
100
AcDbCircle
 10
7210.189
 20
5297.795
 30
0.0
 40
140.0
  0
CIRCLE
  5
B1
100
AcDbEntity
  8
SOLDERMASK_PADS_BTM
100
AcDbCircle
 10
7254.649
 20
4356.725
 30
0.0
 40
140.0
  0
CIRCLE
  5
B2
100
AcDbEntity
  8
SOLDERMASK_PADS_BTM
100
AcDbCircle
 10
7306.519
 20
3408.245
 30
0.0
 40
140.0
  0
CIRCLE
  5
B3
100
AcDbEntity
  8
SOLDERMASK_PADS_BTM
100
AcDbCircle
 10
8075.863
 20
1170.37
 30
0.0
 40
140.0
  0
CIRCLE
  5
B4
100
AcDbEntity
  8
SOLDERMASK_PADS_BTM
100
AcDbCircle
 10
8979.883
 20
1209.89
 30
0.0
 40
140.0
  0
CIRCLE
  5
B5
100
AcDbEntity
  8
SOLDERMASK_PADS_BTM
100
AcDbCircle
 10
7636.641
 20
13945.0
 30
0.0
 40
140.0
  0
CIRCLE
  5
B6
100
AcDbEntity
  8
SOLDERMASK_PADS_BTM
100
AcDbCircle
 10
9872.73
 20
21870.498
 30
0.0
 40
140.0
  0
CIRCLE
  5
B7
100
AcDbEntity
  8
SOLDERMASK_PADS_BTM
100
AcDbCircle
 10
14889.277
 20
1837.064
 30
0.0
 40
140.0
  0
CIRCLE
  5
B8
100
AcDbEntity
  8
SOLDERMASK_PADS_BTM
100
AcDbCircle
 10
9177.469
 20
13836.032
 30
0.0
 40
140.0
  0
CIRCLE
  5
B9
100
AcDbEntity
  8
SOLDERMASK_PADS_BTM
100
AcDbCircle
 10
17729.577
 20
10868.979
 30
0.0
 40
140.0
  0
CIRCLE
  5
BA
100
AcDbEntity
  8
SOLDERMASK_PADS_BTM
100
AcDbCircle
 10
16984.539
 20
15363.782
 30
0.0
 40
140.0
  0
CIRCLE
  5
BB
100
AcDbEntity
  8
SOLDERMASK_PADS_BTM
100
AcDbCircle
 10
16235.581
 20
11272.199
 30
0.0
 40
140.0
  0
CIRCLE
  5
BC
100
AcDbEntity
  8
SOLDERMASK_PADS_BTM
100
AcDbCircle
 10
16952.757
 20
10472.237
 30
0.0
 40
140.0
  0
CIRCLE
  5
BD
100
AcDbEntity
  8
SOLDERMASK_PADS_BTM
100
AcDbCircle
 10
14135.823
 20
15430.697
 30
0.0
 40
140.0
  0
CIRCLE
  5
BE
100
AcDbEntity
  8
SOLDERMASK_PADS_BTM
100
AcDbCircle
 10
15067.134
 20
15479.393
 30
0.0
 40
140.0
  0
CIRCLE
  5
BF
100
AcDbEntity
  8
SOLDERMASK_PADS_BTM
100
AcDbCircle
 10
15955.836
 20
15400.262
 30
0.0
 40
140.0
  0
CIRCLE
  5
C0
100
AcDbEntity
  8
SOLDERMASK_PADS_BTM
100
AcDbCircle
 10
9564.242
 20
11365.46
 30
0.0
 40
140.0
  0
CIRCLE
  5
C1
100
AcDbEntity
  8
SOLDERMASK_PADS_BTM
100
AcDbCircle
 10
18736.613
 20
7243.642
 30
0.0
 40
140.0
  0
CIRCLE
  5
C2
100
AcDbEntity
  8
SOLDERMASK_PADS_BTM
100
AcDbCircle
 10
19179.426
 20
7995.841
 30
0.0
 40
140.0
  0
CIRCLE
  5
C3
100
AcDbEntity
  8
SOLDERMASK_PADS_BTM
100
AcDbCircle
 10
17927.625
 20
6070.978
 30
0.0
 40
140.0
  0
CIRCLE
  5
C4
100
AcDbEntity
  8
SOLDERMASK_PADS_BTM
100
AcDbCircle
 10
17946.589
 20
3359.126
 30
0.0
 40
140.0
  0
CIRCLE
  5
C5
100
AcDbEntity
  8
SOLDERMASK_PADS_BTM
100
AcDbCircle
 10
14738.139
 20
5993.654
 30
0.0
 40
140.0
  0
CIRCLE
  5
C6
100
AcDbEntity
  8
SOLDERMASK_PADS_BTM
100
AcDbCircle
 10
14731.818
 20
4590.392
 30
0.0
 40
140.0
  0
CIRCLE
  5
C7
100
AcDbEntity
  8
SOLDERMASK_PADS_BTM
100
AcDbCircle
 10
14719.176
 20
3155.525
 30
0.0
 40
140.0
  0
CIRCLE
  5
C8
100
AcDbEntity
  8
SOLDERMASK_PADS_BTM
100
AcDbCircle
 10
9856.276
 20
6452.916
 30
0.0
 40
140.0
  0
CIRCLE
  5
C9
100
AcDbEntity
  8
SOLDERMASK_PADS_BTM
100
AcDbCircle
 10
9882.941
 20
5153.882
 30
0.0
 40
140.0
  0
CIRCLE
  5
CA
100
AcDbEntity
  8
SOLDERMASK_PADS_BTM
100
AcDbCircle
 10
9835.531
 20
3807.438
 30
0.0
 40
140.0
  0
CIRCLE
  5
CB
100
AcDbEntity
  8
SOLDERMASK_PADS_BTM
100
AcDbCircle
 10
9846.771
 20
2461.166
 30
0.0
 40
140.0
  0
CIRCLE
  5
CC
100
AcDbEntity
  8
SOLDERMASK_PADS_BTM
100
AcDbCircle
 10
9826.662
 20
1159.007
 30
0.0
 40
140.0
  0
CIRCLE
  5
CD
100
AcDbEntity
  8
SOLDERMASK_PADS_BTM
100
AcDbCircle
 10
16842.468
 20
11962.549
 30
0.0
 40
140.0
  0
CIRCLE
  5
CE
100
AcDbEntity
  8
SOLDERMASK_PADS_BTM
100
AcDbCircle
 10
18807.662
 20
16816.283
 30
0.0
 40
140.0
  0
CIRCLE
  5
CF
100
AcDbEntity
  8
SOLDERMASK_PADS_BTM
100
AcDbCircle
 10
20237.024
 20
17177.649
 30
0.0
 40
140.0
  0
CIRCLE
  5
D0
100
AcDbEntity
  8
SOLDERMASK_PADS_BTM
100
AcDbCircle
 10
20227.542
 20
15745.867
 30
0.0
 40
140.0
  0
CIRCLE
  5
D1
100
AcDbEntity
  8
SOLDERMASK_PADS_BTM
100
AcDbCircle
 10
20218.06
 20
14560.617
 30
0.0
 40
140.0
  0
CIRCLE
  5
D2
100
AcDbEntity
  8
SOLDERMASK_PADS_BTM
100
AcDbCircle
 10
20275.0
 20
13365.885
 30
0.0
 40
140.0
  0
CIRCLE
  5
D3
100
AcDbEntity
  8
SOLDERMASK_PADS_BTM
100
AcDbCircle
 10
20218.06
 20
12265.973
 30
0.0
 40
140.0
  0
CIRCLE
  5
D4
100
AcDbEntity
  8
SOLDERMASK_PADS_BTM
100
AcDbCircle
 10
17997.166
 20
20469.379
 30
0.0
 40
140.0
  0
CIRCLE
  5
D5
100
AcDbEntity
  8
SOLDERMASK_PADS_BTM
100
AcDbCircle
 10
15267.735
 20
20754.453
 30
0.0
 40
140.0
  0
CIRCLE
  5
D6
100
AcDbEntity
  8
SOLDERMASK_PADS_BTM
100
AcDbCircle
 10
17259.836
 20
7319.582
 30
0.0
 40
140.0
  0
CIRCLE
  5
D7
100
AcDbEntity
  8
SOLDERMASK_PADS_BTM
100
AcDbCircle
 10
14723.708
 20
7182.494
 30
0.0
 40
140.0
  0
CIRCLE
  5
D8
100
AcDbEntity
  8
SOLDERMASK_PADS_BTM
100
AcDbCircle
 10
13401.788
 20
7233.001
 30
0.0
 40
140.0
  0
CIRCLE
  5
D9
100
AcDbEntity
  8
SOLDERMASK_PADS_BTM
100
AcDbCircle
 10
10650.236
 20
7233.001
 30
0.0
 40
140.0
  0
CIRCLE
  5
DA
100
AcDbEntity
  8
SOLDERMASK_PADS_BTM
100
AcDbCircle
 10
12060.284
 20
7233.001
 30
0.0
 40
140.0
  0
CIRCLE
  5
DB
100
AcDbEntity
  8
SOLDERMASK_PADS_BTM
100
AcDbCircle
 10
18174.334
 20
8005.323
 30
0.0
 40
140.0
  0
CIRCLE
  5
DC
100
AcDbEntity
  8
SOLDERMASK_PADS_BTM
100
AcDbCircle
 10
15939.004
 20
7291.294
 30
0.0
 40
140.0
  0
CIRCLE
  5
DD
100
AcDbEntity
  8
SOLDERMASK_PADS_BTM
100
AcDbCircle
 10
7023.393
 20
2580.724
 30
0.0
 40
140.0
  0
CIRCLE
  5
DE
100
AcDbEntity
  8
SOLDERMASK_PADS_BTM
100
AcDbCircle
 10
18757.893
 20
19668.103
 30
0.0
 40
140.0
  0
CIRCLE
  5
DF
100
AcDbEntity
  8
SOLDERMASK_PADS_BTM
100
AcDbCircle
 10
9081.036
 20
15246.032
 30
0.0
 40
140.0
  0
CIRCLE
  5
E0
100
AcDbEntity
  8
SOLDERMASK_PADS_BTM
100
AcDbCircle
 10
9397.755
 20
10554.992
 30
0.0
 40
140.0
  0
CIRCLE
  5
E1
100
AcDbEntity
  8
SOLDERMASK_PADS_BTM
100
AcDbCircle
 10
18500.126
 20
21846.232
 30
0.0
 40
140.0
  0
CIRCLE
  5
E2
100
AcDbEntity
  8
SOLDERMASK_PADS_BTM
100
AcDbCircle
 10
18208.701
 20
19002.907
 30
0.0
 40
140.0
  0
CIRCLE
  5
E3
100
AcDbEntity
  8
SOLDERMASK_PADS_BTM
100
AcDbCircle
 10
12315.257
 20
21368.103
 30
0.0
 40
140.0
  0
CIRCLE
  5
E4
100
AcDbEntity
  8
SOLDERMASK_PADS_BTM
100
AcDbCircle
 10
14724.32
 20
20083.918
 30
0.0
 40
140.0
  0
CIRCLE
  5
E5
100
AcDbEntity
  8
SOLDERMASK_PADS_BTM
100
AcDbCircle
 10
12448.708
 20
19008.754
 30
0.0
 40
140.0
  0
CIRCLE
  5
E6
100
AcDbEntity
  8
SOLDERMASK_PADS_BTM
100
AcDbCircle
 10
9005.019
 20
18227.987
 30
0.0
 40
140.0
  0
CIRCLE
  5
E7
100
AcDbEntity
  8
SOLDERMASK_PADS_BTM
100
AcDbCircle
 10
7240.135
 20
1463.666
 30
0.0
 40
140.0
  0
CIRCLE
  5
E8
100
AcDbEntity
  8
SOLDERMASK_PADS_BTM
100
AcDbCircle
 10
7543.537
 20
14739.565
 30
0.0
 40
140.0
  0
CIRCLE
  5
E9
100
AcDbEntity
  8
SOLDERMASK_PADS_BTM
100
AcDbCircle
 10
9586.852
 20
14620.477
 30
0.0
 40
140.0
  0
CIRCLE
  5
EA
100
AcDbEntity
  8
SOLDERMASK_PADS_BTM
100
AcDbCircle
 10
20119.119
 20
10372.566
 30
0.0
 40
140.0
  0
CIRCLE
  5
EB
100
AcDbEntity
  8
SOLDERMASK_PADS_BTM
100
AcDbCircle
 10
20238.507
 20
11191.164
 30
0.0
 40
140.0
  0
CIRCLE
  5
EC
100
AcDbEntity
  8
SOLDERMASK_PADS_BTM
100
AcDbCircle
 10
15514.227
 20
11618.103
 30
0.0
 40
140.0
  0
CIRCLE
  5
ED
100
AcDbEntity
  8
SOLDERMASK_PADS_BTM
100
AcDbCircle
 10
14714.227
 20
11610.278
 30
0.0
 40
140.0
  0
CIRCLE
  5
EE
100
AcDbEntity
  8
SOLDERMASK_PADS_BTM
100
AcDbCircle
 10
13914.227
 20
11558.136
 30
0.0
 40
140.0
  0
CIRCLE
  5
EF
100
AcDbEntity
  8
SOLDERMASK_PADS_BTM
100
AcDbCircle
 10
10862.757
 20
10022.411
 30
0.0
 40
140.0
  0
CIRCLE
  5
F0
100
AcDbEntity
  8
SOLDERMASK_PADS_BTM
100
AcDbCircle
 10
12025.0
 20
10375.999
 30
0.0
 40
140.0
  0
CIRCLE
  5
F1
100
AcDbEntity
  8
SOLDERMASK_PADS_BTM
100
AcDbCircle
 10
13106.355
 20
11485.656
 30
0.0
 40
140.0
  0
CIRCLE
  5
F2
100
AcDbEntity
  8
SOLDERMASK_PADS_BTM
100
AcDbCircle
 10
12712.633
 20
10789.248
 30
0.0
 40
140.0
  0
CIRCLE
  5
F3
100
AcDbEntity
  8
SOLDERMASK_PADS_BTM
100
AcDbCircle
 10
19911.754
 20
18767.358
 30
0.0
 40
140.0
  0
CIRCLE
  5
F4
100
AcDbEntity
  8
SOLDERMASK_PADS_BTM
100
AcDbCircle
 10
16951.257
 20
13032.35
 30
0.0
 40
140.0
  0
CIRCLE
  5
F5
100
AcDbEntity
  8
SOLDERMASK_PADS_BTM
100
AcDbCircle
 10
17015.257
 20
14553.492
 30
0.0
 40
140.0
  0
CIRCLE
  5
F6
100
AcDbEntity
  8
SOLDERMASK_PADS_BTM
100
AcDbCircle
 10
16960.191
 20
16520.603
 30
0.0
 40
140.0
  0
CIRCLE
  5
F7
100
AcDbEntity
  8
SOLDERMASK_PADS_BTM
100
AcDbCircle
 10
14059.008
 20
20668.103
 30
0.0
 40
140.0
  0
CIRCLE
  5
F8
100
AcDbEntity
  8
SOLDERMASK_PADS_BTM
100
AcDbCircle
 10
6078.618
 20
2769.679
 30
0.0
 40
140.0
  0
CIRCLE
  5
F9
100
AcDbEntity
  8
SOLDERMASK_PADS_BTM
100
AcDbCircle
 10
5550.0
 20
5739.41
 30
0.0
 40
140.0
  0
CIRCLE
  5
FA
100
AcDbEntity
  8
SOLDERMASK_PADS_BTM
100
AcDbCircle
 10
11437.672
 20
9465.955
 30
0.0
 40
140.0
  0
CIRCLE
  5
FB
100
AcDbEntity
  8
SOLDERMASK_PADS_BTM
100
AcDbCircle
 10
18202.757
 20
9491.124
 30
0.0
 40
140.0
  0
CIRCLE
  5
FC
100
AcDbEntity
  8
SOLDERMASK_PADS_BTM
100
AcDbCircle
 10
13281.514
 20
15232.541
 30
0.0
 40
140.0
  0
CIRCLE
  5
FD
100
AcDbEntity
  8
SOLDERMASK_PADS_BTM
100
AcDbCircle
 10
5550.0
 20
7065.8
 30
0.0
 40
140.0
  0
CIRCLE
  5
FE
100
AcDbEntity
  8
SOLDERMASK_PADS_BTM
100
AcDbCircle
 10
12968.027
 20
13694.651
 30
0.0
 40
140.0
  0
CIRCLE
  5
FF
100
AcDbEntity
  8
SOLDERMASK_PADS_BTM
100
AcDbCircle
 10
5429.862
 20
9041.188
 30
0.0
 40
140.0
  0
CIRCLE
  5
100
100
AcDbEntity
  8
SOLDERMASK_PADS_BTM
100
AcDbCircle
 10
12911.794
 20
14492.673
 30
0.0
 40
140.0
  0
CIRCLE
  5
101
100
AcDbEntity
  8
SOLDERMASK_PADS_BTM
100
AcDbCircle
 10
12662.757
 20
12173.429
 30
0.0
 40
140.0
  0
CIRCLE
  5
102
100
AcDbEntity
  8
SOLDERMASK_PADS_BTM
100
AcDbCircle
 10
6044.169
 20
8184.71
 30
0.0
 40
140.0
  0
CIRCLE
  5
103
100
AcDbEntity
  8
SOLDERMASK_PADS_BTM
100
AcDbCircle
 10
13006.957
 20
12895.598
 30
0.0
 40
140.0
  0
CIRCLE
  5
104
100
AcDbEntity
  8
SOLDERMASK_PADS_BTM
100
AcDbCircle
 10
12584.333
 20
15624.893
 30
0.0
 40
140.0
  0
CIRCLE
  5
105
100
AcDbEntity
  8
SOLDERMASK_PADS_BTM
100
AcDbCircle
 10
8617.637
 20
20909.113
 30
0.0
 40
140.0
  0
CIRCLE
  5
106
100
AcDbEntity
  8
SOLDERMASK_PADS_BTM
100
AcDbCircle
 10
9150.892
 20
19321.047
 30
0.0
 40
140.0
  0
CIRCLE
  5
107
100
AcDbEntity
  8
SOLDERMASK_PADS_BTM
100
AcDbCircle
 10
18202.757
 20
17342.749
 30
0.0
 40
140.0
  0
CIRCLE
  5
108
100
AcDbEntity
  8
SOLDERMASK_PADS_BTM
100
AcDbCircle
 10
11927.757
 20
16194.893
 30
0.0
 40
140.0
  0
CIRCLE
  5
109
100
AcDbEntity
  8
SOLDERMASK_PADS_BTM
100
AcDbCircle
 10
12727.757
 20
16424.893
 30
0.0
 40
140.0
  0
CIRCLE
  5
10A
100
AcDbEntity
  8
SOLDERMASK_PADS_BTM
100
AcDbCircle
 10
11428.876
 20
17420.603
 30
0.0
 40
140.0
  0
CIRCLE
  5
10B
100
AcDbEntity
  8
SOLDERMASK_PADS_BTM
100
AcDbCircle
 10
10886.798
 20
16831.31
 30
0.0
 40
140.0
  0
CIRCLE
  5
10C
100
AcDbEntity
  8
SOLDERMASK_PADS_BTM
100
AcDbCircle
 10
8805.129
 20
17453.361
 30
0.0
 40
140.0
  0
LWPOLYLINE
  5
10D
100
AcDbEntity
  8
SOLDERMASK_PADS_BTM
100
AcDbPolyline
 90
        4
 70
         1
 10
6120.0
 20
970.0
 10
6120.0
 20
1370.0
 10
6620.0
 20
1370.0
 10
6620.0
 20
970.0
  0
LWPOLYLINE
  5
10E
100
AcDbEntity
  8
SOLDERMASK_PADS_BTM
100
AcDbPolyline
 90
        4
 70
         1
 10
6120.0
 20
1770.0
 10
6120.0
 20
2170.0
 10
6620.0
 20
2170.0
 10
6620.0
 20
1770.0
  0
LWPOLYLINE
  5
10F
100
AcDbEntity
  8
SOLDERMASK_PADS_BTM
100
AcDbPolyline
 90
        4
 70
         1
 10
500.0
 20
8100.0
 10
500.0
 20
9700.0
 10
2100.0
 20
9700.0
 10
2100.0
 20
8100.0
  0
CIRCLE
  5
110
100
AcDbEntity
  8
SOLDERMASK_PADS_BTM
100
AcDbCircle
 10
4335.0
 20
15215.0
 30
0.0
 40
500.0
  0
CIRCLE
  5
111
100
AcDbEntity
  8
SOLDERMASK_PADS_BTM
100
AcDbCircle
 10
3065.0
 20
15215.0
 30
0.0
 40
500.0
  0
CIRCLE
  5
112
100
AcDbEntity
  8
SOLDERMASK_PADS_BTM
100
AcDbCircle
 10
4335.0
 20
13945.0
 30
0.0
 40
500.0
  0
CIRCLE
  5
113
100
AcDbEntity
  8
SOLDERMASK_PADS_BTM
100
AcDbCircle
 10
3065.0
 20
13945.0
 30
0.0
 40
500.0
  0
CIRCLE
  5
114
100
AcDbEntity
  8
SOLDERMASK_PADS_BTM
100
AcDbCircle
 10
4335.0
 20
12675.0
 30
0.0
 40
500.0
  0
CIRCLE
  5
115
100
AcDbEntity
  8
SOLDERMASK_PADS_BTM
100
AcDbCircle
 10
3065.0
 20
12675.0
 30
0.0
 40
500.0
  0
CIRCLE
  5
116
100
AcDbEntity
  8
SOLDERMASK_PADS_BTM
100
AcDbCircle
 10
4335.0
 20
11405.0
 30
0.0
 40
500.0
  0
CIRCLE
  5
117
100
AcDbEntity
  8
SOLDERMASK_PADS_BTM
100
AcDbCircle
 10
3065.0
 20
11405.0
 30
0.0
 40
500.0
  0
CIRCLE
  5
118
100
AcDbEntity
  8
SOLDERMASK_PADS_BTM
100
AcDbCircle
 10
4335.0
 20
10135.0
 30
0.0
 40
500.0
  0
CIRCLE
  5
119
100
AcDbEntity
  8
SOLDERMASK_PADS_BTM
100
AcDbCircle
 10
3065.0
 20
10135.0
 30
0.0
 40
500.0
  0
CIRCLE
  5
11A
100
AcDbEntity
  8
SOLDERMASK_PADS_BTM
100
AcDbCircle
 10
4335.0
 20
8865.0
 30
0.0
 40
500.0
  0
CIRCLE
  5
11B
100
AcDbEntity
  8
SOLDERMASK_PADS_BTM
100
AcDbCircle
 10
3065.0
 20
8865.0
 30
0.0
 40
500.0
  0
CIRCLE
  5
11C
100
AcDbEntity
  8
SOLDERMASK_PADS_BTM
100
AcDbCircle
 10
4335.0
 20
7595.0
 30
0.0
 40
500.0
  0
CIRCLE
  5
11D
100
AcDbEntity
  8
SOLDERMASK_PADS_BTM
100
AcDbCircle
 10
3065.0
 20
7595.0
 30
0.0
 40
500.0
  0
CIRCLE
  5
11E
100
AcDbEntity
  8
SOLDERMASK_PADS_BTM
100
AcDbCircle
 10
4335.0
 20
6325.0
 30
0.0
 40
500.0
  0
CIRCLE
  5
11F
100
AcDbEntity
  8
SOLDERMASK_PADS_BTM
100
AcDbCircle
 10
3065.0
 20
6325.0
 30
0.0
 40
500.0
  0
CIRCLE
  5
120
100
AcDbEntity
  8
SOLDERMASK_PADS_BTM
100
AcDbCircle
 10
4335.0
 20
5055.0
 30
0.0
 40
500.0
  0
CIRCLE
  5
121
100
AcDbEntity
  8
SOLDERMASK_PADS_BTM
100
AcDbCircle
 10
3065.0
 20
5055.0
 30
0.0
 40
500.0
  0
CIRCLE
  5
122
100
AcDbEntity
  8
SOLDERMASK_PADS_BTM
100
AcDbCircle
 10
4335.0
 20
3785.0
 30
0.0
 40
500.0
  0
CIRCLE
  5
123
100
AcDbEntity
  8
SOLDERMASK_PADS_BTM
100
AcDbCircle
 10
3065.0
 20
3785.0
 30
0.0
 40
500.0
  0
CIRCLE
  5
124
100
AcDbEntity
  8
SOLDERMASK_PADS_BTM
100
AcDbCircle
 10
4335.0
 20
2515.0
 30
0.0
 40
500.0
  0
CIRCLE
  5
125
100
AcDbEntity
  8
SOLDERMASK_PADS_BTM
100
AcDbCircle
 10
3065.0
 20
2515.0
 30
0.0
 40
500.0
  0
CIRCLE
  5
126
100
AcDbEntity
  8
SOLDERMASK_PADS_BTM
100
AcDbCircle
 10
3000.0
 20
20100.0
 30
0.0
 40
2250.0
  0
LWPOLYLINE
  5
127
100
AcDbEntity
  8
SOLDERMASK_PADS_BTM
100
AcDbPolyline
 90
        4
 70
         1
 10
10200.0
 20
11250.0
 10
10200.0
 20
11750.0
 10
10600.0
 20
11750.0
 10
10600.0
 20
11250.0
  0
LWPOLYLINE
  5
128
100
AcDbEntity
  8
SOLDERMASK_PADS_BTM
100
AcDbPolyline
 90
        4
 70
         1
 10
11000.0
 20
11250.0
 10
11000.0
 20
11750.0
 10
11400.0
 20
11750.0
 10
11400.0
 20
11250.0
  0
LWPOLYLINE
  5
129
100
AcDbEntity
  8
SOLDERMASK_PADS_BTM
100
AcDbPolyline
 90
        4
 70
         1
 10
11000.0
 20
10500.0
 10
11000.0
 20
11000.0
 10
11400.0
 20
11000.0
 10
11400.0
 20
10500.0
  0
LWPOLYLINE
  5
12A
100
AcDbEntity
  8
SOLDERMASK_PADS_BTM
100
AcDbPolyline
 90
        4
 70
         1
 10
10200.0
 20
10500.0
 10
10200.0
 20
11000.0
 10
10600.0
 20
11000.0
 10
10600.0
 20
10500.0
  0
LWPOLYLINE
  5
12B
100
AcDbEntity
  8
SOLDERMASK_PADS_BTM
100
AcDbPolyline
 90
        4
 70
         1
 10
10080.584
 20
14590.257
 10
10080.584
 20
14990.257
 10
10580.584
 20
14990.257
 10
10580.584
 20
14590.257
  0
LWPOLYLINE
  5
12C
100
AcDbEntity
  8
SOLDERMASK_PADS_BTM
100
AcDbPolyline
 90
        4
 70
         1
 10
10080.584
 20
13790.257
 10
10080.584
 20
14190.257
 10
10580.584
 20
14190.257
 10
10580.584
 20
13790.257
  0
LWPOLYLINE
  5
12D
100
AcDbEntity
  8
SOLDERMASK_PADS_BTM
100
AcDbPolyline
 90
        4
 70
         1
 10
10880.584
 20
14590.257
 10
10880.584
 20
14990.257
 10
11380.584
 20
14990.257
 10
11380.584
 20
14590.257
  0
LWPOLYLINE
  5
12E
100
AcDbEntity
  8
SOLDERMASK_PADS_BTM
100
AcDbPolyline
 90
        4
 70
         1
 10
10880.584
 20
13790.257
 10
10880.584
 20
14190.257
 10
11380.584
 20
14190.257
 10
11380.584
 20
13790.257
  0
LWPOLYLINE
  5
12F
100
AcDbEntity
  8
SOLDERMASK_PADS_BTM
100
AcDbPolyline
 90
        4
 70
         1
 10
10306.897
 20
17600.257
 10
10306.897
 20
18100.257
 10
10706.897
 20
18100.257
 10
10706.897
 20
17600.257
  0
LWPOLYLINE
  5
130
100
AcDbEntity
  8
SOLDERMASK_PADS_BTM
100
AcDbPolyline
 90
        4
 70
         1
 10
9506.897
 20
17600.257
 10
9506.897
 20
18100.257
 10
9906.897
 20
18100.257
 10
9906.897
 20
17600.257
  0
LWPOLYLINE
  5
131
100
AcDbEntity
  8
SOLDERMASK_PADS_BTM
100
AcDbPolyline
 90
        4
 70
         1
 10
10500.0
 20
19140.0
 10
10500.0
 20
19640.0
 10
10900.0
 20
19640.0
 10
10900.0
 20
19140.0
  0
LWPOLYLINE
  5
132
100
AcDbEntity
  8
SOLDERMASK_PADS_BTM
100
AcDbPolyline
 90
        4
 70
         1
 10
9700.0
 20
19140.0
 10
9700.0
 20
19640.0
 10
10100.0
 20
19640.0
 10
10100.0
 20
19140.0
  0
LWPOLYLINE
  5
133
100
AcDbEntity
  8
SOLDERMASK_PADS_BTM
100
AcDbPolyline
 90
        4
 70
         1
 10
10500.0
 20
18400.0
 10
10500.0
 20
18900.0
 10
10900.0
 20
18900.0
 10
10900.0
 20
18400.0
  0
LWPOLYLINE
  5
134
100
AcDbEntity
  8
SOLDERMASK_PADS_BTM
100
AcDbPolyline
 90
        4
 70
         1
 10
9700.0
 20
18400.0
 10
9700.0
 20
18900.0
 10
10100.0
 20
18900.0
 10
10100.0
 20
18400.0
  0
LWPOLYLINE
  5
135
100
AcDbEntity
  8
SOLDERMASK_PADS_BTM
100
AcDbPolyline
 90
        4
 70
         1
 10
9208.01
 20
16550.614
 10
9208.01
 20
17050.614
 10
9608.01
 20
17050.614
 10
9608.01
 20
16550.614
  0
LWPOLYLINE
  5
136
100
AcDbEntity
  8
SOLDERMASK_PADS_BTM
100
AcDbPolyline
 90
        4
 70
         1
 10
10008.01
 20
16550.614
 10
10008.01
 20
17050.614
 10
10408.01
 20
17050.614
 10
10408.01
 20
16550.614
  0
LWPOLYLINE
  5
137
100
AcDbEntity
  8
SOLDERMASK_PADS_BTM
100
AcDbPolyline
 90
        4
 70
         1
 10
8906.897
 20
15740.257
 10
8906.897
 20
16240.257
 10
9306.897
 20
16240.257
 10
9306.897
 20
15740.257
  0
LWPOLYLINE
  5
138
100
AcDbEntity
  8
SOLDERMASK_PADS_BTM
100
AcDbPolyline
 90
        4
 70
         1
 10
9706.897
 20
15740.257
 10
9706.897
 20
16240.257
 10
10106.897
 20
16240.257
 10
10106.897
 20
15740.257
  0
LWPOLYLINE
  5
139
100
AcDbEntity
  8
SOLDERMASK_PADS_BTM
100
AcDbPolyline
 90
        4
 70
         1
 10
8140.257
 20
16493.103
 10
8140.257
 20
16893.103
 10
8640.257
 20
16893.103
 10
8640.257
 20
16493.103
  0
LWPOLYLINE
  5
13A
100
AcDbEntity
  8
SOLDERMASK_PADS_BTM
100
AcDbPolyline
 90
        4
 70
         1
 10
8140.257
 20
15693.103
 10
8140.257
 20
16093.103
 10
8640.257
 20
16093.103
 10
8640.257
 20
15693.103
  0
LWPOLYLINE
  5
13B
100
AcDbEntity
  8
SOLDERMASK_PADS_BTM
100
AcDbPolyline
 90
        4
 70
         1
 10
11340.257
 20
20993.103
 10
11340.257
 20
21493.103
 10
11740.257
 20
21493.103
 10
11740.257
 20
20993.103
  0
LWPOLYLINE
  5
13C
100
AcDbEntity
  8
SOLDERMASK_PADS_BTM
100
AcDbPolyline
 90
        4
 70
         1
 10
10540.257
 20
20993.103
 10
10540.257
 20
21493.103
 10
10940.257
 20
21493.103
 10
10940.257
 20
20993.103
  0
LWPOLYLINE
  5
13D
100
AcDbEntity
  8
SOLDERMASK_PADS_BTM
100
AcDbPolyline
 90
        4
 70
         1
 10
18956.897
 20
17909.743
 10
18956.897
 20
18409.743
 10
19356.897
 20
18409.743
 10
19356.897
 20
17909.743
  0
LWPOLYLINE
  5
13E
100
AcDbEntity
  8
SOLDERMASK_PADS_BTM
100
AcDbPolyline
 90
        4
 70
         1
 10
18156.897
 20
17909.743
 10
18156.897
 20
18409.743
 10
18556.897
 20
18409.743
 10
18556.897
 20
17909.743
  0
LWPOLYLINE
  5
13F
100
AcDbEntity
  8
SOLDERMASK_PADS_BTM
100
AcDbPolyline
 90
        4
 70
         1
 10
11940.257
 20
20393.103
 10
11940.257
 20
20893.103
 10
12340.257
 20
20893.103
 10
12340.257
 20
20393.103
  0
LWPOLYLINE
  5
140
100
AcDbEntity
  8
SOLDERMASK_PADS_BTM
100
AcDbPolyline
 90
        4
 70
         1
 10
12740.257
 20
20393.103
 10
12740.257
 20
20893.103
 10
13140.257
 20
20893.103
 10
13140.257
 20
20393.103
  0
LWPOLYLINE
  5
141
100
AcDbEntity
  8
SOLDERMASK_PADS_BTM
100
AcDbPolyline
 90
        4
 70
         1
 10
8190.257
 20
21656.897
 10
8190.257
 20
22156.897
 10
8590.257
 20
22156.897
 10
8590.257
 20
21656.897
  0
LWPOLYLINE
  5
142
100
AcDbEntity
  8
SOLDERMASK_PADS_BTM
100
AcDbPolyline
 90
        4
 70
         1
 10
8990.257
 20
21656.897
 10
8990.257
 20
22156.897
 10
9390.257
 20
22156.897
 10
9390.257
 20
21656.897
  0
CIRCLE
  5
143
100
AcDbEntity
  8
SOLDERMASK_PADS_BTM
100
AcDbCircle
 10
20100.0
 20
21700.0
 30
0.0
 40
800.0
  0
LWPOLYLINE
  5
144
100
AcDbEntity
  8
SOLDERMASK_PADS_BTM
100
AcDbPolyline
 90
        4
 70
         1
 10
17590.257
 20
15393.103
 10
17590.257
 20
15793.103
 10
18090.257
 20
15793.103
 10
18090.257
 20
15393.103
  0
LWPOLYLINE
  5
145
100
AcDbEntity
  8
SOLDERMASK_PADS_BTM
100
AcDbPolyline
 90
        4
 70
         1
 10
17590.257
 20
16193.103
 10
17590.257
 20
16593.103
 10
18090.257
 20
16593.103
 10
18090.257
 20
16193.103
  0
LWPOLYLINE
  5
146
100
AcDbEntity
  8
SOLDERMASK_PADS_BTM
100
AcDbPolyline
 90
        4
 70
         1
 10
14790.257
 20
16143.103
 10
14790.257
 20
16643.103
 10
15190.257
 20
16643.103
 10
15190.257
 20
16143.103
  0
LWPOLYLINE
  5
147
100
AcDbEntity
  8
SOLDERMASK_PADS_BTM
100
AcDbPolyline
 90
        4
 70
         1
 10
13990.257
 20
16143.103
 10
13990.257
 20
16643.103
 10
14390.257
 20
16643.103
 10
14390.257
 20
16143.103
  0
LWPOLYLINE
  5
148
100
AcDbEntity
  8
SOLDERMASK_PADS_BTM
100
AcDbPolyline
 90
        4
 70
         1
 10
12350.0
 20
17100.0
 10
12350.0
 20
17500.0
 10
12850.0
 20
17500.0
 10
12850.0
 20
17100.0
  0
LWPOLYLINE
  5
149
100
AcDbEntity
  8
SOLDERMASK_PADS_BTM
100
AcDbPolyline
 90
        4
 70
         1
 10
12350.0
 20
17900.0
 10
12350.0
 20
18300.0
 10
12850.0
 20
18300.0
 10
12850.0
 20
17900.0
  0
LWPOLYLINE
  5
14A
100
AcDbEntity
  8
SOLDERMASK_PADS_BTM
100
AcDbPolyline
 90
        4
 70
         1
 10
13150.0
 20
17100.0
 10
13150.0
 20
17500.0
 10
13650.0
 20
17500.0
 10
13650.0
 20
17100.0
  0
LWPOLYLINE
  5
14B
100
AcDbEntity
  8
SOLDERMASK_PADS_BTM
100
AcDbPolyline
 90
        4
 70
         1
 10
13150.0
 20
17900.0
 10
13150.0
 20
18300.0
 10
13650.0
 20
18300.0
 10
13650.0
 20
17900.0
  0
LWPOLYLINE
  5
14C
100
AcDbEntity
  8
SOLDERMASK_PADS_BTM
100
AcDbPolyline
 90
        4
 70
         1
 10
8140.0
 20
14610.0
 10
8140.0
 20
15010.0
 10
8640.0
 20
15010.0
 10
8640.0
 20
14610.0
  0
LWPOLYLINE
  5
14D
100
AcDbEntity
  8
SOLDERMASK_PADS_BTM
100
AcDbPolyline
 90
        4
 70
         1
 10
8140.0
 20
13810.0
 10
8140.0
 20
14210.0
 10
8640.0
 20
14210.0
 10
8640.0
 20
13810.0
  0
LWPOLYLINE
  5
14E
100
AcDbEntity
  8
SOLDERMASK_PADS_BTM
100
AcDbPolyline
 90
        4
 70
         1
 10
19140.257
 20
11043.103
 10
19140.257
 20
11543.103
 10
19540.257
 20
11543.103
 10
19540.257
 20
11043.103
  0
LWPOLYLINE
  5
14F
100
AcDbEntity
  8
SOLDERMASK_PADS_BTM
100
AcDbPolyline
 90
        4
 70
         1
 10
18340.257
 20
11043.103
 10
18340.257
 20
11543.103
 10
18740.257
 20
11543.103
 10
18740.257
 20
11043.103
  0
LWPOLYLINE
  5
150
100
AcDbEntity
  8
SOLDERMASK_PADS_BTM
100
AcDbPolyline
 90
        4
 70
         1
 10
19140.257
 20
10243.103
 10
19140.257
 20
10743.103
 10
19540.257
 20
10743.103
 10
19540.257
 20
10243.103
  0
LWPOLYLINE
  5
151
100
AcDbEntity
  8
SOLDERMASK_PADS_BTM
100
AcDbPolyline
 90
        4
 70
         1
 10
18340.257
 20
10243.103
 10
18340.257
 20
10743.103
 10
18740.257
 20
10743.103
 10
18740.257
 20
10243.103
  0
LWPOLYLINE
  5
152
100
AcDbEntity
  8
SOLDERMASK_PADS_BTM
100
AcDbPolyline
 90
        4
 70
         1
 10
16300.0
 20
9450.0
 10
16300.0
 20
9950.0
 10
16700.0
 20
9950.0
 10
16700.0
 20
9450.0
  0
LWPOLYLINE
  5
153
100
AcDbEntity
  8
SOLDERMASK_PADS_BTM
100
AcDbPolyline
 90
        4
 70
         1
 10
17100.0
 20
9450.0
 10
17100.0
 20
9950.0
 10
17500.0
 20
9950.0
 10
17500.0
 20
9450.0
  0
LWPOLYLINE
  5
154
100
AcDbEntity
  8
SOLDERMASK_PADS_BTM
100
AcDbPolyline
 90
        4
 70
         1
 10
13540.257
 20
14393.103
 10
13540.257
 20
14793.103
 10
14040.257
 20
14793.103
 10
14040.257
 20
14393.103
  0
LWPOLYLINE
  5
155
100
AcDbEntity
  8
SOLDERMASK_PADS_BTM
100
AcDbPolyline
 90
        4
 70
         1
 10
13540.257
 20
13593.103
 10
13540.257
 20
13993.103
 10
14040.257
 20
13993.103
 10
14040.257
 20
13593.103
  0
LWPOLYLINE
  5
156
100
AcDbEntity
  8
SOLDERMASK_PADS_BTM
100
AcDbPolyline
 90
        4
 70
         1
 10
14340.257
 20
14393.103
 10
14340.257
 20
14793.103
 10
14840.257
 20
14793.103
 10
14840.257
 20
14393.103
  0
LWPOLYLINE
  5
157
100
AcDbEntity
  8
SOLDERMASK_PADS_BTM
100
AcDbPolyline
 90
        4
 70
         1
 10
14340.257
 20
13593.103
 10
14340.257
 20
13993.103
 10
14840.257
 20
13993.103
 10
14840.257
 20
13593.103
  0
LWPOLYLINE
  5
158
100
AcDbEntity
  8
SOLDERMASK_PADS_BTM
100
AcDbPolyline
 90
        4
 70
         1
 10
15140.257
 20
14393.103
 10
15140.257
 20
14793.103
 10
15640.257
 20
14793.103
 10
15640.257
 20
14393.103
  0
LWPOLYLINE
  5
159
100
AcDbEntity
  8
SOLDERMASK_PADS_BTM
100
AcDbPolyline
 90
        4
 70
         1
 10
15140.257
 20
13593.103
 10
15140.257
 20
13993.103
 10
15640.257
 20
13993.103
 10
15640.257
 20
13593.103
  0
LWPOLYLINE
  5
15A
100
AcDbEntity
  8
SOLDERMASK_PADS_BTM
100
AcDbPolyline
 90
        4
 70
         1
 10
15940.257
 20
14393.103
 10
15940.257
 20
14793.103
 10
16440.257
 20
14793.103
 10
16440.257
 20
14393.103
  0
LWPOLYLINE
  5
15B
100
AcDbEntity
  8
SOLDERMASK_PADS_BTM
100
AcDbPolyline
 90
        4
 70
         1
 10
15940.257
 20
13593.103
 10
15940.257
 20
13993.103
 10
16440.257
 20
13993.103
 10
16440.257
 20
13593.103
  0
LWPOLYLINE
  5
15C
100
AcDbEntity
  8
SOLDERMASK_PADS_BTM
100
AcDbPolyline
 90
        4
 70
         1
 10
14490.257
 20
10243.103
 10
14490.257
 20
10743.103
 10
14890.257
 20
10743.103
 10
14890.257
 20
10243.103
  0
LWPOLYLINE
  5
15D
100
AcDbEntity
  8
SOLDERMASK_PADS_BTM
100
AcDbPolyline
 90
        4
 70
         1
 10
13690.257
 20
10243.103
 10
13690.257
 20
10743.103
 10
14090.257
 20
10743.103
 10
14090.257
 20
10243.103
  0
LWPOLYLINE
  5
15E
100
AcDbEntity
  8
SOLDERMASK_PADS_BTM
100
AcDbPolyline
 90
        4
 70
         1
 10
14490.257
 20
9443.103
 10
14490.257
 20
9943.103
 10
14890.257
 20
9943.103
 10
14890.257
 20
9443.103
  0
LWPOLYLINE
  5
15F
100
AcDbEntity
  8
SOLDERMASK_PADS_BTM
100
AcDbPolyline
 90
        4
 70
         1
 10
13690.257
 20
9443.103
 10
13690.257
 20
9943.103
 10
14090.257
 20
9943.103
 10
14090.257
 20
9443.103
  0
CIRCLE
  5
160
100
AcDbEntity
  8
SOLDERMASK_PADS_TOP
100
AcDbCircle
 10
20231.592
 20
4105.35
 30
0.0
 40
140.0
  0
CIRCLE
  5
161
100
AcDbEntity
  8
SOLDERMASK_PADS_TOP
100
AcDbCircle
 10
20231.592
 20
3305.346
 30
0.0
 40
140.0
  0
CIRCLE
  5
162
100
AcDbEntity
  8
SOLDERMASK_PADS_TOP
100
AcDbCircle
 10
20231.592
 20
2505.342
 30
0.0
 40
140.0
  0
CIRCLE
  5
163
100
AcDbEntity
  8
SOLDERMASK_PADS_TOP
100
AcDbCircle
 10
20273.228
 20
6395.764
 30
0.0
 40
140.0
  0
CIRCLE
  5
164
100
AcDbEntity
  8
SOLDERMASK_PADS_TOP
100
AcDbCircle
 10
20273.228
 20
5595.76
 30
0.0
 40
140.0
  0
CIRCLE
  5
165
100
AcDbEntity
  8
SOLDERMASK_PADS_TOP
100
AcDbCircle
 10
16693.798
 20
1344.037
 30
0.0
 40
140.0
  0
CIRCLE
  5
166
100
AcDbEntity
  8
SOLDERMASK_PADS_TOP
100
AcDbCircle
 10
17493.802
 20
1344.037
 30
0.0
 40
140.0
  0
CIRCLE
  5
167
100
AcDbEntity
  8
SOLDERMASK_PADS_TOP
100
AcDbCircle
 10
20051.7
 20
1462.029
 30
0.0
 40
140.0
  0
CIRCLE
  5
168
100
AcDbEntity
  8
SOLDERMASK_PADS_TOP
100
AcDbCircle
 10
19251.696
 20
1462.029
 30
0.0
 40
140.0
  0
CIRCLE
  5
169
100
AcDbEntity
  8
SOLDERMASK_PADS_TOP
100
AcDbCircle
 10
7795.579
 20
2296.745
 30
0.0
 40
140.0
  0
CIRCLE
  5
16A
100
AcDbEntity
  8
SOLDERMASK_PADS_TOP
100
AcDbCircle
 10
7358.389
 20
6283.325
 30
0.0
 40
140.0
  0
CIRCLE
  5
16B
100
AcDbEntity
  8
SOLDERMASK_PADS_TOP
100
AcDbCircle
 10
7210.189
 20
5297.795
 30
0.0
 40
140.0
  0
CIRCLE
  5
16C
100
AcDbEntity
  8
SOLDERMASK_PADS_TOP
100
AcDbCircle
 10
7254.649
 20
4356.725
 30
0.0
 40
140.0
  0
CIRCLE
  5
16D
100
AcDbEntity
  8
SOLDERMASK_PADS_TOP
100
AcDbCircle
 10
7306.519
 20
3408.245
 30
0.0
 40
140.0
  0
CIRCLE
  5
16E
100
AcDbEntity
  8
SOLDERMASK_PADS_TOP
100
AcDbCircle
 10
8075.863
 20
1170.37
 30
0.0
 40
140.0
  0
CIRCLE
  5
16F
100
AcDbEntity
  8
SOLDERMASK_PADS_TOP
100
AcDbCircle
 10
8979.883
 20
1209.89
 30
0.0
 40
140.0
  0
CIRCLE
  5
170
100
AcDbEntity
  8
SOLDERMASK_PADS_TOP
100
AcDbCircle
 10
7636.641
 20
13945.0
 30
0.0
 40
140.0
  0
CIRCLE
  5
171
100
AcDbEntity
  8
SOLDERMASK_PADS_TOP
100
AcDbCircle
 10
9872.73
 20
21870.498
 30
0.0
 40
140.0
  0
CIRCLE
  5
172
100
AcDbEntity
  8
SOLDERMASK_PADS_TOP
100
AcDbCircle
 10
14889.277
 20
1837.064
 30
0.0
 40
140.0
  0
CIRCLE
  5
173
100
AcDbEntity
  8
SOLDERMASK_PADS_TOP
100
AcDbCircle
 10
9177.469
 20
13836.032
 30
0.0
 40
140.0
  0
CIRCLE
  5
174
100
AcDbEntity
  8
SOLDERMASK_PADS_TOP
100
AcDbCircle
 10
17729.577
 20
10868.979
 30
0.0
 40
140.0
  0
CIRCLE
  5
175
100
AcDbEntity
  8
SOLDERMASK_PADS_TOP
100
AcDbCircle
 10
16984.539
 20
15363.782
 30
0.0
 40
140.0
  0
CIRCLE
  5
176
100
AcDbEntity
  8
SOLDERMASK_PADS_TOP
100
AcDbCircle
 10
16235.581
 20
11272.199
 30
0.0
 40
140.0
  0
CIRCLE
  5
177
100
AcDbEntity
  8
SOLDERMASK_PADS_TOP
100
AcDbCircle
 10
16952.757
 20
10472.237
 30
0.0
 40
140.0
  0
CIRCLE
  5
178
100
AcDbEntity
  8
SOLDERMASK_PADS_TOP
100
AcDbCircle
 10
14135.823
 20
15430.697
 30
0.0
 40
140.0
  0
CIRCLE
  5
179
100
AcDbEntity
  8
SOLDERMASK_PADS_TOP
100
AcDbCircle
 10
15067.134
 20
15479.393
 30
0.0
 40
140.0
  0
CIRCLE
  5
17A
100
AcDbEntity
  8
SOLDERMASK_PADS_TOP
100
AcDbCircle
 10
15955.836
 20
15400.262
 30
0.0
 40
140.0
  0
CIRCLE
  5
17B
100
AcDbEntity
  8
SOLDERMASK_PADS_TOP
100
AcDbCircle
 10
9564.242
 20
11365.46
 30
0.0
 40
140.0
  0
CIRCLE
  5
17C
100
AcDbEntity
  8
SOLDERMASK_PADS_TOP
100
AcDbCircle
 10
18736.613
 20
7243.642
 30
0.0
 40
140.0
  0
CIRCLE
  5
17D
100
AcDbEntity
  8
SOLDERMASK_PADS_TOP
100
AcDbCircle
 10
19179.426
 20
7995.841
 30
0.0
 40
140.0
  0
CIRCLE
  5
17E
100
AcDbEntity
  8
SOLDERMASK_PADS_TOP
100
AcDbCircle
 10
17927.625
 20
6070.978
 30
0.0
 40
140.0
  0
CIRCLE
  5
17F
100
AcDbEntity
  8
SOLDERMASK_PADS_TOP
100
AcDbCircle
 10
17946.589
 20
3359.126
 30
0.0
 40
140.0
  0
CIRCLE
  5
180
100
AcDbEntity
  8
SOLDERMASK_PADS_TOP
100
AcDbCircle
 10
14738.139
 20
5993.654
 30
0.0
 40
140.0
  0
CIRCLE
  5
181
100
AcDbEntity
  8
SOLDERMASK_PADS_TOP
100
AcDbCircle
 10
14731.818
 20
4590.392
 30
0.0
 40
140.0
  0
CIRCLE
  5
182
100
AcDbEntity
  8
SOLDERMASK_PADS_TOP
100
AcDbCircle
 10
14719.176
 20
3155.525
 30
0.0
 40
140.0
  0
CIRCLE
  5
183
100
AcDbEntity
  8
SOLDERMASK_PADS_TOP
100
AcDbCircle
 10
9856.276
 20
6452.916
 30
0.0
 40
140.0
  0
CIRCLE
  5
184
100
AcDbEntity
  8
SOLDERMASK_PADS_TOP
100
AcDbCircle
 10
9882.941
 20
5153.882
 30
0.0
 40
140.0
  0
CIRCLE
  5
185
100
AcDbEntity
  8
SOLDERMASK_PADS_TOP
100
AcDbCircle
 10
9835.531
 20
3807.438
 30
0.0
 40
140.0
  0
CIRCLE
  5
186
100
AcDbEntity
  8
SOLDERMASK_PADS_TOP
100
AcDbCircle
 10
9846.771
 20
2461.166
 30
0.0
 40
140.0
  0
CIRCLE
  5
187
100
AcDbEntity
  8
SOLDERMASK_PADS_TOP
100
AcDbCircle
 10
9826.662
 20
1159.007
 30
0.0
 40
140.0
  0
CIRCLE
  5
188
100
AcDbEntity
  8
SOLDERMASK_PADS_TOP
100
AcDbCircle
 10
16842.468
 20
11962.549
 30
0.0
 40
140.0
  0
CIRCLE
  5
189
100
AcDbEntity
  8
SOLDERMASK_PADS_TOP
100
AcDbCircle
 10
18807.662
 20
16816.283
 30
0.0
 40
140.0
  0
CIRCLE
  5
18A
100
AcDbEntity
  8
SOLDERMASK_PADS_TOP
100
AcDbCircle
 10
20237.024
 20
17177.649
 30
0.0
 40
140.0
  0
CIRCLE
  5
18B
100
AcDbEntity
  8
SOLDERMASK_PADS_TOP
100
AcDbCircle
 10
20227.542
 20
15745.867
 30
0.0
 40
140.0
  0
CIRCLE
  5
18C
100
AcDbEntity
  8
SOLDERMASK_PADS_TOP
100
AcDbCircle
 10
20218.06
 20
14560.617
 30
0.0
 40
140.0
  0
CIRCLE
  5
18D
100
AcDbEntity
  8
SOLDERMASK_PADS_TOP
100
AcDbCircle
 10
20275.0
 20
13365.885
 30
0.0
 40
140.0
  0
CIRCLE
  5
18E
100
AcDbEntity
  8
SOLDERMASK_PADS_TOP
100
AcDbCircle
 10
20218.06
 20
12265.973
 30
0.0
 40
140.0
  0
CIRCLE
  5
18F
100
AcDbEntity
  8
SOLDERMASK_PADS_TOP
100
AcDbCircle
 10
17997.166
 20
20469.379
 30
0.0
 40
140.0
  0
CIRCLE
  5
190
100
AcDbEntity
  8
SOLDERMASK_PADS_TOP
100
AcDbCircle
 10
15267.735
 20
20754.453
 30
0.0
 40
140.0
  0
CIRCLE
  5
191
100
AcDbEntity
  8
SOLDERMASK_PADS_TOP
100
AcDbCircle
 10
17259.836
 20
7319.582
 30
0.0
 40
140.0
  0
CIRCLE
  5
192
100
AcDbEntity
  8
SOLDERMASK_PADS_TOP
100
AcDbCircle
 10
14723.708
 20
7182.494
 30
0.0
 40
140.0
  0
CIRCLE
  5
193
100
AcDbEntity
  8
SOLDERMASK_PADS_TOP
100
AcDbCircle
 10
13401.788
 20
7233.001
 30
0.0
 40
140.0
  0
CIRCLE
  5
194
100
AcDbEntity
  8
SOLDERMASK_PADS_TOP
100
AcDbCircle
 10
10650.236
 20
7233.001
 30
0.0
 40
140.0
  0
CIRCLE
  5
195
100
AcDbEntity
  8
SOLDERMASK_PADS_TOP
100
AcDbCircle
 10
12060.284
 20
7233.001
 30
0.0
 40
140.0
  0
CIRCLE
  5
196
100
AcDbEntity
  8
SOLDERMASK_PADS_TOP
100
AcDbCircle
 10
18174.334
 20
8005.323
 30
0.0
 40
140.0
  0
CIRCLE
  5
197
100
AcDbEntity
  8
SOLDERMASK_PADS_TOP
100
AcDbCircle
 10
15939.004
 20
7291.294
 30
0.0
 40
140.0
  0
CIRCLE
  5
198
100
AcDbEntity
  8
SOLDERMASK_PADS_TOP
100
AcDbCircle
 10
7023.393
 20
2580.724
 30
0.0
 40
140.0
  0
CIRCLE
  5
199
100
AcDbEntity
  8
SOLDERMASK_PADS_TOP
100
AcDbCircle
 10
18757.893
 20
19668.103
 30
0.0
 40
140.0
  0
CIRCLE
  5
19A
100
AcDbEntity
  8
SOLDERMASK_PADS_TOP
100
AcDbCircle
 10
9081.036
 20
15246.032
 30
0.0
 40
140.0
  0
CIRCLE
  5
19B
100
AcDbEntity
  8
SOLDERMASK_PADS_TOP
100
AcDbCircle
 10
9397.755
 20
10554.992
 30
0.0
 40
140.0
  0
CIRCLE
  5
19C
100
AcDbEntity
  8
SOLDERMASK_PADS_TOP
100
AcDbCircle
 10
18500.126
 20
21846.232
 30
0.0
 40
140.0
  0
CIRCLE
  5
19D
100
AcDbEntity
  8
SOLDERMASK_PADS_TOP
100
AcDbCircle
 10
18208.701
 20
19002.907
 30
0.0
 40
140.0
  0
CIRCLE
  5
19E
100
AcDbEntity
  8
SOLDERMASK_PADS_TOP
100
AcDbCircle
 10
12315.257
 20
21368.103
 30
0.0
 40
140.0
  0
CIRCLE
  5
19F
100
AcDbEntity
  8
SOLDERMASK_PADS_TOP
100
AcDbCircle
 10
14724.32
 20
20083.918
 30
0.0
 40
140.0
  0
CIRCLE
  5
1A0
100
AcDbEntity
  8
SOLDERMASK_PADS_TOP
100
AcDbCircle
 10
12448.708
 20
19008.754
 30
0.0
 40
140.0
  0
CIRCLE
  5
1A1
100
AcDbEntity
  8
SOLDERMASK_PADS_TOP
100
AcDbCircle
 10
9005.019
 20
18227.987
 30
0.0
 40
140.0
  0
CIRCLE
  5
1A2
100
AcDbEntity
  8
SOLDERMASK_PADS_TOP
100
AcDbCircle
 10
7240.135
 20
1463.666
 30
0.0
 40
140.0
  0
CIRCLE
  5
1A3
100
AcDbEntity
  8
SOLDERMASK_PADS_TOP
100
AcDbCircle
 10
7543.537
 20
14739.565
 30
0.0
 40
140.0
  0
CIRCLE
  5
1A4
100
AcDbEntity
  8
SOLDERMASK_PADS_TOP
100
AcDbCircle
 10
9586.852
 20
14620.477
 30
0.0
 40
140.0
  0
CIRCLE
  5
1A5
100
AcDbEntity
  8
SOLDERMASK_PADS_TOP
100
AcDbCircle
 10
20119.119
 20
10372.566
 30
0.0
 40
140.0
  0
CIRCLE
  5
1A6
100
AcDbEntity
  8
SOLDERMASK_PADS_TOP
100
AcDbCircle
 10
20238.507
 20
11191.164
 30
0.0
 40
140.0
  0
CIRCLE
  5
1A7
100
AcDbEntity
  8
SOLDERMASK_PADS_TOP
100
AcDbCircle
 10
15514.227
 20
11618.103
 30
0.0
 40
140.0
  0
CIRCLE
  5
1A8
100
AcDbEntity
  8
SOLDERMASK_PADS_TOP
100
AcDbCircle
 10
14714.227
 20
11610.278
 30
0.0
 40
140.0
  0
CIRCLE
  5
1A9
100
AcDbEntity
  8
SOLDERMASK_PADS_TOP
100
AcDbCircle
 10
13914.227
 20
11558.136
 30
0.0
 40
140.0
  0
CIRCLE
  5
1AA
100
AcDbEntity
  8
SOLDERMASK_PADS_TOP
100
AcDbCircle
 10
10862.757
 20
10022.411
 30
0.0
 40
140.0
  0
CIRCLE
  5
1AB
100
AcDbEntity
  8
SOLDERMASK_PADS_TOP
100
AcDbCircle
 10
12025.0
 20
10375.999
 30
0.0
 40
140.0
  0
CIRCLE
  5
1AC
100
AcDbEntity
  8
SOLDERMASK_PADS_TOP
100
AcDbCircle
 10
13106.355
 20
11485.656
 30
0.0
 40
140.0
  0
CIRCLE
  5
1AD
100
AcDbEntity
  8
SOLDERMASK_PADS_TOP
100
AcDbCircle
 10
12712.633
 20
10789.248
 30
0.0
 40
140.0
  0
CIRCLE
  5
1AE
100
AcDbEntity
  8
SOLDERMASK_PADS_TOP
100
AcDbCircle
 10
19911.754
 20
18767.358
 30
0.0
 40
140.0
  0
CIRCLE
  5
1AF
100
AcDbEntity
  8
SOLDERMASK_PADS_TOP
100
AcDbCircle
 10
16951.257
 20
13032.35
 30
0.0
 40
140.0
  0
CIRCLE
  5
1B0
100
AcDbEntity
  8
SOLDERMASK_PADS_TOP
100
AcDbCircle
 10
17015.257
 20
14553.492
 30
0.0
 40
140.0
  0
CIRCLE
  5
1B1
100
AcDbEntity
  8
SOLDERMASK_PADS_TOP
100
AcDbCircle
 10
16960.191
 20
16520.603
 30
0.0
 40
140.0
  0
CIRCLE
  5
1B2
100
AcDbEntity
  8
SOLDERMASK_PADS_TOP
100
AcDbCircle
 10
14059.008
 20
20668.103
 30
0.0
 40
140.0
  0
CIRCLE
  5
1B3
100
AcDbEntity
  8
SOLDERMASK_PADS_TOP
100
AcDbCircle
 10
6078.618
 20
2769.679
 30
0.0
 40
140.0
  0
CIRCLE
  5
1B4
100
AcDbEntity
  8
SOLDERMASK_PADS_TOP
100
AcDbCircle
 10
5550.0
 20
5739.41
 30
0.0
 40
140.0
  0
CIRCLE
  5
1B5
100
AcDbEntity
  8
SOLDERMASK_PADS_TOP
100
AcDbCircle
 10
11437.672
 20
9465.955
 30
0.0
 40
140.0
  0
CIRCLE
  5
1B6
100
AcDbEntity
  8
SOLDERMASK_PADS_TOP
100
AcDbCircle
 10
18202.757
 20
9491.124
 30
0.0
 40
140.0
  0
CIRCLE
  5
1B7
100
AcDbEntity
  8
SOLDERMASK_PADS_TOP
100
AcDbCircle
 10
13281.514
 20
15232.541
 30
0.0
 40
140.0
  0
CIRCLE
  5
1B8
100
AcDbEntity
  8
SOLDERMASK_PADS_TOP
100
AcDbCircle
 10
5550.0
 20
7065.8
 30
0.0
 40
140.0
  0
CIRCLE
  5
1B9
100
AcDbEntity
  8
SOLDERMASK_PADS_TOP
100
AcDbCircle
 10
12968.027
 20
13694.651
 30
0.0
 40
140.0
  0
CIRCLE
  5
1BA
100
AcDbEntity
  8
SOLDERMASK_PADS_TOP
100
AcDbCircle
 10
5429.862
 20
9041.188
 30
0.0
 40
140.0
  0
CIRCLE
  5
1BB
100
AcDbEntity
  8
SOLDERMASK_PADS_TOP
100
AcDbCircle
 10
12911.794
 20
14492.673
 30
0.0
 40
140.0
  0
CIRCLE
  5
1BC
100
AcDbEntity
  8
SOLDERMASK_PADS_TOP
100
AcDbCircle
 10
12662.757
 20
12173.429
 30
0.0
 40
140.0
  0
CIRCLE
  5
1BD
100
AcDbEntity
  8
SOLDERMASK_PADS_TOP
100
AcDbCircle
 10
6044.169
 20
8184.71
 30
0.0
 40
140.0
  0
CIRCLE
  5
1BE
100
AcDbEntity
  8
SOLDERMASK_PADS_TOP
100
AcDbCircle
 10
13006.957
 20
12895.598
 30
0.0
 40
140.0
  0
CIRCLE
  5
1BF
100
AcDbEntity
  8
SOLDERMASK_PADS_TOP
100
AcDbCircle
 10
12584.333
 20
15624.893
 30
0.0
 40
140.0
  0
CIRCLE
  5
1C0
100
AcDbEntity
  8
SOLDERMASK_PADS_TOP
100
AcDbCircle
 10
8617.637
 20
20909.113
 30
0.0
 40
140.0
  0
CIRCLE
  5
1C1
100
AcDbEntity
  8
SOLDERMASK_PADS_TOP
100
AcDbCircle
 10
9150.892
 20
19321.047
 30
0.0
 40
140.0
  0
CIRCLE
  5
1C2
100
AcDbEntity
  8
SOLDERMASK_PADS_TOP
100
AcDbCircle
 10
18202.757
 20
17342.749
 30
0.0
 40
140.0
  0
CIRCLE
  5
1C3
100
AcDbEntity
  8
SOLDERMASK_PADS_TOP
100
AcDbCircle
 10
11927.757
 20
16194.893
 30
0.0
 40
140.0
  0
CIRCLE
  5
1C4
100
AcDbEntity
  8
SOLDERMASK_PADS_TOP
100
AcDbCircle
 10
12727.757
 20
16424.893
 30
0.0
 40
140.0
  0
CIRCLE
  5
1C5
100
AcDbEntity
  8
SOLDERMASK_PADS_TOP
100
AcDbCircle
 10
11428.876
 20
17420.603
 30
0.0
 40
140.0
  0
CIRCLE
  5
1C6
100
AcDbEntity
  8
SOLDERMASK_PADS_TOP
100
AcDbCircle
 10
10886.798
 20
16831.31
 30
0.0
 40
140.0
  0
CIRCLE
  5
1C7
100
AcDbEntity
  8
SOLDERMASK_PADS_TOP
100
AcDbCircle
 10
8805.129
 20
17453.361
 30
0.0
 40
140.0
  0
LWPOLYLINE
  5
1C8
100
AcDbEntity
  8
SOLDERMASK_PADS_TOP
100
AcDbPolyline
 90
        4
 70
         1
 10
19959.872
 20
4764.898
 10
19959.872
 20
5084.898
 10
20199.872
 20
5084.898
 10
20199.872
 20
4764.898
  0
LWPOLYLINE
  5
1C9
100
AcDbEntity
  8
SOLDERMASK_PADS_TOP
100
AcDbPolyline
 90
        4
 70
         1
 10
20339.872
 20
4764.898
 10
20339.872
 20
5084.898
 10
20579.872
 20
5084.898
 10
20579.872
 20
4764.898
  0
CIRCLE
  5
1CA
100
AcDbEntity
  8
SOLDERMASK_PADS_TOP
100
AcDbCircle
 10
6252.63
 20
1794.027
 30
0.0
 40
500.0
  0
CIRCLE
  5
1CB
100
AcDbEntity
  8
SOLDERMASK_PADS_TOP
100
AcDbCircle
 10
1300.0
 20
7700.0
 30
0.0
 40
800.0
  0
CIRCLE
  5
1CC
100
AcDbEntity
  8
SOLDERMASK_PADS_TOP
100
AcDbCircle
 10
1352.63
 20
15194.027
 30
0.0
 40
500.0
  0
CIRCLE
  5
1CD
100
AcDbEntity
  8
SOLDERMASK_PADS_TOP
100
AcDbCircle
 10
4335.0
 20
15215.0
 30
0.0
 40
500.0
  0
CIRCLE
  5
1CE
100
AcDbEntity
  8
SOLDERMASK_PADS_TOP
100
AcDbCircle
 10
3065.0
 20
15215.0
 30
0.0
 40
500.0
  0
CIRCLE
  5
1CF
100
AcDbEntity
  8
SOLDERMASK_PADS_TOP
100
AcDbCircle
 10
4335.0
 20
13945.0
 30
0.0
 40
500.0
  0
CIRCLE
  5
1D0
100
AcDbEntity
  8
SOLDERMASK_PADS_TOP
100
AcDbCircle
 10
3065.0
 20
13945.0
 30
0.0
 40
500.0
  0
CIRCLE
  5
1D1
100
AcDbEntity
  8
SOLDERMASK_PADS_TOP
100
AcDbCircle
 10
4335.0
 20
12675.0
 30
0.0
 40
500.0
  0
CIRCLE
  5
1D2
100
AcDbEntity
  8
SOLDERMASK_PADS_TOP
100
AcDbCircle
 10
3065.0
 20
12675.0
 30
0.0
 40
500.0
  0
CIRCLE
  5
1D3
100
AcDbEntity
  8
SOLDERMASK_PADS_TOP
100
AcDbCircle
 10
4335.0
 20
11405.0
 30
0.0
 40
500.0
  0
CIRCLE
  5
1D4
100
AcDbEntity
  8
SOLDERMASK_PADS_TOP
100
AcDbCircle
 10
3065.0
 20
11405.0
 30
0.0
 40
500.0
  0
CIRCLE
  5
1D5
100
AcDbEntity
  8
SOLDERMASK_PADS_TOP
100
AcDbCircle
 10
4335.0
 20
10135.0
 30
0.0
 40
500.0
  0
CIRCLE
  5
1D6
100
AcDbEntity
  8
SOLDERMASK_PADS_TOP
100
AcDbCircle
 10
3065.0
 20
10135.0
 30
0.0
 40
500.0
  0
CIRCLE
  5
1D7
100
AcDbEntity
  8
SOLDERMASK_PADS_TOP
100
AcDbCircle
 10
4335.0
 20
8865.0
 30
0.0
 40
500.0
  0
CIRCLE
  5
1D8
100
AcDbEntity
  8
SOLDERMASK_PADS_TOP
100
AcDbCircle
 10
3065.0
 20
8865.0
 30
0.0
 40
500.0
  0
CIRCLE
  5
1D9
100
AcDbEntity
  8
SOLDERMASK_PADS_TOP
100
AcDbCircle
 10
4335.0
 20
7595.0
 30
0.0
 40
500.0
  0
CIRCLE
  5
1DA
100
AcDbEntity
  8
SOLDERMASK_PADS_TOP
100
AcDbCircle
 10
3065.0
 20
7595.0
 30
0.0
 40
500.0
  0
CIRCLE
  5
1DB
100
AcDbEntity
  8
SOLDERMASK_PADS_TOP
100
AcDbCircle
 10
4335.0
 20
6325.0
 30
0.0
 40
500.0
  0
CIRCLE
  5
1DC
100
AcDbEntity
  8
SOLDERMASK_PADS_TOP
100
AcDbCircle
 10
3065.0
 20
6325.0
 30
0.0
 40
500.0
  0
CIRCLE
  5
1DD
100
AcDbEntity
  8
SOLDERMASK_PADS_TOP
100
AcDbCircle
 10
4335.0
 20
5055.0
 30
0.0
 40
500.0
  0
CIRCLE
  5
1DE
100
AcDbEntity
  8
SOLDERMASK_PADS_TOP
100
AcDbCircle
 10
3065.0
 20
5055.0
 30
0.0
 40
500.0
  0
CIRCLE
  5
1DF
100
AcDbEntity
  8
SOLDERMASK_PADS_TOP
100
AcDbCircle
 10
4335.0
 20
3785.0
 30
0.0
 40
500.0
  0
CIRCLE
  5
1E0
100
AcDbEntity
  8
SOLDERMASK_PADS_TOP
100
AcDbCircle
 10
3065.0
 20
3785.0
 30
0.0
 40
500.0
  0
CIRCLE
  5
1E1
100
AcDbEntity
  8
SOLDERMASK_PADS_TOP
100
AcDbCircle
 10
4335.0
 20
2515.0
 30
0.0
 40
500.0
  0
CIRCLE
  5
1E2
100
AcDbEntity
  8
SOLDERMASK_PADS_TOP
100
AcDbCircle
 10
3065.0
 20
2515.0
 30
0.0
 40
500.0
  0
CIRCLE
  5
1E3
100
AcDbEntity
  8
SOLDERMASK_PADS_TOP
100
AcDbCircle
 10
3000.0
 20
20100.0
 30
0.0
 40
2250.0
  0
LWPOLYLINE
  5
1E4
100
AcDbEntity
  8
SOLDERMASK_PADS_TOP
100
AcDbPolyline
 90
        4
 70
         1
 10
19290.257
 20
19243.103
 10
19290.257
 20
19643.103
 10
19790.257
 20
19643.103
 10
19790.257
 20
19243.103
  0
LWPOLYLINE
  5
1E5
100
AcDbEntity
  8
SOLDERMASK_PADS_TOP
100
AcDbPolyline
 90
        4
 70
         1
 10
19290.257
 20
20043.103
 10
19290.257
 20
20443.103
 10
19790.257
 20
20443.103
 10
19790.257
 20
20043.103
  0
LWPOLYLINE
  5
1E6
100
AcDbEntity
  8
SOLDERMASK_PADS_TOP
100
AcDbPolyline
 90
        4
 70
         1
 10
18392.757
 20
10555.603
 10
18392.757
 20
10830.603
 10
18717.757
 20
10830.603
 10
18717.757
 20
10555.603
  0
LWPOLYLINE
  5
1E7
100
AcDbEntity
  8
SOLDERMASK_PADS_TOP
100
AcDbPolyline
 90
        4
 70
         1
 10
18392.757
 20
11055.603
 10
18392.757
 20
11330.603
 10
18717.757
 20
11330.603
 10
18717.757
 20
11055.603
  0
LWPOLYLINE
  5
1E8
100
AcDbEntity
  8
SOLDERMASK_PADS_TOP
100
AcDbPolyline
 90
        4
 70
         1
 10
18392.757
 20
11555.603
 10
18392.757
 20
11830.603
 10
18717.757
 20
11830.603
 10
18717.757
 20
11555.603
  0
LWPOLYLINE
  5
1E9
100
AcDbEntity
  8
SOLDERMASK_PADS_TOP
100
AcDbPolyline
 90
        4
 70
         1
 10
18392.757
 20
12055.603
 10
18392.757
 20
12330.603
 10
18717.757
 20
12330.603
 10
18717.757
 20
12055.603
  0
LWPOLYLINE
  5
1EA
100
AcDbEntity
  8
SOLDERMASK_PADS_TOP
100
AcDbPolyline
 90
        4
 70
         1
 10
18392.757
 20
12555.603
 10
18392.757
 20
12830.603
 10
18717.757
 20
12830.603
 10
18717.757
 20
12555.603
  0
LWPOLYLINE
  5
1EB
100
AcDbEntity
  8
SOLDERMASK_PADS_TOP
100
AcDbPolyline
 90
        4
 70
         1
 10
18392.757
 20
13055.603
 10
18392.757
 20
13330.603
 10
18717.757
 20
13330.603
 10
18717.757
 20
13055.603
  0
LWPOLYLINE
  5
1EC
100
AcDbEntity
  8
SOLDERMASK_PADS_TOP
100
AcDbPolyline
 90
        4
 70
         1
 10
18392.757
 20
13555.603
 10
18392.757
 20
13830.603
 10
18717.757
 20
13830.603
 10
18717.757
 20
13555.603
  0
LWPOLYLINE
  5
1ED
100
AcDbEntity
  8
SOLDERMASK_PADS_TOP
100
AcDbPolyline
 90
        4
 70
         1
 10
18392.757
 20
14055.603
 10
18392.757
 20
14330.603
 10
18717.757
 20
14330.603
 10
18717.757
 20
14055.603
  0
LWPOLYLINE
  5
1EE
100
AcDbEntity
  8
SOLDERMASK_PADS_TOP
100
AcDbPolyline
 90
        4
 70
         1
 10
18392.757
 20
14555.603
 10
18392.757
 20
14830.603
 10
18717.757
 20
14830.603
 10
18717.757
 20
14555.603
  0
LWPOLYLINE
  5
1EF
100
AcDbEntity
  8
SOLDERMASK_PADS_TOP
100
AcDbPolyline
 90
        4
 70
         1
 10
18392.757
 20
15055.603
 10
18392.757
 20
15330.603
 10
18717.757
 20
15330.603
 10
18717.757
 20
15055.603
  0
LWPOLYLINE
  5
1F0
100
AcDbEntity
  8
SOLDERMASK_PADS_TOP
100
AcDbPolyline
 90
        4
 70
         1
 10
18392.757
 20
15555.603
 10
18392.757
 20
15830.603
 10
18717.757
 20
15830.603
 10
18717.757
 20
15555.603
  0
LWPOLYLINE
  5
1F1
100
AcDbEntity
  8
SOLDERMASK_PADS_TOP
100
AcDbPolyline
 90
        4
 70
         1
 10
18392.757
 20
16055.603
 10
18392.757
 20
16330.603
 10
18717.757
 20
16330.603
 10
18717.757
 20
16055.603
  0
LWPOLYLINE
  5
1F2
100
AcDbEntity
  8
SOLDERMASK_PADS_TOP
100
AcDbPolyline
 90
        4
 70
         1
 10
17452.757
 20
16995.603
 10
17452.757
 20
17320.603
 10
17727.757
 20
17320.603
 10
17727.757
 20
16995.603
  0
LWPOLYLINE
  5
1F3
100
AcDbEntity
  8
SOLDERMASK_PADS_TOP
100
AcDbPolyline
 90
        4
 70
         1
 10
16952.757
 20
16995.603
 10
16952.757
 20
17320.603
 10
17227.757
 20
17320.603
 10
17227.757
 20
16995.603
  0
LWPOLYLINE
  5
1F4
100
AcDbEntity
  8
SOLDERMASK_PADS_TOP
100
AcDbPolyline
 90
        4
 70
         1
 10
16452.757
 20
16995.603
 10
16452.757
 20
17320.603
 10
16727.757
 20
17320.603
 10
16727.757
 20
16995.603
  0
LWPOLYLINE
  5
1F5
100
AcDbEntity
  8
SOLDERMASK_PADS_TOP
100
AcDbPolyline
 90
        4
 70
         1
 10
15952.757
 20
16995.603
 10
15952.757
 20
17320.603
 10
16227.757
 20
17320.603
 10
16227.757
 20
16995.603
  0
LWPOLYLINE
  5
1F6
100
AcDbEntity
  8
SOLDERMASK_PADS_TOP
100
AcDbPolyline
 90
        4
 70
         1
 10
15452.757
 20
16995.603
 10
15452.757
 20
17320.603
 10
15727.757
 20
17320.603
 10
15727.757
 20
16995.603
  0
LWPOLYLINE
  5
1F7
100
AcDbEntity
  8
SOLDERMASK_PADS_TOP
100
AcDbPolyline
 90
        4
 70
         1
 10
14952.757
 20
16995.603
 10
14952.757
 20
17320.603
 10
15227.757
 20
17320.603
 10
15227.757
 20
16995.603
  0
LWPOLYLINE
  5
1F8
100
AcDbEntity
  8
SOLDERMASK_PADS_TOP
100
AcDbPolyline
 90
        4
 70
         1
 10
14452.757
 20
16995.603
 10
14452.757
 20
17320.603
 10
14727.757
 20
17320.603
 10
14727.757
 20
16995.603
  0
LWPOLYLINE
  5
1F9
100
AcDbEntity
  8
SOLDERMASK_PADS_TOP
100
AcDbPolyline
 90
        4
 70
         1
 10
13952.757
 20
16995.603
 10
13952.757
 20
17320.603
 10
14227.757
 20
17320.603
 10
14227.757
 20
16995.603
  0
LWPOLYLINE
  5
1FA
100
AcDbEntity
  8
SOLDERMASK_PADS_TOP
100
AcDbPolyline
 90
        4
 70
         1
 10
13452.757
 20
16995.603
 10
13452.757
 20
17320.603
 10
13727.757
 20
17320.603
 10
13727.757
 20
16995.603
  0
LWPOLYLINE
  5
1FB
100
AcDbEntity
  8
SOLDERMASK_PADS_TOP
100
AcDbPolyline
 90
        4
 70
         1
 10
12952.757
 20
16995.603
 10
12952.757
 20
17320.603
 10
13227.757
 20
17320.603
 10
13227.757
 20
16995.603
  0
LWPOLYLINE
  5
1FC
100
AcDbEntity
  8
SOLDERMASK_PADS_TOP
100
AcDbPolyline
 90
        4
 70
         1
 10
12452.757
 20
16995.603
 10
12452.757
 20
17320.603
 10
12727.757
 20
17320.603
 10
12727.757
 20
16995.603
  0
LWPOLYLINE
  5
1FD
100
AcDbEntity
  8
SOLDERMASK_PADS_TOP
100
AcDbPolyline
 90
        4
 70
         1
 10
11952.757
 20
16995.603
 10
11952.757
 20
17320.603
 10
12227.757
 20
17320.603
 10
12227.757
 20
16995.603
  0
LWPOLYLINE
  5
1FE
100
AcDbEntity
  8
SOLDERMASK_PADS_TOP
100
AcDbPolyline
 90
        4
 70
         1
 10
10962.757
 20
15555.603
 10
10962.757
 20
15830.603
 10
11287.757
 20
15830.603
 10
11287.757
 20
15555.603
  0
LWPOLYLINE
  5
1FF
100
AcDbEntity
  8
SOLDERMASK_PADS_TOP
100
AcDbPolyline
 90
        4
 70
         1
 10
10962.757
 20
15055.603
 10
10962.757
 20
15330.603
 10
11287.757
 20
15330.603
 10
11287.757
 20
15055.603
  0
LWPOLYLINE
  5
200
100
AcDbEntity
  8
SOLDERMASK_PADS_TOP
100
AcDbPolyline
 90
        4
 70
         1
 10
10962.757
 20
14555.603
 10
10962.757
 20
14830.603
 10
11287.757
 20
14830.603
 10
11287.757
 20
14555.603
  0
LWPOLYLINE
  5
201
100
AcDbEntity
  8
SOLDERMASK_PADS_TOP
100
AcDbPolyline
 90
        4
 70
         1
 10
10962.757
 20
14055.603
 10
10962.757
 20
14330.603
 10
11287.757
 20
14330.603
 10
11287.757
 20
14055.603
  0
LWPOLYLINE
  5
202
100
AcDbEntity
  8
SOLDERMASK_PADS_TOP
100
AcDbPolyline
 90
        4
 70
         1
 10
10962.757
 20
13555.603
 10
10962.757
 20
13830.603
 10
11287.757
 20
13830.603
 10
11287.757
 20
13555.603
  0
LWPOLYLINE
  5
203
100
AcDbEntity
  8
SOLDERMASK_PADS_TOP
100
AcDbPolyline
 90
        4
 70
         1
 10
10962.757
 20
13055.603
 10
10962.757
 20
13330.603
 10
11287.757
 20
13330.603
 10
11287.757
 20
13055.603
  0
LWPOLYLINE
  5
204
100
AcDbEntity
  8
SOLDERMASK_PADS_TOP
100
AcDbPolyline
 90
        4
 70
         1
 10
10962.757
 20
12555.603
 10
10962.757
 20
12830.603
 10
11287.757
 20
12830.603
 10
11287.757
 20
12555.603
  0
LWPOLYLINE
  5
205
100
AcDbEntity
  8
SOLDERMASK_PADS_TOP
100
AcDbPolyline
 90
        4
 70
         1
 10
10962.757
 20
12055.603
 10
10962.757
 20
12330.603
 10
11287.757
 20
12330.603
 10
11287.757
 20
12055.603
  0
LWPOLYLINE
  5
206
100
AcDbEntity
  8
SOLDERMASK_PADS_TOP
100
AcDbPolyline
 90
        4
 70
         1
 10
10962.757
 20
11555.603
 10
10962.757
 20
11830.603
 10
11287.757
 20
11830.603
 10
11287.757
 20
11555.603
  0
LWPOLYLINE
  5
207
100
AcDbEntity
  8
SOLDERMASK_PADS_TOP
100
AcDbPolyline
 90
        4
 70
         1
 10
10962.757
 20
11055.603
 10
10962.757
 20
11330.603
 10
11287.757
 20
11330.603
 10
11287.757
 20
11055.603
  0
LWPOLYLINE
  5
208
100
AcDbEntity
  8
SOLDERMASK_PADS_TOP
100
AcDbPolyline
 90
        4
 70
         1
 10
10962.757
 20
10555.603
 10
10962.757
 20
10830.603
 10
11287.757
 20
10830.603
 10
11287.757
 20
10555.603
  0
LWPOLYLINE
  5
209
100
AcDbEntity
  8
SOLDERMASK_PADS_TOP
100
AcDbPolyline
 90
        4
 70
         1
 10
11952.757
 20
9565.603
 10
11952.757
 20
9890.603
 10
12227.757
 20
9890.603
 10
12227.757
 20
9565.603
  0
LWPOLYLINE
  5
20A
100
AcDbEntity
  8
SOLDERMASK_PADS_TOP
100
AcDbPolyline
 90
        4
 70
         1
 10
12452.757
 20
9565.603
 10
12452.757
 20
9890.603
 10
12727.757
 20
9890.603
 10
12727.757
 20
9565.603
  0
LWPOLYLINE
  5
20B
100
AcDbEntity
  8
SOLDERMASK_PADS_TOP
100
AcDbPolyline
 90
        4
 70
         1
 10
12952.757
 20
9565.603
 10
12952.757
 20
9890.603
 10
13227.757
 20
9890.603
 10
13227.757
 20
9565.603
  0
LWPOLYLINE
  5
20C
100
AcDbEntity
  8
SOLDERMASK_PADS_TOP
100
AcDbPolyline
 90
        4
 70
         1
 10
13452.757
 20
9565.603
 10
13452.757
 20
9890.603
 10
13727.757
 20
9890.603
 10
13727.757
 20
9565.603
  0
LWPOLYLINE
  5
20D
100
AcDbEntity
  8
SOLDERMASK_PADS_TOP
100
AcDbPolyline
 90
        4
 70
         1
 10
13952.757
 20
9565.603
 10
13952.757
 20
9890.603
 10
14227.757
 20
9890.603
 10
14227.757
 20
9565.603
  0
LWPOLYLINE
  5
20E
100
AcDbEntity
  8
SOLDERMASK_PADS_TOP
100
AcDbPolyline
 90
        4
 70
         1
 10
14452.757
 20
9565.603
 10
14452.757
 20
9890.603
 10
14727.757
 20
9890.603
 10
14727.757
 20
9565.603
  0
LWPOLYLINE
  5
20F
100
AcDbEntity
  8
SOLDERMASK_PADS_TOP
100
AcDbPolyline
 90
        4
 70
         1
 10
14952.757
 20
9565.603
 10
14952.757
 20
9890.603
 10
15227.757
 20
9890.603
 10
15227.757
 20
9565.603
  0
LWPOLYLINE
  5
210
100
AcDbEntity
  8
SOLDERMASK_PADS_TOP
100
AcDbPolyline
 90
        4
 70
         1
 10
15452.757
 20
9565.603
 10
15452.757
 20
9890.603
 10
15727.757
 20
9890.603
 10
15727.757
 20
9565.603
  0
LWPOLYLINE
  5
211
100
AcDbEntity
  8
SOLDERMASK_PADS_TOP
100
AcDbPolyline
 90
        4
 70
         1
 10
15952.757
 20
9565.603
 10
15952.757
 20
9890.603
 10
16227.757
 20
9890.603
 10
16227.757
 20
9565.603
  0
LWPOLYLINE
  5
212
100
AcDbEntity
  8
SOLDERMASK_PADS_TOP
100
AcDbPolyline
 90
        4
 70
         1
 10
16452.757
 20
9565.603
 10
16452.757
 20
9890.603
 10
16727.757
 20
9890.603
 10
16727.757
 20
9565.603
  0
LWPOLYLINE
  5
213
100
AcDbEntity
  8
SOLDERMASK_PADS_TOP
100
AcDbPolyline
 90
        4
 70
         1
 10
16952.757
 20
9565.603
 10
16952.757
 20
9890.603
 10
17227.757
 20
9890.603
 10
17227.757
 20
9565.603
  0
LWPOLYLINE
  5
214
100
AcDbEntity
  8
SOLDERMASK_PADS_TOP
100
AcDbPolyline
 90
        4
 70
         1
 10
17452.757
 20
9565.603
 10
17452.757
 20
9890.603
 10
17727.757
 20
9890.603
 10
17727.757
 20
9565.603
  0
LWPOLYLINE
  5
215
100
AcDbEntity
  8
SOLDERMASK_PADS_TOP
100
AcDbPolyline
 90
        4
 70
         1
 10
19292.757
 20
9305.603
 10
19292.757
 20
9580.603
 10
19617.757
 20
9580.603
 10
19617.757
 20
9305.603
  0
LWPOLYLINE
  5
216
100
AcDbEntity
  8
SOLDERMASK_PADS_TOP
100
AcDbPolyline
 90
        4
 70
         1
 10
19292.757
 20
9805.603
 10
19292.757
 20
10080.603
 10
19617.757
 20
10080.603
 10
19617.757
 20
9805.603
  0
LWPOLYLINE
  5
217
100
AcDbEntity
  8
SOLDERMASK_PADS_TOP
100
AcDbPolyline
 90
        4
 70
         1
 10
19292.757
 20
10305.603
 10
19292.757
 20
10580.603
 10
19617.757
 20
10580.603
 10
19617.757
 20
10305.603
  0
LWPOLYLINE
  5
218
100
AcDbEntity
  8
SOLDERMASK_PADS_TOP
100
AcDbPolyline
 90
        4
 70
         1
 10
19292.757
 20
10805.603
 10
19292.757
 20
11080.603
 10
19617.757
 20
11080.603
 10
19617.757
 20
10805.603
  0
LWPOLYLINE
  5
219
100
AcDbEntity
  8
SOLDERMASK_PADS_TOP
100
AcDbPolyline
 90
        4
 70
         1
 10
19292.757
 20
11305.603
 10
19292.757
 20
11580.603
 10
19617.757
 20
11580.603
 10
19617.757
 20
11305.603
  0
LWPOLYLINE
  5
21A
100
AcDbEntity
  8
SOLDERMASK_PADS_TOP
100
AcDbPolyline
 90
        4
 70
         1
 10
19292.757
 20
11805.603
 10
19292.757
 20
12080.603
 10
19617.757
 20
12080.603
 10
19617.757
 20
11805.603
  0
LWPOLYLINE
  5
21B
100
AcDbEntity
  8
SOLDERMASK_PADS_TOP
100
AcDbPolyline
 90
        4
 70
         1
 10
19292.757
 20
12305.603
 10
19292.757
 20
12580.603
 10
19617.757
 20
12580.603
 10
19617.757
 20
12305.603
  0
LWPOLYLINE
  5
21C
100
AcDbEntity
  8
SOLDERMASK_PADS_TOP
100
AcDbPolyline
 90
        4
 70
         1
 10
19292.757
 20
12805.603
 10
19292.757
 20
13080.603
 10
19617.757
 20
13080.603
 10
19617.757
 20
12805.603
  0
LWPOLYLINE
  5
21D
100
AcDbEntity
  8
SOLDERMASK_PADS_TOP
100
AcDbPolyline
 90
        4
 70
         1
 10
19292.757
 20
13305.603
 10
19292.757
 20
13580.603
 10
19617.757
 20
13580.603
 10
19617.757
 20
13305.603
  0
LWPOLYLINE
  5
21E
100
AcDbEntity
  8
SOLDERMASK_PADS_TOP
100
AcDbPolyline
 90
        4
 70
         1
 10
19292.757
 20
13805.603
 10
19292.757
 20
14080.603
 10
19617.757
 20
14080.603
 10
19617.757
 20
13805.603
  0
LWPOLYLINE
  5
21F
100
AcDbEntity
  8
SOLDERMASK_PADS_TOP
100
AcDbPolyline
 90
        4
 70
         1
 10
19292.757
 20
14305.603
 10
19292.757
 20
14580.603
 10
19617.757
 20
14580.603
 10
19617.757
 20
14305.603
  0
LWPOLYLINE
  5
220
100
AcDbEntity
  8
SOLDERMASK_PADS_TOP
100
AcDbPolyline
 90
        4
 70
         1
 10
19292.757
 20
14805.603
 10
19292.757
 20
15080.603
 10
19617.757
 20
15080.603
 10
19617.757
 20
14805.603
  0
LWPOLYLINE
  5
221
100
AcDbEntity
  8
SOLDERMASK_PADS_TOP
100
AcDbPolyline
 90
        4
 70
         1
 10
19292.757
 20
15305.603
 10
19292.757
 20
15580.603
 10
19617.757
 20
15580.603
 10
19617.757
 20
15305.603
  0
LWPOLYLINE
  5
222
100
AcDbEntity
  8
SOLDERMASK_PADS_TOP
100
AcDbPolyline
 90
        4
 70
         1
 10
19292.757
 20
15805.603
 10
19292.757
 20
16080.603
 10
19617.757
 20
16080.603
 10
19617.757
 20
15805.603
  0
LWPOLYLINE
  5
223
100
AcDbEntity
  8
SOLDERMASK_PADS_TOP
100
AcDbPolyline
 90
        4
 70
         1
 10
19292.757
 20
16305.603
 10
19292.757
 20
16580.603
 10
19617.757
 20
16580.603
 10
19617.757
 20
16305.603
  0
LWPOLYLINE
  5
224
100
AcDbEntity
  8
SOLDERMASK_PADS_TOP
100
AcDbPolyline
 90
        4
 70
         1
 10
19292.757
 20
16805.603
 10
19292.757
 20
17080.603
 10
19617.757
 20
17080.603
 10
19617.757
 20
16805.603
  0
LWPOLYLINE
  5
225
100
AcDbEntity
  8
SOLDERMASK_PADS_TOP
100
AcDbPolyline
 90
        4
 70
         1
 10
19292.757
 20
17305.603
 10
19292.757
 20
17580.603
 10
19617.757
 20
17580.603
 10
19617.757
 20
17305.603
  0
LWPOLYLINE
  5
226
100
AcDbEntity
  8
SOLDERMASK_PADS_TOP
100
AcDbPolyline
 90
        4
 70
         1
 10
19278.257
 20
17881.103
 10
19278.257
 20
18305.103
 10
19702.257
 20
18305.103
 10
19702.257
 20
17881.103
  0
LWPOLYLINE
  5
227
100
AcDbEntity
  8
SOLDERMASK_PADS_TOP
100
AcDbPolyline
 90
        4
 70
         1
 10
18702.757
 20
17895.603
 10
18702.757
 20
18220.603
 10
18977.757
 20
18220.603
 10
18977.757
 20
17895.603
  0
LWPOLYLINE
  5
228
100
AcDbEntity
  8
SOLDERMASK_PADS_TOP
100
AcDbPolyline
 90
        4
 70
         1
 10
18202.757
 20
17895.603
 10
18202.757
 20
18220.603
 10
18477.757
 20
18220.603
 10
18477.757
 20
17895.603
  0
LWPOLYLINE
  5
229
100
AcDbEntity
  8
SOLDERMASK_PADS_TOP
100
AcDbPolyline
 90
        4
 70
         1
 10
17702.757
 20
17895.603
 10
17702.757
 20
18220.603
 10
17977.757
 20
18220.603
 10
17977.757
 20
17895.603
  0
LWPOLYLINE
  5
22A
100
AcDbEntity
  8
SOLDERMASK_PADS_TOP
100
AcDbPolyline
 90
        4
 70
         1
 10
17202.757
 20
17895.603
 10
17202.757
 20
18220.603
 10
17477.757
 20
18220.603
 10
17477.757
 20
17895.603
  0
LWPOLYLINE
  5
22B
100
AcDbEntity
  8
SOLDERMASK_PADS_TOP
100
AcDbPolyline
 90
        4
 70
         1
 10
16702.757
 20
17895.603
 10
16702.757
 20
18220.603
 10
16977.757
 20
18220.603
 10
16977.757
 20
17895.603
  0
LWPOLYLINE
  5
22C
100
AcDbEntity
  8
SOLDERMASK_PADS_TOP
100
AcDbPolyline
 90
        4
 70
         1
 10
16202.757
 20
17895.603
 10
16202.757
 20
18220.603
 10
16477.757
 20
18220.603
 10
16477.757
 20
17895.603
  0
LWPOLYLINE
  5
22D
100
AcDbEntity
  8
SOLDERMASK_PADS_TOP
100
AcDbPolyline
 90
        4
 70
         1
 10
15702.757
 20
17895.603
 10
15702.757
 20
18220.603
 10
15977.757
 20
18220.603
 10
15977.757
 20
17895.603
  0
LWPOLYLINE
  5
22E
100
AcDbEntity
  8
SOLDERMASK_PADS_TOP
100
AcDbPolyline
 90
        4
 70
         1
 10
15202.757
 20
17895.603
 10
15202.757
 20
18220.603
 10
15477.757
 20
18220.603
 10
15477.757
 20
17895.603
  0
LWPOLYLINE
  5
22F
100
AcDbEntity
  8
SOLDERMASK_PADS_TOP
100
AcDbPolyline
 90
        4
 70
         1
 10
14702.757
 20
17895.603
 10
14702.757
 20
18220.603
 10
14977.757
 20
18220.603
 10
14977.757
 20
17895.603
  0
LWPOLYLINE
  5
230
100
AcDbEntity
  8
SOLDERMASK_PADS_TOP
100
AcDbPolyline
 90
        4
 70
         1
 10
14202.757
 20
17895.603
 10
14202.757
 20
18220.603
 10
14477.757
 20
18220.603
 10
14477.757
 20
17895.603
  0
LWPOLYLINE
  5
231
100
AcDbEntity
  8
SOLDERMASK_PADS_TOP
100
AcDbPolyline
 90
        4
 70
         1
 10
13702.757
 20
17895.603
 10
13702.757
 20
18220.603
 10
13977.757
 20
18220.603
 10
13977.757
 20
17895.603
  0
LWPOLYLINE
  5
232
100
AcDbEntity
  8
SOLDERMASK_PADS_TOP
100
AcDbPolyline
 90
        4
 70
         1
 10
13202.757
 20
17895.603
 10
13202.757
 20
18220.603
 10
13477.757
 20
18220.603
 10
13477.757
 20
17895.603
  0
LWPOLYLINE
  5
233
100
AcDbEntity
  8
SOLDERMASK_PADS_TOP
100
AcDbPolyline
 90
        4
 70
         1
 10
12702.757
 20
17895.603
 10
12702.757
 20
18220.603
 10
12977.757
 20
18220.603
 10
12977.757
 20
17895.603
  0
LWPOLYLINE
  5
234
100
AcDbEntity
  8
SOLDERMASK_PADS_TOP
100
AcDbPolyline
 90
        4
 70
         1
 10
12202.757
 20
17895.603
 10
12202.757
 20
18220.603
 10
12477.757
 20
18220.603
 10
12477.757
 20
17895.603
  0
LWPOLYLINE
  5
235
100
AcDbEntity
  8
SOLDERMASK_PADS_TOP
100
AcDbPolyline
 90
        4
 70
         1
 10
11702.757
 20
17895.603
 10
11702.757
 20
18220.603
 10
11977.757
 20
18220.603
 10
11977.757
 20
17895.603
  0
LWPOLYLINE
  5
236
100
AcDbEntity
  8
SOLDERMASK_PADS_TOP
100
AcDbPolyline
 90
        4
 70
         1
 10
11202.757
 20
17895.603
 10
11202.757
 20
18220.603
 10
11477.757
 20
18220.603
 10
11477.757
 20
17895.603
  0
LWPOLYLINE
  5
237
100
AcDbEntity
  8
SOLDERMASK_PADS_TOP
100
AcDbPolyline
 90
        4
 70
         1
 10
10702.757
 20
17895.603
 10
10702.757
 20
18220.603
 10
10977.757
 20
18220.603
 10
10977.757
 20
17895.603
  0
LWPOLYLINE
  5
238
100
AcDbEntity
  8
SOLDERMASK_PADS_TOP
100
AcDbPolyline
 90
        4
 70
         1
 10
9978.257
 20
17881.103
 10
9978.257
 20
18305.103
 10
10402.257
 20
18305.103
 10
10402.257
 20
17881.103
  0
LWPOLYLINE
  5
239
100
AcDbEntity
  8
SOLDERMASK_PADS_TOP
100
AcDbPolyline
 90
        4
 70
         1
 10
10062.757
 20
17305.603
 10
10062.757
 20
17580.603
 10
10387.757
 20
17580.603
 10
10387.757
 20
17305.603
  0
LWPOLYLINE
  5
23A
100
AcDbEntity
  8
SOLDERMASK_PADS_TOP
100
AcDbPolyline
 90
        4
 70
         1
 10
10062.757
 20
16805.603
 10
10062.757
 20
17080.603
 10
10387.757
 20
17080.603
 10
10387.757
 20
16805.603
  0
LWPOLYLINE
  5
23B
100
AcDbEntity
  8
SOLDERMASK_PADS_TOP
100
AcDbPolyline
 90
        4
 70
         1
 10
10062.757
 20
16305.603
 10
10062.757
 20
16580.603
 10
10387.757
 20
16580.603
 10
10387.757
 20
16305.603
  0
LWPOLYLINE
  5
23C
100
AcDbEntity
  8
SOLDERMASK_PADS_TOP
100
AcDbPolyline
 90
        4
 70
         1
 10
10062.757
 20
15805.603
 10
10062.757
 20
16080.603
 10
10387.757
 20
16080.603
 10
10387.757
 20
15805.603
  0
LWPOLYLINE
  5
23D
100
AcDbEntity
  8
SOLDERMASK_PADS_TOP
100
AcDbPolyline
 90
        4
 70
         1
 10
10062.757
 20
15305.603
 10
10062.757
 20
15580.603
 10
10387.757
 20
15580.603
 10
10387.757
 20
15305.603
  0
LWPOLYLINE
  5
23E
100
AcDbEntity
  8
SOLDERMASK_PADS_TOP
100
AcDbPolyline
 90
        4
 70
         1
 10
10062.757
 20
14805.603
 10
10062.757
 20
15080.603
 10
10387.757
 20
15080.603
 10
10387.757
 20
14805.603
  0
LWPOLYLINE
  5
23F
100
AcDbEntity
  8
SOLDERMASK_PADS_TOP
100
AcDbPolyline
 90
        4
 70
         1
 10
10062.757
 20
14305.603
 10
10062.757
 20
14580.603
 10
10387.757
 20
14580.603
 10
10387.757
 20
14305.603
  0
LWPOLYLINE
  5
240
100
AcDbEntity
  8
SOLDERMASK_PADS_TOP
100
AcDbPolyline
 90
        4
 70
         1
 10
10062.757
 20
13805.603
 10
10062.757
 20
14080.603
 10
10387.757
 20
14080.603
 10
10387.757
 20
13805.603
  0
LWPOLYLINE
  5
241
100
AcDbEntity
  8
SOLDERMASK_PADS_TOP
100
AcDbPolyline
 90
        4
 70
         1
 10
10062.757
 20
13305.603
 10
10062.757
 20
13580.603
 10
10387.757
 20
13580.603
 10
10387.757
 20
13305.603
  0
LWPOLYLINE
  5
242
100
AcDbEntity
  8
SOLDERMASK_PADS_TOP
100
AcDbPolyline
 90
        4
 70
         1
 10
10062.757
 20
12805.603
 10
10062.757
 20
13080.603
 10
10387.757
 20
13080.603
 10
10387.757
 20
12805.603
  0
LWPOLYLINE
  5
243
100
AcDbEntity
  8
SOLDERMASK_PADS_TOP
100
AcDbPolyline
 90
        4
 70
         1
 10
10062.757
 20
12305.603
 10
10062.757
 20
12580.603
 10
10387.757
 20
12580.603
 10
10387.757
 20
12305.603
  0
LWPOLYLINE
  5
244
100
AcDbEntity
  8
SOLDERMASK_PADS_TOP
100
AcDbPolyline
 90
        4
 70
         1
 10
10062.757
 20
11805.603
 10
10062.757
 20
12080.603
 10
10387.757
 20
12080.603
 10
10387.757
 20
11805.603
  0
LWPOLYLINE
  5
245
100
AcDbEntity
  8
SOLDERMASK_PADS_TOP
100
AcDbPolyline
 90
        4
 70
         1
 10
10062.757
 20
11305.603
 10
10062.757
 20
11580.603
 10
10387.757
 20
11580.603
 10
10387.757
 20
11305.603
  0
LWPOLYLINE
  5
246
100
AcDbEntity
  8
SOLDERMASK_PADS_TOP
100
AcDbPolyline
 90
        4
 70
         1
 10
10062.757
 20
10805.603
 10
10062.757
 20
11080.603
 10
10387.757
 20
11080.603
 10
10387.757
 20
10805.603
  0
LWPOLYLINE
  5
247
100
AcDbEntity
  8
SOLDERMASK_PADS_TOP
100
AcDbPolyline
 90
        4
 70
         1
 10
10062.757
 20
10305.603
 10
10062.757
 20
10580.603
 10
10387.757
 20
10580.603
 10
10387.757
 20
10305.603
  0
LWPOLYLINE
  5
248
100
AcDbEntity
  8
SOLDERMASK_PADS_TOP
100
AcDbPolyline
 90
        4
 70
         1
 10
10062.757
 20
9805.603
 10
10062.757
 20
10080.603
 10
10387.757
 20
10080.603
 10
10387.757
 20
9805.603
  0
LWPOLYLINE
  5
249
100
AcDbEntity
  8
SOLDERMASK_PADS_TOP
100
AcDbPolyline
 90
        4
 70
         1
 10
10062.757
 20
9305.603
 10
10062.757
 20
9580.603
 10
10387.757
 20
9580.603
 10
10387.757
 20
9305.603
  0
LWPOLYLINE
  5
24A
100
AcDbEntity
  8
SOLDERMASK_PADS_TOP
100
AcDbPolyline
 90
        4
 70
         1
 10
9978.257
 20
8581.103
 10
9978.257
 20
9005.103
 10
10402.257
 20
9005.103
 10
10402.257
 20
8581.103
  0
LWPOLYLINE
  5
24B
100
AcDbEntity
  8
SOLDERMASK_PADS_TOP
100
AcDbPolyline
 90
        4
 70
         1
 10
10702.757
 20
8665.603
 10
10702.757
 20
8990.603
 10
10977.757
 20
8990.603
 10
10977.757
 20
8665.603
  0
LWPOLYLINE
  5
24C
100
AcDbEntity
  8
SOLDERMASK_PADS_TOP
100
AcDbPolyline
 90
        4
 70
         1
 10
11202.757
 20
8665.603
 10
11202.757
 20
8990.603
 10
11477.757
 20
8990.603
 10
11477.757
 20
8665.603
  0
LWPOLYLINE
  5
24D
100
AcDbEntity
  8
SOLDERMASK_PADS_TOP
100
AcDbPolyline
 90
        4
 70
         1
 10
11702.757
 20
8665.603
 10
11702.757
 20
8990.603
 10
11977.757
 20
8990.603
 10
11977.757
 20
8665.603
  0
LWPOLYLINE
  5
24E
100
AcDbEntity
  8
SOLDERMASK_PADS_TOP
100
AcDbPolyline
 90
        4
 70
         1
 10
12202.757
 20
8665.603
 10
12202.757
 20
8990.603
 10
12477.757
 20
8990.603
 10
12477.757
 20
8665.603
  0
LWPOLYLINE
  5
24F
100
AcDbEntity
  8
SOLDERMASK_PADS_TOP
100
AcDbPolyline
 90
        4
 70
         1
 10
12702.757
 20
8665.603
 10
12702.757
 20
8990.603
 10
12977.757
 20
8990.603
 10
12977.757
 20
8665.603
  0
LWPOLYLINE
  5
250
100
AcDbEntity
  8
SOLDERMASK_PADS_TOP
100
AcDbPolyline
 90
        4
 70
         1
 10
13202.757
 20
8665.603
 10
13202.757
 20
8990.603
 10
13477.757
 20
8990.603
 10
13477.757
 20
8665.603
  0
LWPOLYLINE
  5
251
100
AcDbEntity
  8
SOLDERMASK_PADS_TOP
100
AcDbPolyline
 90
        4
 70
         1
 10
13702.757
 20
8665.603
 10
13702.757
 20
8990.603
 10
13977.757
 20
8990.603
 10
13977.757
 20
8665.603
  0
LWPOLYLINE
  5
252
100
AcDbEntity
  8
SOLDERMASK_PADS_TOP
100
AcDbPolyline
 90
        4
 70
         1
 10
14202.757
 20
8665.603
 10
14202.757
 20
8990.603
 10
14477.757
 20
8990.603
 10
14477.757
 20
8665.603
  0
LWPOLYLINE
  5
253
100
AcDbEntity
  8
SOLDERMASK_PADS_TOP
100
AcDbPolyline
 90
        4
 70
         1
 10
14702.757
 20
8665.603
 10
14702.757
 20
8990.603
 10
14977.757
 20
8990.603
 10
14977.757
 20
8665.603
  0
LWPOLYLINE
  5
254
100
AcDbEntity
  8
SOLDERMASK_PADS_TOP
100
AcDbPolyline
 90
        4
 70
         1
 10
15202.757
 20
8665.603
 10
15202.757
 20
8990.603
 10
15477.757
 20
8990.603
 10
15477.757
 20
8665.603
  0
LWPOLYLINE
  5
255
100
AcDbEntity
  8
SOLDERMASK_PADS_TOP
100
AcDbPolyline
 90
        4
 70
         1
 10
15702.757
 20
8665.603
 10
15702.757
 20
8990.603
 10
15977.757
 20
8990.603
 10
15977.757
 20
8665.603
  0
LWPOLYLINE
  5
256
100
AcDbEntity
  8
SOLDERMASK_PADS_TOP
100
AcDbPolyline
 90
        4
 70
         1
 10
16202.757
 20
8665.603
 10
16202.757
 20
8990.603
 10
16477.757
 20
8990.603
 10
16477.757
 20
8665.603
  0
LWPOLYLINE
  5
257
100
AcDbEntity
  8
SOLDERMASK_PADS_TOP
100
AcDbPolyline
 90
        4
 70
         1
 10
16702.757
 20
8665.603
 10
16702.757
 20
8990.603
 10
16977.757
 20
8990.603
 10
16977.757
 20
8665.603
  0
LWPOLYLINE
  5
258
100
AcDbEntity
  8
SOLDERMASK_PADS_TOP
100
AcDbPolyline
 90
        4
 70
         1
 10
17202.757
 20
8665.603
 10
17202.757
 20
8990.603
 10
17477.757
 20
8990.603
 10
17477.757
 20
8665.603
  0
LWPOLYLINE
  5
259
100
AcDbEntity
  8
SOLDERMASK_PADS_TOP
100
AcDbPolyline
 90
        4
 70
         1
 10
17702.757
 20
8665.603
 10
17702.757
 20
8990.603
 10
17977.757
 20
8990.603
 10
17977.757
 20
8665.603
  0
LWPOLYLINE
  5
25A
100
AcDbEntity
  8
SOLDERMASK_PADS_TOP
100
AcDbPolyline
 90
        4
 70
         1
 10
18202.757
 20
8665.603
 10
18202.757
 20
8990.603
 10
18477.757
 20
8990.603
 10
18477.757
 20
8665.603
  0
LWPOLYLINE
  5
25B
100
AcDbEntity
  8
SOLDERMASK_PADS_TOP
100
AcDbPolyline
 90
        4
 70
         1
 10
18702.757
 20
8665.603
 10
18702.757
 20
8990.603
 10
18977.757
 20
8990.603
 10
18977.757
 20
8665.603
  0
LWPOLYLINE
  5
25C
100
AcDbEntity
  8
SOLDERMASK_PADS_TOP
100
AcDbPolyline
 90
        4
 70
         1
 10
19278.257
 20
8581.103
 10
19278.257
 20
9005.103
 10
19702.257
 20
9005.103
 10
19702.257
 20
8581.103
  0
LWPOLYLINE
  5
25D
100
AcDbEntity
  8
SOLDERMASK_PADS_TOP
100
AcDbPolyline
 90
        4
 70
         1
 10
17492.757
 20
11555.603
 10
17492.757
 20
11830.603
 10
17817.757
 20
11830.603
 10
17817.757
 20
11555.603
  0
LWPOLYLINE
  5
25E
100
AcDbEntity
  8
SOLDERMASK_PADS_TOP
100
AcDbPolyline
 90
        4
 70
         1
 10
17492.757
 20
12055.603
 10
17492.757
 20
12330.603
 10
17817.757
 20
12330.603
 10
17817.757
 20
12055.603
  0
LWPOLYLINE
  5
25F
100
AcDbEntity
  8
SOLDERMASK_PADS_TOP
100
AcDbPolyline
 90
        4
 70
         1
 10
17492.757
 20
12555.603
 10
17492.757
 20
12830.603
 10
17817.757
 20
12830.603
 10
17817.757
 20
12555.603
  0
LWPOLYLINE
  5
260
100
AcDbEntity
  8
SOLDERMASK_PADS_TOP
100
AcDbPolyline
 90
        4
 70
         1
 10
17492.757
 20
13055.603
 10
17492.757
 20
13330.603
 10
17817.757
 20
13330.603
 10
17817.757
 20
13055.603
  0
LWPOLYLINE
  5
261
100
AcDbEntity
  8
SOLDERMASK_PADS_TOP
100
AcDbPolyline
 90
        4
 70
         1
 10
17492.757
 20
13555.603
 10
17492.757
 20
13830.603
 10
17817.757
 20
13830.603
 10
17817.757
 20
13555.603
  0
LWPOLYLINE
  5
262
100
AcDbEntity
  8
SOLDERMASK_PADS_TOP
100
AcDbPolyline
 90
        4
 70
         1
 10
17492.757
 20
14055.603
 10
17492.757
 20
14330.603
 10
17817.757
 20
14330.603
 10
17817.757
 20
14055.603
  0
LWPOLYLINE
  5
263
100
AcDbEntity
  8
SOLDERMASK_PADS_TOP
100
AcDbPolyline
 90
        4
 70
         1
 10
17492.757
 20
14555.603
 10
17492.757
 20
14830.603
 10
17817.757
 20
14830.603
 10
17817.757
 20
14555.603
  0
LWPOLYLINE
  5
264
100
AcDbEntity
  8
SOLDERMASK_PADS_TOP
100
AcDbPolyline
 90
        4
 70
         1
 10
17492.757
 20
15055.603
 10
17492.757
 20
15330.603
 10
17817.757
 20
15330.603
 10
17817.757
 20
15055.603
  0
LWPOLYLINE
  5
265
100
AcDbEntity
  8
SOLDERMASK_PADS_TOP
100
AcDbPolyline
 90
        4
 70
         1
 10
16202.757
 20
16095.603
 10
16202.757
 20
16420.603
 10
16477.757
 20
16420.603
 10
16477.757
 20
16095.603
  0
LWPOLYLINE
  5
266
100
AcDbEntity
  8
SOLDERMASK_PADS_TOP
100
AcDbPolyline
 90
        4
 70
         1
 10
15702.757
 20
16095.603
 10
15702.757
 20
16420.603
 10
15977.757
 20
16420.603
 10
15977.757
 20
16095.603
  0
LWPOLYLINE
  5
267
100
AcDbEntity
  8
SOLDERMASK_PADS_TOP
100
AcDbPolyline
 90
        4
 70
         1
 10
15202.757
 20
16095.603
 10
15202.757
 20
16420.603
 10
15477.757
 20
16420.603
 10
15477.757
 20
16095.603
  0
LWPOLYLINE
  5
268
100
AcDbEntity
  8
SOLDERMASK_PADS_TOP
100
AcDbPolyline
 90
        4
 70
         1
 10
14702.757
 20
16095.603
 10
14702.757
 20
16420.603
 10
14977.757
 20
16420.603
 10
14977.757
 20
16095.603
  0
LWPOLYLINE
  5
269
100
AcDbEntity
  8
SOLDERMASK_PADS_TOP
100
AcDbPolyline
 90
        4
 70
         1
 10
14202.757
 20
16095.603
 10
14202.757
 20
16420.603
 10
14477.757
 20
16420.603
 10
14477.757
 20
16095.603
  0
LWPOLYLINE
  5
26A
100
AcDbEntity
  8
SOLDERMASK_PADS_TOP
100
AcDbPolyline
 90
        4
 70
         1
 10
13702.757
 20
16095.603
 10
13702.757
 20
16420.603
 10
13977.757
 20
16420.603
 10
13977.757
 20
16095.603
  0
LWPOLYLINE
  5
26B
100
AcDbEntity
  8
SOLDERMASK_PADS_TOP
100
AcDbPolyline
 90
        4
 70
         1
 10
13202.757
 20
16095.603
 10
13202.757
 20
16420.603
 10
13477.757
 20
16420.603
 10
13477.757
 20
16095.603
  0
LWPOLYLINE
  5
26C
100
AcDbEntity
  8
SOLDERMASK_PADS_TOP
100
AcDbPolyline
 90
        4
 70
         1
 10
11862.757
 20
15055.603
 10
11862.757
 20
15330.603
 10
12187.757
 20
15330.603
 10
12187.757
 20
15055.603
  0
LWPOLYLINE
  5
26D
100
AcDbEntity
  8
SOLDERMASK_PADS_TOP
100
AcDbPolyline
 90
        4
 70
         1
 10
11862.757
 20
14555.603
 10
11862.757
 20
14830.603
 10
12187.757
 20
14830.603
 10
12187.757
 20
14555.603
  0
LWPOLYLINE
  5
26E
100
AcDbEntity
  8
SOLDERMASK_PADS_TOP
100
AcDbPolyline
 90
        4
 70
         1
 10
11862.757
 20
14055.603
 10
11862.757
 20
14330.603
 10
12187.757
 20
14330.603
 10
12187.757
 20
14055.603
  0
LWPOLYLINE
  5
26F
100
AcDbEntity
  8
SOLDERMASK_PADS_TOP
100
AcDbPolyline
 90
        4
 70
         1
 10
11862.757
 20
13555.603
 10
11862.757
 20
13830.603
 10
12187.757
 20
13830.603
 10
12187.757
 20
13555.603
  0
LWPOLYLINE
  5
270
100
AcDbEntity
  8
SOLDERMASK_PADS_TOP
100
AcDbPolyline
 90
        4
 70
         1
 10
11862.757
 20
13055.603
 10
11862.757
 20
13330.603
 10
12187.757
 20
13330.603
 10
12187.757
 20
13055.603
  0
LWPOLYLINE
  5
271
100
AcDbEntity
  8
SOLDERMASK_PADS_TOP
100
AcDbPolyline
 90
        4
 70
         1
 10
11862.757
 20
12555.603
 10
11862.757
 20
12830.603
 10
12187.757
 20
12830.603
 10
12187.757
 20
12555.603
  0
LWPOLYLINE
  5
272
100
AcDbEntity
  8
SOLDERMASK_PADS_TOP
100
AcDbPolyline
 90
        4
 70
         1
 10
11862.757
 20
12055.603
 10
11862.757
 20
12330.603
 10
12187.757
 20
12330.603
 10
12187.757
 20
12055.603
  0
LWPOLYLINE
  5
273
100
AcDbEntity
  8
SOLDERMASK_PADS_TOP
100
AcDbPolyline
 90
        4
 70
         1
 10
11862.757
 20
11555.603
 10
11862.757
 20
11830.603
 10
12187.757
 20
11830.603
 10
12187.757
 20
11555.603
  0
LWPOLYLINE
  5
274
100
AcDbEntity
  8
SOLDERMASK_PADS_TOP
100
AcDbPolyline
 90
        4
 70
         1
 10
13490.257
 20
12093.103
 10
13490.257
 20
14793.103
 10
16190.257
 20
14793.103
 10
16190.257
 20
12093.103
  0
LWPOLYLINE
  5
275
100
AcDbEntity
  8
SOLDERMASK_PADS_TOP
100
AcDbPolyline
 90
        4
 70
         1
 10
13202.757
 20
10465.603
 10
13202.757
 20
10790.603
 10
13477.757
 20
10790.603
 10
13477.757
 20
10465.603
  0
LWPOLYLINE
  5
276
100
AcDbEntity
  8
SOLDERMASK_PADS_TOP
100
AcDbPolyline
 90
        4
 70
         1
 10
13702.757
 20
10465.603
 10
13702.757
 20
10790.603
 10
13977.757
 20
10790.603
 10
13977.757
 20
10465.603
  0
LWPOLYLINE
  5
277
100
AcDbEntity
  8
SOLDERMASK_PADS_TOP
100
AcDbPolyline
 90
        4
 70
         1
 10
14202.757
 20
10465.603
 10
14202.757
 20
10790.603
 10
14477.757
 20
10790.603
 10
14477.757
 20
10465.603
  0
LWPOLYLINE
  5
278
100
AcDbEntity
  8
SOLDERMASK_PADS_TOP
100
AcDbPolyline
 90
        4
 70
         1
 10
14702.757
 20
10465.603
 10
14702.757
 20
10790.603
 10
14977.757
 20
10790.603
 10
14977.757
 20
10465.603
  0
LWPOLYLINE
  5
279
100
AcDbEntity
  8
SOLDERMASK_PADS_TOP
100
AcDbPolyline
 90
        4
 70
         1
 10
15202.757
 20
10465.603
 10
15202.757
 20
10790.603
 10
15477.757
 20
10790.603
 10
15477.757
 20
10465.603
  0
LWPOLYLINE
  5
27A
100
AcDbEntity
  8
SOLDERMASK_PADS_TOP
100
AcDbPolyline
 90
        4
 70
         1
 10
15702.757
 20
10465.603
 10
15702.757
 20
10790.603
 10
15977.757
 20
10790.603
 10
15977.757
 20
10465.603
  0
LWPOLYLINE
  5
27B
100
AcDbEntity
  8
SOLDERMASK_PADS_TOP
100
AcDbPolyline
 90
        4
 70
         1
 10
16202.757
 20
10465.603
 10
16202.757
 20
10790.603
 10
16477.757
 20
10790.603
 10
16477.757
 20
10465.603
  0
LWPOLYLINE
  5
27C
100
AcDbEntity
  8
SOLDERMASK_PADS_TOP
100
AcDbPolyline
 90
        4
 70
         1
 10
10962.757
 20
16055.603
 10
10962.757
 20
16330.603
 10
11287.757
 20
16330.603
 10
11287.757
 20
16055.603
  0
LWPOLYLINE
  5
27D
100
AcDbEntity
  8
SOLDERMASK_PADS_TOP
100
AcDbPolyline
 90
        4
 70
         1
 10
13590.257
 20
21343.103
 10
13590.257
 20
21843.103
 10
13990.257
 20
21843.103
 10
13990.257
 20
21343.103
  0
LWPOLYLINE
  5
27E
100
AcDbEntity
  8
SOLDERMASK_PADS_TOP
100
AcDbPolyline
 90
        4
 70
         1
 10
12790.257
 20
21343.103
 10
12790.257
 20
21843.103
 10
13190.257
 20
21843.103
 10
13190.257
 20
21343.103
  0
LWPOLYLINE
  5
27F
100
AcDbEntity
  8
SOLDERMASK_PADS_TOP
100
AcDbPolyline
 90
        4
 70
         1
 10
18490.257
 20
20943.103
 10
18490.257
 20
21343.103
 10
18990.257
 20
21343.103
 10
18990.257
 20
20943.103
  0
LWPOLYLINE
  5
280
100
AcDbEntity
  8
SOLDERMASK_PADS_TOP
100
AcDbPolyline
 90
        4
 70
         1
 10
18490.257
 20
20143.103
 10
18490.257
 20
20543.103
 10
18990.257
 20
20543.103
 10
18990.257
 20
20143.103
  0
LWPOLYLINE
  5
281
100
AcDbEntity
  8
SOLDERMASK_PADS_TOP
100
AcDbPolyline
 90
        4
 70
         1
 10
19300.0
 20
20900.0
 10
19300.0
 20
22500.0
 10
20900.0
 20
22500.0
 10
20900.0
 20
20900.0
  0
LWPOLYLINE
  5
282
100
AcDbEntity
  8
SOLDERMASK_PADS_TOP
100
AcDbPolyline
 90
        4
 70
         1
 10
17455.257
 20
21243.103
 10
17455.257
 20
22043.103
 10
17725.257
 20
22043.103
 10
17725.257
 20
21243.103
  0
LWPOLYLINE
  5
283
100
AcDbEntity
  8
SOLDERMASK_PADS_TOP
100
AcDbPolyline
 90
        4
 70
         1
 10
16955.257
 20
21243.103
 10
16955.257
 20
22043.103
 10
17225.257
 20
22043.103
 10
17225.257
 20
21243.103
  0
LWPOLYLINE
  5
284
100
AcDbEntity
  8
SOLDERMASK_PADS_TOP
100
AcDbPolyline
 90
        4
 70
         1
 10
16455.257
 20
21243.103
 10
16455.257
 20
22043.103
 10
16725.257
 20
22043.103
 10
16725.257
 20
21243.103
  0
LWPOLYLINE
  5
285
100
AcDbEntity
  8
SOLDERMASK_PADS_TOP
100
AcDbPolyline
 90
        4
 70
         1
 10
15955.257
 20
21243.103
 10
15955.257
 20
22043.103
 10
16225.257
 20
22043.103
 10
16225.257
 20
21243.103
  0
LWPOLYLINE
  5
286
100
AcDbEntity
  8
SOLDERMASK_PADS_TOP
100
AcDbPolyline
 90
        4
 70
         1
 10
15455.257
 20
21243.103
 10
15455.257
 20
22043.103
 10
15725.257
 20
22043.103
 10
15725.257
 20
21243.103
  0
LWPOLYLINE
  5
287
100
AcDbEntity
  8
SOLDERMASK_PADS_TOP
100
AcDbPolyline
 90
        4
 70
         1
 10
14955.257
 20
21243.103
 10
14955.257
 20
22043.103
 10
15225.257
 20
22043.103
 10
15225.257
 20
21243.103
  0
LWPOLYLINE
  5
288
100
AcDbEntity
  8
SOLDERMASK_PADS_TOP
100
AcDbPolyline
 90
        4
 70
         1
 10
14955.257
 20
18843.103
 10
14955.257
 20
19643.103
 10
15225.257
 20
19643.103
 10
15225.257
 20
18843.103
  0
LWPOLYLINE
  5
289
100
AcDbEntity
  8
SOLDERMASK_PADS_TOP
100
AcDbPolyline
 90
        4
 70
         1
 10
15455.257
 20
18843.103
 10
15455.257
 20
19643.103
 10
15725.257
 20
19643.103
 10
15725.257
 20
18843.103
  0
LWPOLYLINE
  5
28A
100
AcDbEntity
  8
SOLDERMASK_PADS_TOP
100
AcDbPolyline
 90
        4
 70
         1
 10
15955.257
 20
18843.103
 10
15955.257
 20
19643.103
 10
16225.257
 20
19643.103
 10
16225.257
 20
18843.103
  0
LWPOLYLINE
  5
28B
100
AcDbEntity
  8
SOLDERMASK_PADS_TOP
100
AcDbPolyline
 90
        4
 70
         1
 10
16455.257
 20
18843.103
 10
16455.257
 20
19643.103
 10
16725.257
 20
19643.103
 10
16725.257
 20
18843.103
  0
LWPOLYLINE
  5
28C
100
AcDbEntity
  8
SOLDERMASK_PADS_TOP
100
AcDbPolyline
 90
        4
 70
         1
 10
16955.257
 20
18843.103
 10
16955.257
 20
19643.103
 10
17225.257
 20
19643.103
 10
17225.257
 20
18843.103
  0
LWPOLYLINE
  5
28D
100
AcDbEntity
  8
SOLDERMASK_PADS_TOP
100
AcDbPolyline
 90
        4
 70
         1
 10
17455.257
 20
18843.103
 10
17455.257
 20
19643.103
 10
17725.257
 20
19643.103
 10
17725.257
 20
18843.103
  0
LWPOLYLINE
  5
28E
100
AcDbEntity
  8
SOLDERMASK_PADS_TOP
100
AcDbPolyline
 90
        4
 70
         1
 10
19269.872
 20
3704.898
 10
19269.872
 20
4204.898
 10
19669.872
 20
4204.898
 10
19669.872
 20
3704.898
  0
LWPOLYLINE
  5
28F
100
AcDbEntity
  8
SOLDERMASK_PADS_TOP
100
AcDbPolyline
 90
        4
 70
         1
 10
18469.872
 20
3704.898
 10
18469.872
 20
4204.898
 10
18869.872
 20
4204.898
 10
18869.872
 20
3704.898
  0
LWPOLYLINE
  5
290
100
AcDbEntity
  8
SOLDERMASK_PADS_TOP
100
AcDbPolyline
 90
        4
 70
         1
 10
19220.129
 20
3748.001
 10
19220.129
 20
4148.001
 10
19720.129
 20
4148.001
 10
19720.129
 20
3748.001
  0
LWPOLYLINE
  5
291
100
AcDbEntity
  8
SOLDERMASK_PADS_TOP
100
AcDbPolyline
 90
        4
 70
         1
 10
19220.129
 20
2948.001
 10
19220.129
 20
3348.001
 10
19720.129
 20
3348.001
 10
19720.129
 20
2948.001
  0
LWPOLYLINE
  5
292
100
AcDbEntity
  8
SOLDERMASK_PADS_TOP
100
AcDbPolyline
 90
        4
 70
         1
 10
17317.499
 20
4363.974
 10
17317.499
 20
5363.974
 10
18317.499
 20
5363.974
 10
18317.499
 20
4363.974
  0
LWPOLYLINE
  5
293
100
AcDbEntity
  8
SOLDERMASK_PADS_TOP
100
AcDbPolyline
 90
        4
 70
         1
 10
15217.499
 20
5813.974
 10
15217.499
 20
6813.974
 10
17417.499
 20
6813.974
 10
17417.499
 20
5813.974
  0
LWPOLYLINE
  5
294
100
AcDbEntity
  8
SOLDERMASK_PADS_TOP
100
AcDbPolyline
 90
        4
 70
         1
 10
15217.499
 20
2913.974
 10
15217.499
 20
3913.974
 10
17417.499
 20
3913.974
 10
17417.499
 20
2913.974
  0
LWPOLYLINE
  5
295
100
AcDbEntity
  8
SOLDERMASK_PADS_TOP
100
AcDbPolyline
 90
        4
 70
         1
 10
19219.872
 20
6324.898
 10
19219.872
 20
6724.898
 10
19719.872
 20
6724.898
 10
19719.872
 20
6324.898
  0
LWPOLYLINE
  5
296
100
AcDbEntity
  8
SOLDERMASK_PADS_TOP
100
AcDbPolyline
 90
        4
 70
         1
 10
19219.872
 20
5524.898
 10
19219.872
 20
5924.898
 10
19719.872
 20
5924.898
 10
19719.872
 20
5524.898
  0
LWPOLYLINE
  5
297
100
AcDbEntity
  8
SOLDERMASK_PADS_TOP
100
AcDbPolyline
 90
        4
 70
         1
 10
18432.574
 20
5538.231
 10
18432.574
 20
5938.231
 10
18932.574
 20
5938.231
 10
18932.574
 20
5538.231
  0
LWPOLYLINE
  5
298
100
AcDbEntity
  8
SOLDERMASK_PADS_TOP
100
AcDbPolyline
 90
        4
 70
         1
 10
18432.574
 20
6338.231
 10
18432.574
 20
6738.231
 10
18932.574
 20
6738.231
 10
18932.574
 20
6338.231
  0
LWPOLYLINE
  5
299
100
AcDbEntity
  8
SOLDERMASK_PADS_TOP
100
AcDbPolyline
 90
        4
 70
         1
 10
13240.129
 20
858.001
 10
13240.129
 20
1458.001
 10
14340.129
 20
1458.001
 10
14340.129
 20
858.001
  0
LWPOLYLINE
  5
29A
100
AcDbEntity
  8
SOLDERMASK_PADS_TOP
100
AcDbPolyline
 90
        4
 70
         1
 10
10240.129
 20
858.001
 10
10240.129
 20
1458.001
 10
11340.129
 20
1458.001
 10
11340.129
 20
858.001
  0
LWPOLYLINE
  5
29B
100
AcDbEntity
  8
SOLDERMASK_PADS_TOP
100
AcDbPolyline
 90
        4
 70
         1
 10
10240.129
 20
2158.001
 10
10240.129
 20
2758.001
 10
11340.129
 20
2758.001
 10
11340.129
 20
2158.001
  0
LWPOLYLINE
  5
29C
100
AcDbEntity
  8
SOLDERMASK_PADS_TOP
100
AcDbPolyline
 90
        4
 70
         1
 10
13240.129
 20
2158.001
 10
13240.129
 20
2758.001
 10
14340.129
 20
2758.001
 10
14340.129
 20
2158.001
  0
LWPOLYLINE
  5
29D
100
AcDbEntity
  8
SOLDERMASK_PADS_TOP
100
AcDbPolyline
 90
        4
 70
         1
 10
15590.129
 20
2268.001
 10
15590.129
 20
2668.001
 10
16090.129
 20
2668.001
 10
16090.129
 20
2268.001
  0
LWPOLYLINE
  5
29E
100
AcDbEntity
  8
SOLDERMASK_PADS_TOP
100
AcDbPolyline
 90
        4
 70
         1
 10
15590.129
 20
1468.001
 10
15590.129
 20
1868.001
 10
16090.129
 20
1868.001
 10
16090.129
 20
1468.001
  0
LWPOLYLINE
  5
29F
100
AcDbEntity
  8
SOLDERMASK_PADS_TOP
100
AcDbPolyline
 90
        4
 70
         1
 10
17290.129
 20
2178.001
 10
17290.129
 20
2678.001
 10
17690.129
 20
2678.001
 10
17690.129
 20
2178.001
  0
LWPOLYLINE
  5
2A0
100
AcDbEntity
  8
SOLDERMASK_PADS_TOP
100
AcDbPolyline
 90
        4
 70
         1
 10
16490.129
 20
2178.001
 10
16490.129
 20
2678.001
 10
16890.129
 20
2678.001
 10
16890.129
 20
2178.001
  0
LWPOLYLINE
  5
2A1
100
AcDbEntity
  8
SOLDERMASK_PADS_TOP
100
AcDbPolyline
 90
        4
 70
         1
 10
18090.129
 20
2268.001
 10
18090.129
 20
2668.001
 10
18590.129
 20
2668.001
 10
18590.129
 20
2268.001
  0
LWPOLYLINE
  5
2A2
100
AcDbEntity
  8
SOLDERMASK_PADS_TOP
100
AcDbPolyline
 90
        4
 70
         1
 10
18090.129
 20
1468.001
 10
18090.129
 20
1868.001
 10
18590.129
 20
1868.001
 10
18590.129
 20
1468.001
  0
LWPOLYLINE
  5
2A3
100
AcDbEntity
  8
SOLDERMASK_PADS_TOP
100
AcDbPolyline
 90
        4
 70
         1
 10
13840.257
 20
19693.103
 10
13840.257
 20
20193.103
 10
14240.257
 20
20193.103
 10
14240.257
 20
19693.103
  0
LWPOLYLINE
  5
2A4
100
AcDbEntity
  8
SOLDERMASK_PADS_TOP
100
AcDbPolyline
 90
        4
 70
         1
 10
13040.257
 20
19693.103
 10
13040.257
 20
20193.103
 10
13440.257
 20
20193.103
 10
13440.257
 20
19693.103
  0
LWPOLYLINE
  5
2A5
100
AcDbEntity
  8
SOLDERMASK_PADS_TOP
100
AcDbPolyline
 90
        4
 70
         1
 10
13840.257
 20
18893.103
 10
13840.257
 20
19393.103
 10
14240.257
 20
19393.103
 10
14240.257
 20
18893.103
  0
LWPOLYLINE
  5
2A6
100
AcDbEntity
  8
SOLDERMASK_PADS_TOP
100
AcDbPolyline
 90
        4
 70
         1
 10
13040.257
 20
18893.103
 10
13040.257
 20
19393.103
 10
13440.257
 20
19393.103
 10
13440.257
 20
18893.103
  0
ENDSEC
  0
SECTION
  2
OBJECTS
  0
DICTIONARY
  5
19
100
AcDbDictionary
  3
ACAD_GROUP
350
1A
  3
ACAD_MLINESTYLE
350
1B
  0
DICTIONARY
  5
1A
102
{ACAD_REACTORS
330
19
102
}
100
AcDbDictionary
  0
DICTIONARY
  5
1B
102
{ACAD_REACTORS
330
19
102
}
100
AcDbDictionary
  3
STANDARD
350
1C
  0
MLINESTYLE
  5
1C
102
{ACAD_REACTORS
330
1B
102
}
100
AcDbMlineStyle
  2
STANDARD
 70
         0
  3

 62
         0
 51
90.0
 52
90.0
 71
         2
 49
0.5
 62
       256
  6
BYLAYER
 49
-0.5
 62
       256
  6
BYLAYER
  0
DICTIONARY
  5
22
102
{ACAD_REACTORS
330
19
102
}
100
AcDbDictionary
  0
ENDSEC
  0
EOF
