  0
SECTION
  2
HEADER
  9
$ACADVER
  1
AC1014
  9
$ACADMAINTVER
 70
         0
  9
$DWGCODEPAGE
  3
ANSI_1252
  9
$INSBASE
 10
0.0
 20
0.0
 30
0.0
  9
$EXTMIN
 10
0.0
 20
0.0
 30
0.0
  9
$EXTMAX
 10
76000.0
 20
27000.0
 30
0.0
  9
$LIMMIN
 10
0.0
 20
0.0
  9
$LIMMAX
 10
0.0
 20
0.0
  9
$ORTHOMODE
 70
         0
  9
$REGENMODE
 70
         1
  9
$FILLMODE
 70
         1
  9
$QTEXTMODE
 70
         0
  9
$MIRRTEXT
 70
         1
  9
$DRAGMODE
 70
         2
  9
$LTSCALE
 40
1.0
  9
$OSMODE
 70
         0
  9
$ATTMODE
 70
         1
  9
$TEXTSIZE
 40
0.2
  9
$TRACEWID
 40
0.05
  9
$TEXTSTYLE
  7
STANDARD
  9
$CLAYER
  8
0
  9
$CELTYPE
  6
CONTINUOUS
  9
$CECOLOR
 62
       256
  9
$CELTSCALE
 40
1.0
  9
$DELOBJ
 70
         1
  9
$DISPSILH
 70
         0
  9
$DIMSCALE
 40
1.0
  9
$DIMASZ
 40
0.18
  9
$DIMEXO
 40
0.0625
  9
$DIMDLI
 40
0.38
  9
$DIMRND
 40
0.0
  9
$DIMDLE
 40
0.0
  9
$DIMEXE
 40
0.18
  9
$DIMTP
 40
0.0
  9
$DIMTM
 40
0.0
  9
$DIMTXT
 40
0.18
  9
$DIMCEN
 40
0.09
  9
$DIMTSZ
 40
0.0
  9
$DIMTOL
 70
         0
  9
$DIMLIM
 70
         0
  9
$DIMTIH
 70
         1
  9
$DIMTOH
 70
         1
  9
$DIMSE1
 70
         0
  9
$DIMSE2
 70
         0
  9
$DIMTAD
 70
         0
  9
$DIMZIN
 70
         0
  9
$DIMBLK
  1

  9
$DIMASO
 70
         1
  9
$DIMSHO
 70
         1
  9
$DIMPOST
  1

  9
$DIMAPOST
  1

  9
$DIMALT
 70
         0
  9
$DIMALTD
 70
         2
  9
$DIMALTF
 40
25.4
  9
$DIMLFAC
 40
1.0
  9
$DIMTOFL
 70
         0
  9
$DIMTVP
 40
0.0
  9
$DIMTIX
 70
         0
  9
$DIMSOXD
 70
         0
  9
$DIMSAH
 70
         0
  9
$DIMBLK1
  1

  9
$DIMBLK2
  1

  9
$DIMSTYLE
  2
STANDARD
  9
$DIMCLRD
 70
         0
  9
$DIMCLRE
 70
         0
  9
$DIMCLRT
 70
         0
  9
$DIMTFAC
 40
1.0
  9
$DIMGAP
 40
0.09
  9
$DIMJUST
 70
         0
  9
$DIMSD1
 70
         0
  9
$DIMSD2
 70
         0
  9
$DIMTOLJ
 70
         1
  9
$DIMTZIN
 70
         0
  9
$DIMALTZ
 70
         0
  9
$DIMALTTZ
 70
         0
  9
$DIMFIT
 70
         3
  9
$DIMUPT
 70
         0
  9
$DIMUNIT
 70
         2
  9
$DIMDEC
 70
         4
  9
$DIMTDEC
 70
         4
  9
$DIMALTU
 70
         2
  9
$DIMALTTD
 70
         2
  9
$DIMTXSTY
  7
STANDARD
  9
$DIMAUNIT
 70
         0
  9
$LUNITS
 70
         2
  9
$LUPREC
 70
         4
  9
$SKETCHINC
 40
0.1
  9
$FILLETRAD
 40
0.0
  9
$AUNITS
 70
         0
  9
$AUPREC
 70
         0
  9
$MENU
  1
acad
  9
$ELEVATION
 40
0.0
  9
$PELEVATION
 40
0.0
  9
$THICKNESS
 40
0.0
  9
$LIMCHECK
 70
         0
  9
$BLIPMODE
 70
         1
  9
$CHAMFERA
 40
0.0
  9
$CHAMFERB
 40
0.0
  9
$CHAMFERC
 40
0.0
  9
$CHAMFERD
 40
0.0
  9
$SKPOLY
 70
         0
  9
$TDCREATE
 40
2456689.331203704
  9
$TDUPDATE
 40
0.000000000
  9
$TDINDWG
 40
0.0000000000
  9
$TDUSRTIMER
 40
0.0000000000
  9
$USRTIMER
 70
         1
  9
$ANGBASE
 50
0.0
  9
$ANGDIR
 70
         0
  9
$PDMODE
 70
         0
  9
$PDSIZE
 40
0.0
  9
$PLINEWID
 40
0.0
  9
$COORDS
 70
         0
  9
$SPLFRAME
 70
         0
  9
$SPLINETYPE
 70
         6
  9
$SPLINESEGS
 70
         8
  9
$ATTDIA
 70
         0
  9
$ATTREQ
 70
         1
  9
$HANDLING
 70
         1
  9
$HANDSEED
  5
48C
  9
$SURFTAB1
 70
         6
  9
$SURFTAB2
 70
         6
  9
$SURFTYPE
 70
         6
  9
$SURFU
 70
         6
  9
$SURFV
 70
         6
  9
$UCSNAME
  2

  9
$UCSORG
 10
0.0
 20
0.0
 30
0.0
  9
$UCSXDIR
 10
1.0
 20
0.0
 30
0.0
  9
$UCSYDIR
 10
0.0
 20
1.0
 30
0.0
  9
$PUCSNAME
  2

  9
$PUCSORG
 10
0.0
 20
0.0
 30
0.0
  9
$PUCSXDIR
 10
1.0
 20
0.0
 30
0.0
  9
$PUCSYDIR
 10
0.0
 20
1.0
 30
0.0
  9
$USERI1
 70
        -4
  9
$USERI2
 70
         0
  9
$USERI3
 70
         0
  9
$USERI4
 70
         0
  9
$USERI5
 70
         0
  9
$USERR1
 40
0.0
  9
$USERR2
 40
0.0
  9
$USERR3
 40
0.0
  9
$USERR4
 40
0.0
  9
$USERR5
 40
0.0
  9
$WORLDVIEW
 70
         1
  9
$SHADEDGE
 70
         3
  9
$SHADEDIF
 70
        70
  9
$TILEMODE
 70
         1
  9
$MAXACTVP
 70
        16
  9
$PINSBASE
 10
0.0
 20
0.0
 30
0.0
  9
$PLIMCHECK
 70
         0
  9
$PEXTMIN
 10
1.0000000000E+20
 20
1.0000000000E+20
 30
1.0000000000E+20
  9
$PEXTMAX
 10
-1.0000000000E+20
 20
-1.0000000000E+20
 30
-1.0000000000E+20
  9
$PLIMMIN
 10
0.0
 20
0.0
  9
$PLIMMAX
 10
12.0
 20
9.0
  9
$UNITMODE
 70
         0
  9
$VISRETAIN
 70
         0
  9
$PLINEGEN
 70
         1
  9
$PSLTSCALE
 70
         0
  9
$TREEDEPTH
 70
      3020
  9
$PICKSTYLE
 70
         1
  9
$CMLSTYLE
  2
STANDARD
  9
$CMLJUST
 70
         0
  9
$CMLSCALE
 40
1.0
  9
$PROXYGRAPHICS
 70
         0
  9
$MEASUREMENT
 70
         0
  0
ENDSEC
  0
SECTION
  2
CLASSES
  0
CLASS
  1
LWPOLYLINE
  2
AcDbPolyline
  3
"AutoCAD"
 90
        0
280
         0
281
         1
  0
CLASS
  1
IMAGE
  2
AcDbRasterImage
  3
ISM
 90
      127
280
         0
281
         1
  0
CLASS
  1
OLE2FRAME
  2
AcDbOle2Frame
  3
""
 90
        0
280
         0
281
         1
  0
CLASS
  1
HATCH
  2
AcDbHatch
  3
"ACAD_SEDONA"
 90
        0
280
         0
281
         1
  0
CLASS
  1
DICTIONARYVAR
  2
AcDbDictionaryVar
  3
"AutoCAD"
 90
        0
280
         0
281
         0
  0
CLASS
  1
RASTERVARIABLES
  2
AcDbRasterVariables
  3
ISM
 90
        0
280
         0
281
         0
  0
CLASS
  1
IMAGEDEF
  2
AcDbRasterImageDef
  3
ISM
 90
        0
280
         0
281
         0
  0
CLASS
  1
IMAGEDEF_REACTOR
  2
AcDbRasterImageDefReactor
  3
ISM
 90
        1
280
         0
281
         0
  0
CLASS
  1
IDBUFFER
  2
AcDbIdBuffer
  3
"Acad"
 90
        0
280
         0
281
         0
  0
CLASS
  1
SPATIAL_FILTER
  2
AcDbSpatialFilter
  3
"Acad"
 90
        0
280
         0
281
         0
  0
CLASS
  1
XRECORD
  2
AcDbXrecord
  3
"<Built In>"
 90
        0
280
         0
281
         0
  0
CLASS
  1
SORTENTSTABLE
  2
AcDbSortentsTable
  3
"AutoCAD"
 90
        0
280
         0
281
         0
  0
CLASS
  1
LAYER_INDEX
  2
AcDbLayerIndex
  3
"Acad"
 90
        0
280
         0
281
         0
  0
CLASS
  1
SPATIAL_INDEX
  2
AcDbSpatialIndex
  3
"Acad"
 90
        0
280
         0
281
         0
  0
CLASS
  1
OBJECT_PTR
  2
CAseDLPNTableRecord
  3
"ASE-LPNTableRecord"
 90
        1
280
         0
281
         0
  0
CLASS
  1
LAYOUT
  2
AcDbLayout
  3
"AutoCAD 2000"
 90
        0
280
         0
281
         0
  0
CLASS
  1
PLOTSETTINGS
  2
AcDbPlotSettings
  3
"AutoCAD 2000"
 90
        0
280
         0
281
         0
  0
CLASS
  1
ACDBDICTIONARYWDFLT
  2
AcDbDictionaryWithDefault
  3
"AutoCAD 2000"
 90
        0
280
         0
281
         0
  0
CLASS
  1
ACDBPLACEHOLDER
  2
AcDbPlaceHolder
  3
"AutoCAD 2000"
 90
        0
280
         0
281
         0
  0
CLASS
  1
VBA_PROJECT
  2
AcDbVbaProject
  3
"acadvba"
 90
        0
280
         0
281
         0
  0
CLASS
  1
WIPEOUT
  2
AcDbWipeout
  3
WipeOut|AutoCAD Express Tool|expresstools@autodesk.com
 90
      127
280
         0
281
         1
  0
CLASS
  1
WIPEOUTVARIABLES
  2
AcDbWipeoutVariables
  3
WipeOut|AutoCAD Express Tool|expresstools@autodesk.com
 90
        0
280
         0
281
         0
  0
CLASS
  1
RTEXT
  2
RText
  3
RText|AutoCAD Express Tool|expresstools@autodesk.com
 90
        0
280
         0
281
         1
  0
CLASS
  1
ARCALIGNEDTEXT
  2
AcDbArcAlignedText
  3
ATEXT|AutoCAD Express Tool|expresstools@autodesk.com
 90
        0
280
         0
281
         1
  0
ENDSEC
  0
SECTION
  2
TABLES
  0
TABLE
  2
VPORT
  5
7
100
AcDbSymbolTable
 70
         1
  0
VPORT
  5
15
100
AcDbSymbolTableRecord
100
AcDbViewportTableRecord
  2
*ACTIVE
 70
         0
 10
0.0
 20
0.0
 11
1.0
 21
1.0
 12
6.591288
 22
4.579184
 13
0.0
 23
0.0
 14
1.0
 24
1.0
 15
0.0
 25
0.0
 16
0.0
 26
0.0
 36
1.0
 17
0.0
 27
0.0
 37
0.0
 40
9.158369
 41
0.688564
 42
50.0
 43
0.0
 44
0.0
 50
0.0
 51
0.0
 71
         0
 72
       100
 73
         1
 74
         1
 75
         0
 76
         0
 77
         0
 78
         0
  0
ENDTAB
  0
TABLE
  2
LTYPE
  5
4
100
AcDbSymbolTable
 70
         3
  0
LTYPE
  5
11
100
AcDbSymbolTableRecord
100
AcDbLinetypeTableRecord
  2
BYBLOCK
 70
        64
  3

 72
        65
 73
         0
 40
0.0
  0
LTYPE
  5
12
100
AcDbSymbolTableRecord
100
AcDbLinetypeTableRecord
  2
BYLAYER
 70
        64
  3

 72
        65
 73
         0
 40
0.0
  0
LTYPE
  5
13
100
AcDbSymbolTableRecord
100
AcDbLinetypeTableRecord
  2
CONTINUOUS
 70
        64
  3
Solid line
 72
        65
 73
         0
 40
0.0
  0
ENDTAB
  0
TABLE
  2
LAYER
  5
2
100
AcDbSymbolTable
 70
         8
  0
LAYER
  5
14
100
AcDbSymbolTableRecord
100
AcDbLayerTableRecord
  2
0
 70
         0
 62
         7
  6
CONTINUOUS
  0
LAYER
  5
24
100
AcDbSymbolTableRecord
100
AcDbLayerTableRecord
  2
ASSEMBLY_OUTLINES_BTM
 70
         0
 62
       244
  6
CONTINUOUS
  0
LAYER
  5
25
100
AcDbSymbolTableRecord
100
AcDbLayerTableRecord
  2
ASSEMBLY_OUTLINES_TOP
 70
         0
 62
       104
  6
CONTINUOUS
  0
LAYER
  5
26
100
AcDbSymbolTableRecord
100
AcDbLayerTableRecord
  2
ASSEMBLY_REF_DES_BTM
 70
         0
 62
        10
  6
CONTINUOUS
  0
LAYER
  5
27
100
AcDbSymbolTableRecord
100
AcDbLayerTableRecord
  2
ASSEMBLY_REF_DES_TOP
 70
         0
 62
        30
  6
CONTINUOUS
  0
LAYER
  5
28
100
AcDbSymbolTableRecord
100
AcDbLayerTableRecord
  2
BOARD_OUTLINE
 70
         0
 62
        10
  6
CONTINUOUS
  0
LAYER
  5
29
100
AcDbSymbolTableRecord
100
AcDbLayerTableRecord
  2
SOLDERMASK_PADS_BTM
 70
         0
 62
       151
  6
CONTINUOUS
  0
LAYER
  5
2A
100
AcDbSymbolTableRecord
100
AcDbLayerTableRecord
  2
SOLDERMASK_PADS_TOP
 70
         0
 62
        81
  6
CONTINUOUS
  0
ENDTAB
  0
TABLE
  2
STYLE
  5
3
100
AcDbSymbolTable
 70
         2
  0
STYLE
  5
17
100
AcDbSymbolTableRecord
100
AcDbTextStyleTableRecord
  2
STANDARD
 70
         0
 40
0.0
 41
1.0
 50
0.0
 71
         0
 42
0.0
  3
txt
  4

  0
STYLE
  5
64
100
AcDbSymbolTableRecord
100
AcDbTextStyleTableRecord
  2
ARIAL
 70
         0
 40
0.0
 41
1.0
 50
0.0
 71
         0
 42
0.0
  3
ARIAL.TTF
  4

  0
ENDTAB
  0
TABLE
  2
VIEW
  5
5
100
AcDbSymbolTable
 70
         0
  0
ENDTAB
  0
TABLE
  2
UCS
  5
6
100
AcDbSymbolTable
 70
         0
  0
ENDTAB
  0
TABLE
  2
APPID
  5
8
100
AcDbSymbolTable
 70
         1
  0
APPID
  5
16
100
AcDbSymbolTableRecord
100
AcDbRegAppTableRecord
  2
ACAD
 70
         0
  0
ENDTAB
  0
TABLE
  2
DIMSTYLE
  5
9
100
AcDbSymbolTable
 70
         1
  0
DIMSTYLE
105
18
100
AcDbSymbolTableRecord
100
AcDbDimStyleTableRecord
  2
STANDARD
 70
         0
  3

  4

  5

  6

  7

 40
1.0
 41
0.18
 42
0.0625
 43
0.38
 44
0.18
 45
0.0
 46
0.0
 47
0.0
 48
0.0
 71
         0
 72
         0
 73
         1
 74
         1
 75
         0
 76
         0
 77
         0
 78
         0
140
0.18
141
0.09
142
0.0
143
25.4
144
1.0
145
0.0
146
1.0
147
0.09
170
         0
171
         2
172
         0
173
         0
174
         0
175
         0
176
         0
177
         0
178
         0
270
         2
271
         4
272
         4
273
         2
274
         2
275
         0
280
         0
281
         0
282
         0
283
         1
284
         0
285
         0
286
         0
287
         3
288
         0
340
17
  0
ENDTAB
  0
TABLE
  2
BLOCK_RECORD
  5
1
100
AcDbSymbolTable
 70
         0
  0
BLOCK_RECORD
  5
A
100
AcDbSymbolTableRecord
100
AcDbBlockTableRecord
  2
*MODEL_SPACE
  0
BLOCK_RECORD
  5
B
100
AcDbSymbolTableRecord
100
AcDbBlockTableRecord
  2
*PAPER_SPACE
  0
ENDTAB
  0
ENDSEC
  0
SECTION
  2
BLOCKS
  0
BLOCK
  5
D
100
AcDbEntity
  8
0
100
AcDbBlockBegin
  2
*MODEL_SPACE
 70
         0
 10
0.0
 20
0.0
 30
0.0
  3
*MODEL_SPACE
  1

  0
ENDBLK
  5
E
100
AcDbEntity
  8
0
100
AcDbBlockEnd
  0
BLOCK
  5
F
100
AcDbEntity
 67
         1
  8
0
100
AcDbBlockBegin
  2
*PAPER_SPACE
 70
         0
 10
0.0
 20
0.0
 30
0.0
  3
*PAPER_SPACE
  1

  0
ENDBLK
  5
10
100
AcDbEntity
 67
         1
  8
0
100
AcDbBlockEnd
  0
ENDSEC
  0
SECTION
  2
ENTITIES
  0
LWPOLYLINE
  5
2B
100
AcDbEntity
  8
ASSEMBLY_OUTLINES_BTM
100
AcDbPolyline
 90
        5
 70
         1
 43
200.0
 10
1950.0
 20
7160.0
 10
1950.0
 20
2080.0
 10
42590.0
 20
2080.0
 10
42590.0
 20
5890.0
 10
41320.0
 20
7160.0
  0
LWPOLYLINE
  5
2C
100
AcDbEntity
  8
ASSEMBLY_OUTLINES_TOP
100
AcDbPolyline
 90
        4
 70
         1
 43
100.0
 10
10065.0
 20
24910.0
 10
10065.0
 20
25710.0
 10
11665.0
 20
25710.0
 10
11665.0
 20
24910.0
  0
CIRCLE
  5
2D
100
AcDbEntity
  8
ASSEMBLY_OUTLINES_TOP
100
AcDbCircle
 10
10103.0
 20
24802.0
 30
0.0
 40
150.0
  0
HATCH
  5
2E
100
AcDbEntity
  8
ASSEMBLY_OUTLINES_TOP
100
AcDbHatch
 10
0.0
 20
0.0
 30
0.0
210
0.0
220
0.0
230
1.0
  2
SOLID
 70
         1
 71
         1
 91
        1
 92
        1
 93
        1
 72
         2
 10
10103.0
 20
24802.0
 40
150.0
 50
0.0
 51
360.0
 73
         1
 97
        1
330
2D
 75
         0
 76
         1
 98
        1
 10
0.0
 20
0.0
  0
LWPOLYLINE
  5
2F
100
AcDbEntity
  8
ASSEMBLY_OUTLINES_TOP
100
AcDbPolyline
 90
        4
 70
         0
 43
250.0
 10
11065.0
 20
22715.0
 10
11065.0
 20
22915.0
 10
10665.0
 20
22915.0
 10
10665.0
 20
22715.0
  0
LWPOLYLINE
  5
30
100
AcDbEntity
  8
ASSEMBLY_OUTLINES_TOP
100
AcDbPolyline
 90
        4
 70
         0
 43
250.0
 10
71680.0
 20
16070.0
 10
71880.0
 20
16070.0
 10
71880.0
 20
16470.0
 10
71680.0
 20
16470.0
  0
LWPOLYLINE
  5
31
100
AcDbEntity
  8
ASSEMBLY_OUTLINES_TOP
100
AcDbPolyline
 90
        4
 70
         0
 43
100.0
 10
63480.0
 20
20180.0
 10
63480.0
 20
18110.0
 10
62770.0
 20
18110.0
 10
62770.0
 20
20180.0
  0
LWPOLYLINE
  5
32
100
AcDbEntity
  8
ASSEMBLY_OUTLINES_TOP
100
AcDbPolyline
 90
        2
 70
         0
 43
100.0
 10
62970.0
 20
20340.0
 10
63290.0
 20
20340.0
  0
LWPOLYLINE
  5
33
100
AcDbEntity
  8
ASSEMBLY_OUTLINES_TOP
100
AcDbPolyline
 90
        7
 70
         1
 43
150.0
 10
24570.0
 20
20760.0
 10
24570.0
 20
19560.0
 10
23070.0
 20
19560.0
 10
23070.0
 20
20360.0
 10
23770.0
 20
20360.0
 10
23770.0
 20
21060.0
 10
24270.0
 20
21060.0
  0
LWPOLYLINE
  5
34
100
AcDbEntity
  8
ASSEMBLY_OUTLINES_TOP
100
AcDbPolyline
 90
        4
 70
         1
 10
22670.0
 20
22740.0
 10
22670.0
 20
25740.0
 10
25670.0
 20
25740.0
 10
25670.0
 20
22740.0
  0
LWPOLYLINE
  5
35
100
AcDbEntity
  8
ASSEMBLY_OUTLINES_TOP
100
AcDbPolyline
 90
        4
 70
         1
 10
61620.0
 20
22740.0
 10
61620.0
 20
25740.0
 10
64620.0
 20
25740.0
 10
64620.0
 20
22740.0
  0
LWPOLYLINE
  5
36
100
AcDbEntity
  8
ASSEMBLY_OUTLINES_TOP
100
AcDbPolyline
 90
        4
 70
         0
 43
250.0
 10
70760.0
 20
15730.0
 10
70760.0
 20
15930.0
 10
70360.0
 20
15930.0
 10
70360.0
 20
15730.0
  0
LWPOLYLINE
  5
37
100
AcDbEntity
  8
ASSEMBLY_OUTLINES_TOP
100
AcDbPolyline
 90
        4
 70
         0
 43
250.0
 10
11360.0
 20
21760.0
 10
11160.0
 20
21760.0
 10
11160.0
 20
21360.0
 10
11360.0
 20
21360.0
  0
LWPOLYLINE
  5
38
100
AcDbEntity
  8
ASSEMBLY_OUTLINES_TOP
100
AcDbPolyline
 90
        4
 70
         0
 43
250.0
 10
63381.455
 20
14560.0
 10
63381.455
 20
14360.0
 10
63781.455
 20
14360.0
 10
63781.455
 20
14560.0
  0
LWPOLYLINE
  5
39
100
AcDbEntity
  8
ASSEMBLY_OUTLINES_TOP
100
AcDbPolyline
 90
        4
 70
         1
 43
100.0
 10
49201.455
 20
3900.0
 10
49201.455
 20
17300.0
 10
62501.455
 20
17300.0
 10
62501.455
 20
3900.0
  0
LWPOLYLINE
  5
3A
100
AcDbEntity
  8
ASSEMBLY_OUTLINES_TOP
100
AcDbPolyline
 90
        3
 70
         1
 10
61185.455
 20
5520.0
 10
60423.455
 20
5266.0
 10
60423.455
 20
6028.0
  0
HATCH
  5
3B
100
AcDbEntity
  8
ASSEMBLY_OUTLINES_TOP
100
AcDbHatch
 10
0.0
 20
0.0
 30
0.0
210
0.0
220
0.0
230
1.0
  2
SOLID
 70
         1
 71
         1
 91
        1
 92
        2
 72
         0
 73
         1
 93
        3
 10
61185.455000000002
 20
5520.0
 10
60423.455000000002
 20
5266.0
 10
60423.455000000002
 20
6028.0
 97
        1
330
3A
 75
         0
 76
         1
 98
        1
 10
0.0
 20
0.0
  0
LWPOLYLINE
  5
3C
100
AcDbEntity
  8
ASSEMBLY_OUTLINES_TOP
100
AcDbPolyline
 90
        4
 70
         0
 43
250.0
 10
48451.455
 20
12200.0
 10
48451.455
 20
12400.0
 10
48051.455
 20
12400.0
 10
48051.455
 20
12200.0
  0
LWPOLYLINE
  5
3D
100
AcDbEntity
  8
ASSEMBLY_OUTLINES_TOP
100
AcDbPolyline
 90
        4
 70
         0
 43
250.0
 10
47551.455
 20
12200.0
 10
47551.455
 20
12400.0
 10
47151.455
 20
12400.0
 10
47151.455
 20
12200.0
  0
LWPOLYLINE
  5
3E
100
AcDbEntity
  8
ASSEMBLY_OUTLINES_TOP
100
AcDbPolyline
 90
        4
 70
         0
 43
250.0
 10
48401.455
 20
5940.0
 10
48401.455
 20
6140.0
 10
48001.455
 20
6140.0
 10
48001.455
 20
5940.0
  0
LWPOLYLINE
  5
3F
100
AcDbEntity
  8
ASSEMBLY_OUTLINES_TOP
100
AcDbPolyline
 90
        4
 70
         0
 43
200.0
 10
48371.455
 20
8450.0
 10
48371.455
 20
8050.0
 10
47171.455
 20
8050.0
 10
47171.455
 20
8450.0
  0
LWPOLYLINE
  5
40
100
AcDbEntity
  8
ASSEMBLY_OUTLINES_TOP
100
AcDbPolyline
 90
        4
 70
         1
 43
150.0
 10
45811.455
 20
13580.0
 10
45811.455
 20
17180.0
 10
48211.455
 20
17180.0
 10
48211.455
 20
13580.0
  0
LWPOLYLINE
  5
41
100
AcDbEntity
  8
ASSEMBLY_OUTLINES_TOP
100
AcDbPolyline
 90
        3
 70
         1
 10
45811.455
 20
17180.0
 10
46436.454
 20
17180.0
 10
45811.455
 20
16680.001
  0
HATCH
  5
42
100
AcDbEntity
  8
ASSEMBLY_OUTLINES_TOP
100
AcDbHatch
 10
0.0
 20
0.0
 30
0.0
210
0.0
220
0.0
230
1.0
  2
SOLID
 70
         1
 71
         1
 91
        1
 92
        2
 72
         0
 73
         1
 93
        3
 10
45811.455000000002
 20
17180.0
 10
46436.453999999998
 20
17180.0
 10
45811.455000000002
 20
16680.001
 97
        1
330
41
 75
         0
 76
         1
 98
        1
 10
0.0
 20
0.0
  0
CIRCLE
  5
43
100
AcDbEntity
  8
ASSEMBLY_OUTLINES_TOP
100
AcDbCircle
 10
46611.455
 20
16780.0
 30
0.0
 40
200.0
  0
HATCH
  5
44
100
AcDbEntity
  8
ASSEMBLY_OUTLINES_TOP
100
AcDbHatch
 10
0.0
 20
0.0
 30
0.0
210
0.0
220
0.0
230
1.0
  2
SOLID
 70
         1
 71
         1
 91
        1
 92
        1
 93
        1
 72
         2
 10
46611.455000000002
 20
16780.0
 40
200.0
 50
0.0
 51
360.0
 73
         1
 97
        1
330
43
 75
         0
 76
         1
 98
        1
 10
0.0
 20
0.0
  0
LWPOLYLINE
  5
45
100
AcDbEntity
  8
ASSEMBLY_OUTLINES_TOP
100
AcDbPolyline
 90
        4
 70
         0
 43
250.0
 10
44871.455
 20
15310.0
 10
44871.455
 20
15510.0
 10
44471.455
 20
15510.0
 10
44471.455
 20
15310.0
  0
LWPOLYLINE
  5
46
100
AcDbEntity
  8
ASSEMBLY_OUTLINES_TOP
100
AcDbPolyline
 90
        4
 70
         0
 43
250.0
 10
21450.0
 20
17020.0
 10
21250.0
 20
17020.0
 10
21250.0
 20
16620.0
 10
21450.0
 20
16620.0
  0
LWPOLYLINE
  5
47
100
AcDbEntity
  8
ASSEMBLY_OUTLINES_TOP
100
AcDbPolyline
 90
        4
 70
         0
 43
250.0
 10
39760.0
 20
10430.0
 10
39560.0
 20
10430.0
 10
39560.0
 20
10030.0
 10
39760.0
 20
10030.0
  0
LWPOLYLINE
  5
48
100
AcDbEntity
  8
ASSEMBLY_OUTLINES_TOP
100
AcDbPolyline
 90
        5
 70
         1
 43
100.0
 10
20910.0
 20
15320.0
 10
21110.0
 20
15520.0
 10
24510.0
 20
15520.0
 10
24510.0
 20
9920.0
 10
20910.0
 20
9920.0
  0
CIRCLE
  5
49
100
AcDbEntity
  8
ASSEMBLY_OUTLINES_TOP
100
AcDbCircle
 10
21310.0
 20
15970.0
 30
0.0
 40
350.0
  0
HATCH
  5
4A
100
AcDbEntity
  8
ASSEMBLY_OUTLINES_TOP
100
AcDbHatch
 10
0.0
 20
0.0
 30
0.0
210
0.0
220
0.0
230
1.0
  2
SOLID
 70
         1
 71
         1
 91
        1
 92
        1
 93
        1
 72
         2
 10
21310.0
 20
15970.0
 40
350.0
 50
0.0
 51
360.0
 73
         1
 97
        1
330
49
 75
         0
 76
         1
 98
        1
 10
0.0
 20
0.0
  0
LWPOLYLINE
  5
4B
100
AcDbEntity
  8
ASSEMBLY_OUTLINES_TOP
100
AcDbPolyline
 90
        4
 70
         0
 43
250.0
 10
24160.0
 20
17020.0
 10
23960.0
 20
17020.0
 10
23960.0
 20
16620.0
 10
24160.0
 20
16620.0
  0
LWPOLYLINE
  5
4C
100
AcDbEntity
  8
ASSEMBLY_OUTLINES_TOP
100
AcDbPolyline
 90
        2
 70
         1
 43
200.0
 10
31910.0
 20
14030.0
 42
-1.0
 10
32410.0
 20
14030.0
 42
-1.0
  0
LWPOLYLINE
  5
4D
100
AcDbEntity
  8
ASSEMBLY_OUTLINES_TOP
100
AcDbPolyline
 90
        4
 70
         1
 43
150.0
 10
31840.0
 20
13710.0
 10
31840.0
 20
16880.0
 10
32480.0
 20
16880.0
 10
32480.0
 20
13710.0
  0
LWPOLYLINE
  5
4E
100
AcDbEntity
  8
ASSEMBLY_OUTLINES_TOP
100
AcDbPolyline
 90
        4
 70
         0
 43
250.0
 10
32150.0
 20
12730.0
 10
32350.0
 20
12730.0
 10
32350.0
 20
13130.0
 10
32150.0
 20
13130.0
  0
LWPOLYLINE
  5
4F
100
AcDbEntity
  8
ASSEMBLY_OUTLINES_TOP
100
AcDbPolyline
 90
        4
 70
         0
 43
250.0
 10
33530.0
 20
11650.0
 10
33530.0
 20
11850.0
 10
33130.0
 20
11850.0
 10
33130.0
 20
11650.0
  0
LWPOLYLINE
  5
50
100
AcDbEntity
  8
ASSEMBLY_OUTLINES_TOP
100
AcDbPolyline
 90
        5
 70
         1
 43
200.0
 10
36054.19
 20
18085.64
 10
36054.19
 20
10935.64
 10
39304.19
 20
10935.64
 10
39954.19
 20
11585.64
 10
39954.19
 20
18085.64
  0
LWPOLYLINE
  5
51
100
AcDbEntity
  8
ASSEMBLY_OUTLINES_TOP
100
AcDbPolyline
 90
        4
 70
         0
 43
250.0
 10
38080.0
 20
8660.0
 10
37880.0
 20
8660.0
 10
37880.0
 20
8260.0
 10
38080.0
 20
8260.0
  0
LWPOLYLINE
  5
52
100
AcDbEntity
  8
ASSEMBLY_OUTLINES_TOP
100
AcDbPolyline
 90
        4
 70
         0
 43
250.0
 10
30190.0
 20
8660.0
 10
29990.0
 20
8660.0
 10
29990.0
 20
8260.0
 10
30190.0
 20
8260.0
  0
LWPOLYLINE
  5
53
100
AcDbEntity
  8
ASSEMBLY_OUTLINES_TOP
100
AcDbPolyline
 90
        4
 70
         0
 43
250.0
 10
24950.0
 20
8660.0
 10
24750.0
 20
8660.0
 10
24750.0
 20
8260.0
 10
24950.0
 20
8260.0
  0
LWPOLYLINE
  5
54
100
AcDbEntity
  8
ASSEMBLY_OUTLINES_TOP
100
AcDbPolyline
 90
        5
 70
         1
 43
100.0
 10
7690.0
 20
10090.0
 10
7490.0
 20
9890.0
 10
4090.0
 20
9890.0
 10
4090.0
 20
15490.0
 10
7690.0
 20
15490.0
  0
CIRCLE
  5
55
100
AcDbEntity
  8
ASSEMBLY_OUTLINES_TOP
100
AcDbCircle
 10
7290.0
 20
9440.0
 30
0.0
 40
350.0
  0
HATCH
  5
56
100
AcDbEntity
  8
ASSEMBLY_OUTLINES_TOP
100
AcDbHatch
 10
0.0
 20
0.0
 30
0.0
210
0.0
220
0.0
230
1.0
  2
SOLID
 70
         1
 71
         1
 91
        1
 92
        1
 93
        1
 72
         2
 10
7290.0
 20
9440.0
 40
350.0
 50
0.0
 51
360.0
 73
         1
 97
        1
330
55
 75
         0
 76
         1
 98
        1
 10
0.0
 20
0.0
  0
LWPOLYLINE
  5
57
100
AcDbEntity
  8
ASSEMBLY_OUTLINES_TOP
100
AcDbPolyline
 90
        2
 70
         1
 43
200.0
 10
10690.0
 20
12420.0
 42
-1.0
 10
11190.0
 20
12420.0
 42
-1.0
  0
LWPOLYLINE
  5
58
100
AcDbEntity
  8
ASSEMBLY_OUTLINES_TOP
100
AcDbPolyline
 90
        4
 70
         1
 43
150.0
 10
10620.0
 20
9570.0
 10
10620.0
 20
12740.0
 10
11260.0
 20
12740.0
 10
11260.0
 20
9570.0
  0
LWPOLYLINE
  5
59
100
AcDbEntity
  8
ASSEMBLY_OUTLINES_TOP
100
AcDbPolyline
 90
        4
 70
         0
 43
250.0
 10
10980.0
 20
13660.0
 10
10780.0
 20
13660.0
 10
10780.0
 20
13260.0
 10
10980.0
 20
13260.0
  0
LWPOLYLINE
  5
5A
100
AcDbEntity
  8
ASSEMBLY_OUTLINES_TOP
100
AcDbPolyline
 90
        4
 70
         0
 43
250.0
 10
10990.0
 20
14460.0
 10
10790.0
 20
14460.0
 10
10790.0
 20
14060.0
 10
10990.0
 20
14060.0
  0
LWPOLYLINE
  5
5B
100
AcDbEntity
  8
ASSEMBLY_OUTLINES_TOP
100
AcDbPolyline
 90
        4
 70
         0
 43
250.0
 10
7480.0
 20
8820.0
 10
7280.0
 20
8820.0
 10
7280.0
 20
8420.0
 10
7480.0
 20
8420.0
  0
LWPOLYLINE
  5
5C
100
AcDbEntity
  8
ASSEMBLY_OUTLINES_TOP
100
AcDbPolyline
 90
        4
 70
         0
 43
250.0
 10
4430.0
 20
8480.0
 10
4630.0
 20
8480.0
 10
4630.0
 20
8880.0
 10
4430.0
 20
8880.0
  0
LWPOLYLINE
  5
5D
100
AcDbEntity
  8
ASSEMBLY_OUTLINES_TOP
100
AcDbPolyline
 90
        4
 70
         0
 43
250.0
 10
74250.0
 20
23100.0
 10
74250.0
 20
22900.0
 10
74650.0
 20
22900.0
 10
74650.0
 20
23100.0
  0
LWPOLYLINE
  5
5E
100
AcDbEntity
  8
ASSEMBLY_OUTLINES_TOP
100
AcDbPolyline
 90
        4
 70
         0
 43
250.0
 10
74650.0
 20
14370.0
 10
74650.0
 20
14570.0
 10
74250.0
 20
14570.0
 10
74250.0
 20
14370.0
  0
LWPOLYLINE
  5
5F
100
AcDbEntity
  8
ASSEMBLY_OUTLINES_TOP
100
AcDbPolyline
 90
        4
 70
         1
 43
100.0
 10
73950.0
 20
15470.0
 10
73950.0
 20
17070.0
 10
74750.0
 20
17070.0
 10
74750.0
 20
15470.0
  0
CIRCLE
  5
60
100
AcDbEntity
  8
ASSEMBLY_OUTLINES_TOP
100
AcDbCircle
 10
73842.0
 20
17032.0
 30
0.0
 40
150.0
  0
HATCH
  5
61
100
AcDbEntity
  8
ASSEMBLY_OUTLINES_TOP
100
AcDbHatch
 10
0.0
 20
0.0
 30
0.0
210
0.0
220
0.0
230
1.0
  2
SOLID
 70
         1
 71
         1
 91
        1
 92
        1
 93
        1
 72
         2
 10
73842.0
 20
17032.0
 40
150.0
 50
0.0
 51
360.0
 73
         1
 97
        1
330
60
 75
         0
 76
         1
 98
        1
 10
0.0
 20
0.0
  0
LWPOLYLINE
  5
62
100
AcDbEntity
  8
ASSEMBLY_OUTLINES_TOP
100
AcDbPolyline
 90
        4
 70
         0
 43
250.0
 10
12665.0
 20
25610.0
 10
12465.0
 20
25610.0
 10
12465.0
 20
25210.0
 10
12665.0
 20
25210.0
  0
LWPOLYLINE
  5
63
100
AcDbEntity
  8
ASSEMBLY_OUTLINES_TOP
100
AcDbPolyline
 90
        4
 70
         0
 43
250.0
 10
3935.0
 20
25210.0
 10
4135.0
 20
25210.0
 10
4135.0
 20
25610.0
 10
3935.0
 20
25610.0
  0
TEXT
  5
65
100
AcDbEntity
  8
ASSEMBLY_REF_DES_BTM
100
AcDbText
 10
21854.0
 20
3920.8
 30
0.0
 40
800.0
  1
X1
 50
270.0
  7
ARIAL
 71
         2
 72
         1
 11
22270.0
 21
4620.0
 31
0.0
100
AcDbText
 73
         2
  0
TEXT
  5
66
100
AcDbEntity
  8
ASSEMBLY_REF_DES_TOP
100
AcDbText
 10
9403.8
 20
24863.0
 30
0.0
 40
800.0
  1
ANT1
  7
ARIAL
 72
         1
 11
10865.0
 21
25279.0
 31
0.0
100
AcDbText
 73
         2
  0
TEXT
  5
67
100
AcDbEntity
  8
ASSEMBLY_REF_DES_TOP
100
AcDbText
 10
10449.0
 20
23545.8
 30
0.0
 40
800.0
  1
R6
 50
270.0
  7
ARIAL
 72
         1
 11
10865.0
 21
22815.0
 31
0.0
100
AcDbText
 73
         2
  0
TEXT
  5
68
100
AcDbEntity
  8
ASSEMBLY_REF_DES_TOP
100
AcDbText
 10
71049.2
 20
15854.0
 30
0.0
 40
800.0
  1
R5
  7
ARIAL
 72
         1
 11
71780.0
 21
16270.0
 31
0.0
100
AcDbText
 73
         2
  0
TEXT
  5
69
100
AcDbEntity
  8
ASSEMBLY_REF_DES_TOP
100
AcDbText
 10
27411.6
 20
8414.0
 30
0.0
 40
800.0
  1
TP7
  7
ARIAL
 72
         1
 11
28460.0
 21
8830.0
 31
0.0
100
AcDbText
 73
         2
  0
TEXT
  5
6A
100
AcDbEntity
  8
ASSEMBLY_REF_DES_TOP
100
AcDbText
 10
62714.0
 20
20750.8
 30
0.0
 40
800.0
  1
C9
 50
270.0
  7
ARIAL
 72
         1
 11
63130.0
 21
20020.0
 31
0.0
100
AcDbText
 73
         2
  0
TEXT
  5
6B
100
AcDbEntity
  8
ASSEMBLY_REF_DES_TOP
100
AcDbText
 10
23754.0
 20
21390.8
 30
0.0
 40
800.0
  1
C8
 50
270.0
  7
ARIAL
 72
         1
 11
24170.0
 21
20660.0
 31
0.0
100
AcDbText
 73
         2
  0
TEXT
  5
6C
100
AcDbEntity
  8
ASSEMBLY_REF_DES_TOP
100
AcDbText
 10
23470.8
 20
23274.0
 30
0.0
 40
800.0
  1
X3
  7
ARIAL
 72
         1
 11
24170.0
 21
23690.0
 31
0.0
100
AcDbText
 73
         2
  0
TEXT
  5
6D
100
AcDbEntity
  8
ASSEMBLY_REF_DES_TOP
100
AcDbText
 10
62420.8
 20
23274.0
 30
0.0
 40
800.0
  1
X2
  7
ARIAL
 72
         1
 11
63120.0
 21
23690.0
 31
0.0
100
AcDbText
 73
         2
  0
TEXT
  5
6E
100
AcDbEntity
  8
ASSEMBLY_REF_DES_TOP
100
AcDbText
 10
70144.0
 20
16466.0
 30
0.0
 40
800.0
  1
L2
 50
270.0
  7
ARIAL
 72
         1
 11
70560.0
 21
15830.0
 31
0.0
100
AcDbText
 73
         2
  0
TEXT
  5
6F
100
AcDbEntity
  8
ASSEMBLY_REF_DES_TOP
100
AcDbText
 10
10624.0
 20
21144.0
 30
0.0
 40
800.0
  1
L1
  7
ARIAL
 72
         1
 11
11260.0
 21
21560.0
 31
0.0
100
AcDbText
 73
         2
  0
TEXT
  5
70
100
AcDbEntity
  8
ASSEMBLY_REF_DES_TOP
100
AcDbText
 10
44357.546
 20
10299.957
 30
0.0
 40
800.0
  1
TP1
 50
270.0
  7
ARIAL
 72
         1
 11
44773.546
 21
9251.557
 31
0.0
100
AcDbText
 73
         2
  0
TEXT
  5
71
100
AcDbEntity
  8
ASSEMBLY_REF_DES_TOP
100
AcDbText
 10
44357.546
 20
12139.957
 30
0.0
 40
800.0
  1
TP5
 50
270.0
  7
ARIAL
 72
         1
 11
44773.546
 21
11091.557
 31
0.0
100
AcDbText
 73
         2
  0
TEXT
  5
72
100
AcDbEntity
  8
ASSEMBLY_REF_DES_TOP
100
AcDbText
 10
63410.456
 20
10736.401
 30
0.0
 40
800.0
  1
TP10
 50
270.0
  7
ARIAL
 72
         1
 11
63826.456
 21
9370.001
 31
0.0
100
AcDbText
 73
         2
  0
TEXT
  5
73
100
AcDbEntity
  8
ASSEMBLY_REF_DES_TOP
100
AcDbText
 10
63410.456
 20
8908.401
 30
0.0
 40
800.0
  1
TP9
 50
270.0
  7
ARIAL
 72
         1
 11
63826.456
 21
7860.001
 31
0.0
100
AcDbText
 73
         2
  0
TEXT
  5
74
100
AcDbEntity
  8
ASSEMBLY_REF_DES_TOP
100
AcDbText
 10
63410.456
 20
5878.401
 30
0.0
 40
800.0
  1
TP6
 50
270.0
  7
ARIAL
 72
         1
 11
63826.456
 21
4830.001
 31
0.0
100
AcDbText
 73
         2
  0
TEXT
  5
75
100
AcDbEntity
  8
ASSEMBLY_REF_DES_TOP
100
AcDbText
 10
63410.456
 20
7398.401
 30
0.0
 40
800.0
  1
TP8
 50
270.0
  7
ARIAL
 72
         1
 11
63826.456
 21
6350.001
 31
0.0
100
AcDbText
 73
         2
  0
TEXT
  5
76
100
AcDbEntity
  8
ASSEMBLY_REF_DES_TOP
100
AcDbText
 10
56310.456
 20
19848.401
 30
0.0
 40
800.0
  1
TP4
 50
270.0
  7
ARIAL
 72
         1
 11
56726.456
 21
18800.001
 31
0.0
100
AcDbText
 73
         2
  0
TEXT
  5
77
100
AcDbEntity
  8
ASSEMBLY_REF_DES_TOP
100
AcDbText
 10
54710.456
 20
19848.401
 30
0.0
 40
800.0
  1
TP3
 50
270.0
  7
ARIAL
 72
         1
 11
55126.456
 21
18800.001
 31
0.0
100
AcDbText
 73
         2
  0
TEXT
  5
78
100
AcDbEntity
  8
ASSEMBLY_REF_DES_TOP
100
AcDbText
 10
53110.456
 20
19848.401
 30
0.0
 40
800.0
  1
TP2
 50
270.0
  7
ARIAL
 72
         1
 11
53526.456
 21
18800.001
 31
0.0
100
AcDbText
 73
         2
  0
TEXT
  5
79
100
AcDbEntity
  8
ASSEMBLY_REF_DES_TOP
100
AcDbText
 10
63165.455
 20
15190.8
 30
0.0
 40
800.0
  1
R4
 50
270.0
  7
ARIAL
 72
         1
 11
63581.455
 21
14460.0
 31
0.0
100
AcDbText
 73
         2
  0
TEXT
  5
7A
100
AcDbEntity
  8
ASSEMBLY_REF_DES_TOP
100
AcDbText
 10
55435.455
 20
11330.8
 30
0.0
 40
800.0
  1
U1
 50
270.0
  7
ARIAL
 72
         1
 11
55851.455
 21
10600.0
 31
0.0
100
AcDbText
 73
         2
  0
TEXT
  5
7B
100
AcDbEntity
  8
ASSEMBLY_REF_DES_TOP
100
AcDbText
 10
47835.455
 20
13348.8
 30
0.0
 40
800.0
  1
C12
 50
270.0
  7
ARIAL
 72
         1
 11
48251.455
 21
12300.0
 31
0.0
100
AcDbText
 73
         2
  0
TEXT
  5
7C
100
AcDbEntity
  8
ASSEMBLY_REF_DES_TOP
100
AcDbText
 10
46935.455
 20
13348.8
 30
0.0
 40
800.0
  1
C19
 50
270.0
  7
ARIAL
 72
         1
 11
47351.455
 21
12300.0
 31
0.0
100
AcDbText
 73
         2
  0
TEXT
  5
7D
100
AcDbEntity
  8
ASSEMBLY_REF_DES_TOP
100
AcDbText
 10
47785.455
 20
7088.8
 30
0.0
 40
800.0
  1
C18
 50
270.0
  7
ARIAL
 72
         1
 11
48201.455
 21
6040.0
 31
0.0
100
AcDbText
 73
         2
  0
TEXT
  5
7E
100
AcDbEntity
  8
ASSEMBLY_REF_DES_TOP
100
AcDbText
 10
47355.455
 20
9298.8
 30
0.0
 40
800.0
  1
C13
 50
270.0
  7
ARIAL
 72
         1
 11
47771.455
 21
8250.0
 31
0.0
100
AcDbText
 73
         2
  0
TEXT
  5
7F
100
AcDbEntity
  8
ASSEMBLY_REF_DES_TOP
100
AcDbText
 10
46595.455
 20
16492.0
 30
0.0
 40
800.0
  1
OZ1
 50
270.0
  7
ARIAL
 72
         1
 11
47011.455
 21
15380.0
 31
0.0
100
AcDbText
 73
         2
  0
TEXT
  5
80
100
AcDbEntity
  8
ASSEMBLY_REF_DES_TOP
100
AcDbText
 10
44255.455
 20
16140.8
 30
0.0
 40
800.0
  1
C5
 50
270.0
  7
ARIAL
 72
         1
 11
44671.455
 21
15410.0
 31
0.0
100
AcDbText
 73
         2
  0
TEXT
  5
81
100
AcDbEntity
  8
ASSEMBLY_REF_DES_TOP
100
AcDbText
 10
20619.2
 20
16404.0
 30
0.0
 40
800.0
  1
C1
  7
ARIAL
 72
         1
 11
21350.0
 21
16820.0
 31
0.0
100
AcDbText
 73
         2
  0
TEXT
  5
82
100
AcDbEntity
  8
ASSEMBLY_REF_DES_TOP
100
AcDbText
 10
38929.2
 20
9814.0
 30
0.0
 40
800.0
  1
C7
  7
ARIAL
 72
         1
 11
39660.0
 21
10230.0
 31
0.0
100
AcDbText
 73
         2
  0
TEXT
  5
83
100
AcDbEntity
  8
ASSEMBLY_REF_DES_TOP
100
AcDbText
 10
22294.0
 20
13450.8
 30
0.0
 40
800.0
  1
U3
 50
270.0
  7
ARIAL
 72
         1
 11
22710.0
 21
12720.0
 31
0.0
100
AcDbText
 73
         2
  0
TEXT
  5
84
100
AcDbEntity
  8
ASSEMBLY_REF_DES_TOP
100
AcDbText
 10
23329.2
 20
16404.0
 30
0.0
 40
800.0
  1
C2
  7
ARIAL
 72
         1
 11
24060.0
 21
16820.0
 31
0.0
100
AcDbText
 73
         2
  0
TEXT
  5
85
100
AcDbEntity
  8
ASSEMBLY_REF_DES_TOP
100
AcDbText
 10
31744.0
 20
16443.6
 30
0.0
 40
800.0
  1
RN2
 50
270.0
  7
ARIAL
 72
         1
 11
32160.0
 21
15300.0
 31
0.0
100
AcDbText
 73
         2
  0
TEXT
  5
86
100
AcDbEntity
  8
ASSEMBLY_REF_DES_TOP
100
AcDbText
 10
31519.2
 20
12514.0
 30
0.0
 40
800.0
  1
R3
  7
ARIAL
 72
         1
 11
32250.0
 21
12930.0
 31
0.0
100
AcDbText
 73
         2
  0
TEXT
  5
87
100
AcDbEntity
  8
ASSEMBLY_REF_DES_TOP
100
AcDbText
 10
32914.0
 20
12480.8
 30
0.0
 40
800.0
  1
C6
 50
270.0
  7
ARIAL
 72
         1
 11
33330.0
 21
11750.0
 31
0.0
100
AcDbText
 73
         2
  0
TEXT
  5
88
100
AcDbEntity
  8
ASSEMBLY_REF_DES_TOP
100
AcDbText
 10
37563.19
 20
15241.44
 30
0.0
 40
800.0
  1
U4
 50
270.0
  7
ARIAL
 72
         1
 11
37979.19
 21
14510.64
 31
0.0
100
AcDbText
 73
         2
  0
TEXT
  5
89
100
AcDbEntity
  8
ASSEMBLY_REF_DES_TOP
100
AcDbText
 10
36931.2
 20
8044.0
 30
0.0
 40
800.0
  1
C20
  7
ARIAL
 72
         1
 11
37980.0
 21
8460.0
 31
0.0
100
AcDbText
 73
         2
  0
TEXT
  5
8A
100
AcDbEntity
  8
ASSEMBLY_REF_DES_TOP
100
AcDbText
 10
29041.2
 20
8044.0
 30
0.0
 40
800.0
  1
C21
  7
ARIAL
 72
         1
 11
30090.0
 21
8460.0
 31
0.0
100
AcDbText
 73
         2
  0
TEXT
  5
8B
100
AcDbEntity
  8
ASSEMBLY_REF_DES_TOP
100
AcDbText
 10
23801.2
 20
8044.0
 30
0.0
 40
800.0
  1
C22
  7
ARIAL
 72
         1
 11
24850.0
 21
8460.0
 31
0.0
100
AcDbText
 73
         2
  0
TEXT
  5
8C
100
AcDbEntity
  8
ASSEMBLY_REF_DES_TOP
100
AcDbText
 10
5474.0
 20
13420.8
 30
0.0
 40
800.0
  1
U2
 50
270.0
  7
ARIAL
 72
         1
 11
5890.0
 21
12690.0
 31
0.0
100
AcDbText
 73
         2
  0
TEXT
  5
8D
100
AcDbEntity
  8
ASSEMBLY_REF_DES_TOP
100
AcDbText
 10
10524.0
 20
12293.6
 30
0.0
 40
800.0
  1
RN1
 50
270.0
  7
ARIAL
 72
         1
 11
10940.0
 21
11150.0
 31
0.0
100
AcDbText
 73
         2
  0
TEXT
  5
8E
100
AcDbEntity
  8
ASSEMBLY_REF_DES_TOP
100
AcDbText
 10
10149.2
 20
13044.0
 30
0.0
 40
800.0
  1
R1
  7
ARIAL
 72
         1
 11
10880.0
 21
13460.0
 31
0.0
100
AcDbText
 73
         2
  0
TEXT
  5
8F
100
AcDbEntity
  8
ASSEMBLY_REF_DES_TOP
100
AcDbText
 10
10159.2
 20
13844.0
 30
0.0
 40
800.0
  1
R2
  7
ARIAL
 72
         1
 11
10890.0
 21
14260.0
 31
0.0
100
AcDbText
 73
         2
  0
TEXT
  5
90
100
AcDbEntity
  8
ASSEMBLY_REF_DES_TOP
100
AcDbText
 10
6649.2
 20
8204.0
 30
0.0
 40
800.0
  1
C4
  7
ARIAL
 72
         1
 11
7380.0
 21
8620.0
 31
0.0
100
AcDbText
 73
         2
  0
TEXT
  5
91
100
AcDbEntity
  8
ASSEMBLY_REF_DES_TOP
100
AcDbText
 10
3799.2
 20
8264.0
 30
0.0
 40
800.0
  1
C3
  7
ARIAL
 72
         1
 11
4530.0
 21
8680.0
 31
0.0
100
AcDbText
 73
         2
  0
TEXT
  5
92
100
AcDbEntity
  8
ASSEMBLY_REF_DES_TOP
100
AcDbText
 10
74034.0
 20
24048.8
 30
0.0
 40
800.0
  1
C16
 50
270.0
  7
ARIAL
 72
         1
 11
74450.0
 21
23000.0
 31
0.0
100
AcDbText
 73
         2
  0
TEXT
  5
93
100
AcDbEntity
  8
ASSEMBLY_REF_DES_TOP
100
AcDbText
 10
74034.0
 20
15518.8
 30
0.0
 40
800.0
  1
C17
 50
270.0
  7
ARIAL
 72
         1
 11
74450.0
 21
14470.0
 31
0.0
100
AcDbText
 73
         2
  0
TEXT
  5
94
100
AcDbEntity
  8
ASSEMBLY_REF_DES_TOP
100
AcDbText
 10
73903.0
 20
17731.2
 30
0.0
 40
800.0
  1
ANT2
 50
270.0
  7
ARIAL
 72
         1
 11
74319.0
 21
16270.0
 31
0.0
100
AcDbText
 73
         2
  0
TEXT
  5
95
100
AcDbEntity
  8
ASSEMBLY_REF_DES_TOP
100
AcDbText
 10
11516.2
 20
24994.0
 30
0.0
 40
800.0
  1
C15
  7
ARIAL
 72
         1
 11
12565.0
 21
25410.0
 31
0.0
100
AcDbText
 73
         2
  0
TEXT
  5
96
100
AcDbEntity
  8
ASSEMBLY_REF_DES_TOP
100
AcDbText
 10
2986.2
 20
24994.0
 30
0.0
 40
800.0
  1
C14
  7
ARIAL
 72
         1
 11
4035.0
 21
25410.0
 31
0.0
100
AcDbText
 73
         2
  0
LWPOLYLINE
  5
97
100
AcDbEntity
  8
BOARD_OUTLINE
100
AcDbPolyline
 90
        4
 70
         1
 10
0.0
 20
0.0
 10
0.0
 20
27000.0
 10
76000.0
 20
27000.0
 10
76000.0
 20
0.0
  0
CIRCLE
  5
98
100
AcDbEntity
  8
SOLDERMASK_PADS_BTM
100
AcDbCircle
 10
25252.674
 20
20750.361
 30
0.0
 40
190.0
  0
CIRCLE
  5
99
100
AcDbEntity
  8
SOLDERMASK_PADS_BTM
100
AcDbCircle
 10
64571.987
 20
22780.23
 30
0.0
 40
190.0
  0
CIRCLE
  5
9A
100
AcDbEntity
  8
SOLDERMASK_PADS_BTM
100
AcDbCircle
 10
61578.003
 20
22789.405
 30
0.0
 40
190.0
  0
CIRCLE
  5
9B
100
AcDbEntity
  8
SOLDERMASK_PADS_BTM
100
AcDbCircle
 10
60409.936
 20
24004.342
 30
0.0
 40
190.0
  0
CIRCLE
  5
9C
100
AcDbEntity
  8
SOLDERMASK_PADS_BTM
100
AcDbCircle
 10
27177.763
 20
25108.736
 30
0.0
 40
190.0
  0
CIRCLE
  5
9D
100
AcDbEntity
  8
SOLDERMASK_PADS_BTM
100
AcDbCircle
 10
22675.111
 20
22802.302
 30
0.0
 40
190.0
  0
CIRCLE
  5
9E
100
AcDbEntity
  8
SOLDERMASK_PADS_BTM
100
AcDbCircle
 10
55881.507
 20
15541.611
 30
0.0
 40
190.0
  0
CIRCLE
  5
9F
100
AcDbEntity
  8
SOLDERMASK_PADS_BTM
100
AcDbCircle
 10
50966.553
 20
15516.685
 30
0.0
 40
190.0
  0
CIRCLE
  5
A0
100
AcDbEntity
  8
SOLDERMASK_PADS_BTM
100
AcDbCircle
 10
58268.879
 20
5651.99
 30
0.0
 40
190.0
  0
CIRCLE
  5
A1
100
AcDbEntity
  8
SOLDERMASK_PADS_BTM
100
AcDbCircle
 10
60788.263
 20
10389.584
 30
0.0
 40
190.0
  0
CIRCLE
  5
A2
100
AcDbEntity
  8
SOLDERMASK_PADS_BTM
100
AcDbCircle
 10
53404.91
 20
10577.141
 30
0.0
 40
190.0
  0
CIRCLE
  5
A3
100
AcDbEntity
  8
SOLDERMASK_PADS_BTM
100
AcDbCircle
 10
50889.237
 20
7852.251
 30
0.0
 40
190.0
  0
CIRCLE
  5
A4
100
AcDbEntity
  8
SOLDERMASK_PADS_BTM
100
AcDbCircle
 10
59727.05
 20
10587.338
 30
0.0
 40
190.0
  0
CIRCLE
  5
A5
100
AcDbEntity
  8
SOLDERMASK_PADS_BTM
100
AcDbCircle
 10
58299.47
 20
15492.095
 30
0.0
 40
190.0
  0
CIRCLE
  5
A6
100
AcDbEntity
  8
SOLDERMASK_PADS_BTM
100
AcDbCircle
 10
55842.109
 20
9281.757
 30
0.0
 40
190.0
  0
CIRCLE
  5
A7
100
AcDbEntity
  8
SOLDERMASK_PADS_BTM
100
AcDbCircle
 10
54669.338
 20
15522.686
 30
0.0
 40
190.0
  0
CIRCLE
  5
A8
100
AcDbEntity
  8
SOLDERMASK_PADS_BTM
100
AcDbCircle
 10
55971.932
 20
10511.757
 30
0.0
 40
190.0
  0
CIRCLE
  5
A9
100
AcDbEntity
  8
SOLDERMASK_PADS_BTM
100
AcDbCircle
 10
51967.133
 20
15573.671
 30
0.0
 40
190.0
  0
CIRCLE
  5
AA
100
AcDbEntity
  8
SOLDERMASK_PADS_BTM
100
AcDbCircle
 10
56892.284
 20
15563.474
 30
0.0
 40
190.0
  0
CIRCLE
  5
AB
100
AcDbEntity
  8
SOLDERMASK_PADS_BTM
100
AcDbCircle
 10
50965.7
 20
10365.256
 30
0.0
 40
190.0
  0
CIRCLE
  5
AC
100
AcDbEntity
  8
SOLDERMASK_PADS_BTM
100
AcDbCircle
 10
52007.921
 20
10607.732
 30
0.0
 40
190.0
  0
CIRCLE
  5
AD
100
AcDbEntity
  8
SOLDERMASK_PADS_BTM
100
AcDbCircle
 10
60816.072
 20
9154.131
 30
0.0
 40
190.0
  0
CIRCLE
  5
AE
100
AcDbEntity
  8
SOLDERMASK_PADS_BTM
100
AcDbCircle
 10
59686.262
 20
5672.384
 30
0.0
 40
190.0
  0
CIRCLE
  5
AF
100
AcDbEntity
  8
SOLDERMASK_PADS_BTM
100
AcDbCircle
 10
60746.75
 20
11647.826
 30
0.0
 40
190.0
  0
CIRCLE
  5
B0
100
AcDbEntity
  8
SOLDERMASK_PADS_BTM
100
AcDbCircle
 10
51987.527
 20
5682.581
 30
0.0
 40
190.0
  0
CIRCLE
  5
B1
100
AcDbEntity
  8
SOLDERMASK_PADS_BTM
100
AcDbCircle
 10
55831.796
 20
14615.012
 30
0.0
 40
190.0
  0
CIRCLE
  5
B2
100
AcDbEntity
  8
SOLDERMASK_PADS_BTM
100
AcDbCircle
 10
60745.476
 20
15516.685
 30
0.0
 40
190.0
  0
CIRCLE
  5
B3
100
AcDbEntity
  8
SOLDERMASK_PADS_BTM
100
AcDbCircle
 10
55831.242
 20
7886.511
 30
0.0
 40
190.0
  0
CIRCLE
  5
B4
100
AcDbEntity
  8
SOLDERMASK_PADS_BTM
100
AcDbCircle
 10
50925.73
 20
13296.836
 30
0.0
 40
190.0
  0
CIRCLE
  5
B5
100
AcDbEntity
  8
SOLDERMASK_PADS_BTM
100
AcDbCircle
 10
54771.308
 20
5672.384
 30
0.0
 40
190.0
  0
CIRCLE
  5
B6
100
AcDbEntity
  8
SOLDERMASK_PADS_BTM
100
AcDbCircle
 10
55861.113
 20
5727.565
 30
0.0
 40
190.0
  0
CIRCLE
  5
B7
100
AcDbEntity
  8
SOLDERMASK_PADS_BTM
100
AcDbCircle
 10
60736.553
 20
6824.645
 30
0.0
 40
190.0
  0
CIRCLE
  5
B8
100
AcDbEntity
  8
SOLDERMASK_PADS_BTM
100
AcDbCircle
 10
54668.704
 20
10609.332
 30
0.0
 40
190.0
  0
CIRCLE
  5
B9
100
AcDbEntity
  8
SOLDERMASK_PADS_BTM
100
AcDbCircle
 10
50957.63
 20
6722.675
 30
0.0
 40
190.0
  0
CIRCLE
  5
BA
100
AcDbEntity
  8
SOLDERMASK_PADS_BTM
100
AcDbCircle
 10
55852.19
 20
6737.97
 30
0.0
 40
190.0
  0
CIRCLE
  5
BB
100
AcDbEntity
  8
SOLDERMASK_PADS_BTM
100
AcDbCircle
 10
55862.387
 20
13055.012
 30
0.0
 40
190.0
  0
CIRCLE
  5
BC
100
AcDbEntity
  8
SOLDERMASK_PADS_BTM
100
AcDbCircle
 10
53364.122
 20
5611.202
 30
0.0
 40
190.0
  0
CIRCLE
  5
BD
100
AcDbEntity
  8
SOLDERMASK_PADS_BTM
100
AcDbCircle
 10
55841.993
 20
11741.757
 30
0.0
 40
190.0
  0
CIRCLE
  5
BE
100
AcDbEntity
  8
SOLDERMASK_PADS_BTM
100
AcDbCircle
 10
56871.89
 20
5651.99
 30
0.0
 40
190.0
  0
CIRCLE
  5
BF
100
AcDbEntity
  8
SOLDERMASK_PADS_BTM
100
AcDbCircle
 10
60807.932
 20
14462.198
 30
0.0
 40
190.0
  0
CIRCLE
  5
C0
100
AcDbEntity
  8
SOLDERMASK_PADS_BTM
100
AcDbCircle
 10
50997.144
 20
5676.58
 30
0.0
 40
190.0
  0
CIRCLE
  5
C1
100
AcDbEntity
  8
SOLDERMASK_PADS_BTM
100
AcDbCircle
 10
59696.459
 20
15553.277
 30
0.0
 40
190.0
  0
CIRCLE
  5
C2
100
AcDbEntity
  8
SOLDERMASK_PADS_BTM
100
AcDbCircle
 10
57169.684
 20
10592.202
 30
0.0
 40
190.0
  0
CIRCLE
  5
C3
100
AcDbEntity
  8
SOLDERMASK_PADS_BTM
100
AcDbCircle
 10
60704.688
 20
5686.777
 30
0.0
 40
190.0
  0
CIRCLE
  5
C4
100
AcDbEntity
  8
SOLDERMASK_PADS_BTM
100
AcDbCircle
 10
60824.637
 20
7869.381
 30
0.0
 40
190.0
  0
CIRCLE
  5
C5
100
AcDbEntity
  8
SOLDERMASK_PADS_BTM
100
AcDbCircle
 10
50925.73
 20
14567.816
 30
0.0
 40
190.0
  0
CIRCLE
  5
C6
100
AcDbEntity
  8
SOLDERMASK_PADS_BTM
100
AcDbCircle
 10
58370.849
 20
10577.141
 30
0.0
 40
190.0
  0
CIRCLE
  5
C7
100
AcDbEntity
  8
SOLDERMASK_PADS_BTM
100
AcDbCircle
 10
50954.28
 20
9135.256
 30
0.0
 40
190.0
  0
CIRCLE
  5
C8
100
AcDbEntity
  8
SOLDERMASK_PADS_BTM
100
AcDbCircle
 10
50931.44
 20
11736.836
 30
0.0
 40
190.0
  0
CIRCLE
  5
C9
100
AcDbEntity
  8
SOLDERMASK_PADS_BTM
100
AcDbCircle
 10
60746.75
 20
13207.826
 30
0.0
 40
190.0
  0
CIRCLE
  5
CA
100
AcDbEntity
  8
SOLDERMASK_PADS_BTM
100
AcDbCircle
 10
53313.137
 20
15543.08
 30
0.0
 40
190.0
  0
CIRCLE
  5
CB
100
AcDbEntity
  8
SOLDERMASK_PADS_BTM
100
AcDbCircle
 10
26645.0
 20
24201.821
 30
0.0
 40
190.0
  0
CIRCLE
  5
CC
100
AcDbEntity
  8
SOLDERMASK_PADS_BTM
100
AcDbCircle
 10
40869.318
 20
19234.8
 30
0.0
 40
190.0
  0
CIRCLE
  5
CD
100
AcDbEntity
  8
SOLDERMASK_PADS_BTM
100
AcDbCircle
 10
42697.113
 20
19234.8
 30
0.0
 40
190.0
  0
CIRCLE
  5
CE
100
AcDbEntity
  8
SOLDERMASK_PADS_BTM
100
AcDbCircle
 10
32160.805
 20
19217.919
 30
0.0
 40
190.0
  0
CIRCLE
  5
CF
100
AcDbEntity
  8
SOLDERMASK_PADS_BTM
100
AcDbCircle
 10
44165.257
 20
19032.672
 30
0.0
 40
190.0
  0
CIRCLE
  5
D0
100
AcDbEntity
  8
SOLDERMASK_PADS_BTM
100
AcDbCircle
 10
46227.949
 20
19061.724
 30
0.0
 40
190.0
  0
CIRCLE
  5
D1
100
AcDbEntity
  8
SOLDERMASK_PADS_BTM
100
AcDbCircle
 10
47753.179
 20
18175.638
 30
0.0
 40
190.0
  0
CIRCLE
  5
D2
100
AcDbEntity
  8
SOLDERMASK_PADS_BTM
100
AcDbCircle
 10
51312.049
 20
17957.748
 30
0.0
 40
190.0
  0
CIRCLE
  5
D3
100
AcDbEntity
  8
SOLDERMASK_PADS_BTM
100
AcDbCircle
 10
49699.663
 20
19802.55
 30
0.0
 40
190.0
  0
CIRCLE
  5
D4
100
AcDbEntity
  8
SOLDERMASK_PADS_BTM
100
AcDbCircle
 10
19993.993
 20
20877.474
 30
0.0
 40
190.0
  0
CIRCLE
  5
D5
100
AcDbEntity
  8
SOLDERMASK_PADS_BTM
100
AcDbCircle
 10
22899.193
 20
19163.406
 30
0.0
 40
190.0
  0
CIRCLE
  5
D6
100
AcDbEntity
  8
SOLDERMASK_PADS_BTM
100
AcDbCircle
 10
20444.299
 20
19265.088
 30
0.0
 40
190.0
  0
CIRCLE
  5
D7
100
AcDbEntity
  8
SOLDERMASK_PADS_BTM
100
AcDbCircle
 10
18367.081
 20
19294.14
 30
0.0
 40
190.0
  0
CIRCLE
  5
D8
100
AcDbEntity
  8
SOLDERMASK_PADS_BTM
100
AcDbCircle
 10
16464.175
 20
20775.792
 30
0.0
 40
190.0
  0
CIRCLE
  5
D9
100
AcDbEntity
  8
SOLDERMASK_PADS_BTM
100
AcDbCircle
 10
12876.253
 20
19076.25
 30
0.0
 40
190.0
  0
CIRCLE
  5
DA
100
AcDbEntity
  8
SOLDERMASK_PADS_BTM
100
AcDbCircle
 10
14503.165
 20
19105.302
 30
0.0
 40
190.0
  0
CIRCLE
  5
DB
100
AcDbEntity
  8
SOLDERMASK_PADS_BTM
100
AcDbCircle
 10
11769.734
 20
20575.0
 30
0.0
 40
190.0
  0
CIRCLE
  5
DC
100
AcDbEntity
  8
SOLDERMASK_PADS_BTM
100
AcDbCircle
 10
13326.559
 20
20630.532
 30
0.0
 40
190.0
  0
CIRCLE
  5
DD
100
AcDbEntity
  8
SOLDERMASK_PADS_BTM
100
AcDbCircle
 10
14750.107
 20
20645.058
 30
0.0
 40
190.0
  0
CIRCLE
  5
DE
100
AcDbEntity
  8
SOLDERMASK_PADS_BTM
100
AcDbCircle
 10
16594.909
 20
19076.25
 30
0.0
 40
190.0
  0
CIRCLE
  5
DF
100
AcDbEntity
  8
SOLDERMASK_PADS_BTM
100
AcDbCircle
 10
11378.507
 20
18800.271
 30
0.0
 40
190.0
  0
CIRCLE
  5
E0
100
AcDbEntity
  8
SOLDERMASK_PADS_BTM
100
AcDbCircle
 10
21927.657
 20
20705.613
 30
0.0
 40
190.0
  0
CIRCLE
  5
E1
100
AcDbEntity
  8
SOLDERMASK_PADS_BTM
100
AcDbCircle
 10
34200.718
 20
22995.32
 30
0.0
 40
190.0
  0
CIRCLE
  5
E2
100
AcDbEntity
  8
SOLDERMASK_PADS_BTM
100
AcDbCircle
 10
37730.59
 20
22505.06
 30
0.0
 40
190.0
  0
CIRCLE
  5
E3
100
AcDbEntity
  8
SOLDERMASK_PADS_BTM
100
AcDbCircle
 10
40966.306
 20
22603.112
 30
0.0
 40
190.0
  0
CIRCLE
  5
E4
100
AcDbEntity
  8
SOLDERMASK_PADS_BTM
100
AcDbCircle
 10
51065.662
 20
22014.8
 30
0.0
 40
190.0
  0
CIRCLE
  5
E5
100
AcDbEntity
  8
SOLDERMASK_PADS_BTM
100
AcDbCircle
 10
51784.71
 20
19040.556
 30
0.0
 40
190.0
  0
CIRCLE
  5
E6
100
AcDbEntity
  8
SOLDERMASK_PADS_BTM
100
AcDbCircle
 10
54137.958
 20
21818.696
 30
0.0
 40
190.0
  0
CIRCLE
  5
E7
100
AcDbEntity
  8
SOLDERMASK_PADS_BTM
100
AcDbCircle
 10
57144.886
 20
22047.484
 30
0.0
 40
190.0
  0
CIRCLE
  5
E8
100
AcDbEntity
  8
SOLDERMASK_PADS_BTM
100
AcDbCircle
 10
59138.61
 20
18877.136
 30
0.0
 40
190.0
  0
CIRCLE
  5
E9
100
AcDbEntity
  8
SOLDERMASK_PADS_BTM
100
AcDbCircle
 10
65758.478
 20
21804.141
 30
0.0
 40
190.0
  0
CIRCLE
  5
EA
100
AcDbEntity
  8
SOLDERMASK_PADS_BTM
100
AcDbCircle
 10
64218.721
 20
16291.524
 30
0.0
 40
190.0
  0
CIRCLE
  5
EB
100
AcDbEntity
  8
SOLDERMASK_PADS_BTM
100
AcDbCircle
 10
67036.765
 20
19850.394
 30
0.0
 40
190.0
  0
CIRCLE
  5
EC
100
AcDbEntity
  8
SOLDERMASK_PADS_BTM
100
AcDbCircle
 10
67312.759
 20
17250.24
 30
0.0
 40
190.0
  0
CIRCLE
  5
ED
100
AcDbEntity
  8
SOLDERMASK_PADS_BTM
100
AcDbCircle
 10
65366.275
 20
17773.176
 30
0.0
 40
190.0
  0
CIRCLE
  5
EE
100
AcDbEntity
  8
SOLDERMASK_PADS_BTM
100
AcDbCircle
 10
64915.969
 20
20431.434
 30
0.0
 40
190.0
  0
CIRCLE
  5
EF
100
AcDbEntity
  8
SOLDERMASK_PADS_BTM
100
AcDbCircle
 10
65375.752
 20
9103.174
 30
0.0
 40
190.0
  0
CIRCLE
  5
F0
100
AcDbEntity
  8
SOLDERMASK_PADS_BTM
100
AcDbCircle
 10
66415.88
 20
10280.966
 30
0.0
 40
190.0
  0
CIRCLE
  5
F1
100
AcDbEntity
  8
SOLDERMASK_PADS_BTM
100
AcDbCircle
 10
65589.475
 20
14217.9
 30
0.0
 40
190.0
  0
CIRCLE
  5
F2
100
AcDbEntity
  8
SOLDERMASK_PADS_BTM
100
AcDbCircle
 10
67220.995
 20
14136.324
 30
0.0
 40
190.0
  0
CIRCLE
  5
F3
100
AcDbEntity
  8
SOLDERMASK_PADS_BTM
100
AcDbCircle
 10
67166.611
 20
12878.694
 30
0.0
 40
190.0
  0
CIRCLE
  5
F4
100
AcDbEntity
  8
SOLDERMASK_PADS_BTM
100
AcDbCircle
 10
65535.091
 20
12960.27
 30
0.0
 40
190.0
  0
CIRCLE
  5
F5
100
AcDbEntity
  8
SOLDERMASK_PADS_BTM
100
AcDbCircle
 10
65548.687
 20
11566.68
 30
0.0
 40
190.0
  0
CIRCLE
  5
F6
100
AcDbEntity
  8
SOLDERMASK_PADS_BTM
100
AcDbCircle
 10
67220.995
 20
11206.386
 30
0.0
 40
190.0
  0
CIRCLE
  5
F7
100
AcDbEntity
  8
SOLDERMASK_PADS_BTM
100
AcDbCircle
 10
65511.576
 20
15409.369
 30
0.0
 40
190.0
  0
CIRCLE
  5
F8
100
AcDbEntity
  8
SOLDERMASK_PADS_BTM
100
AcDbCircle
 10
59400.431
 20
25085.223
 30
0.0
 40
190.0
  0
CIRCLE
  5
F9
100
AcDbEntity
  8
SOLDERMASK_PADS_BTM
100
AcDbCircle
 10
57728.123
 20
25544.088
 30
0.0
 40
190.0
  0
CIRCLE
  5
FA
100
AcDbEntity
  8
SOLDERMASK_PADS_BTM
100
AcDbCircle
 10
54168.959
 20
25574.664
 30
0.0
 40
190.0
  0
CIRCLE
  5
FB
100
AcDbEntity
  8
SOLDERMASK_PADS_BTM
100
AcDbCircle
 10
55973.828
 20
25512.564
 30
0.0
 40
190.0
  0
CIRCLE
  5
FC
100
AcDbEntity
  8
SOLDERMASK_PADS_BTM
100
AcDbCircle
 10
54250.535
 20
24106.296
 30
0.0
 40
190.0
  0
CIRCLE
  5
FD
100
AcDbEntity
  8
SOLDERMASK_PADS_BTM
100
AcDbCircle
 10
57666.53
 20
24034.917
 30
0.0
 40
190.0
  0
CIRCLE
  5
FE
100
AcDbEntity
  8
SOLDERMASK_PADS_BTM
100
AcDbCircle
 10
21713.558
 20
18003.18
 30
0.0
 40
190.0
  0
CIRCLE
  5
FF
100
AcDbEntity
  8
SOLDERMASK_PADS_BTM
100
AcDbCircle
 10
31457.11
 20
23815.66
 30
0.0
 40
190.0
  0
CIRCLE
  5
100
100
AcDbEntity
  8
SOLDERMASK_PADS_BTM
100
AcDbCircle
 10
32772.566
 20
25161.708
 30
0.0
 40
190.0
  0
CIRCLE
  5
101
100
AcDbEntity
  8
SOLDERMASK_PADS_BTM
100
AcDbCircle
 10
34852.822
 20
25544.108
 30
0.0
 40
190.0
  0
CIRCLE
  5
102
100
AcDbEntity
  8
SOLDERMASK_PADS_BTM
100
AcDbCircle
 10
36749.526
 20
25528.812
 30
0.0
 40
190.0
  0
CIRCLE
  5
103
100
AcDbEntity
  8
SOLDERMASK_PADS_BTM
100
AcDbCircle
 10
38814.486
 20
25512.564
 30
0.0
 40
190.0
  0
CIRCLE
  5
104
100
AcDbEntity
  8
SOLDERMASK_PADS_BTM
100
AcDbCircle
 10
42118.422
 20
25512.564
 30
0.0
 40
190.0
  0
CIRCLE
  5
105
100
AcDbEntity
  8
SOLDERMASK_PADS_BTM
100
AcDbCircle
 10
52320.854
 20
24090.988
 30
0.0
 40
190.0
  0
CIRCLE
  5
106
100
AcDbEntity
  8
SOLDERMASK_PADS_BTM
100
AcDbCircle
 10
52359.094
 20
25605.292
 30
0.0
 40
190.0
  0
CIRCLE
  5
107
100
AcDbEntity
  8
SOLDERMASK_PADS_BTM
100
AcDbCircle
 10
50232.95
 20
25544.108
 30
0.0
 40
190.0
  0
CIRCLE
  5
108
100
AcDbEntity
  8
SOLDERMASK_PADS_BTM
100
AcDbCircle
 10
48198.582
 20
25559.404
 30
0.0
 40
190.0
  0
CIRCLE
  5
109
100
AcDbEntity
  8
SOLDERMASK_PADS_BTM
100
AcDbCircle
 10
46164.214
 20
25574.7
 30
0.0
 40
190.0
  0
CIRCLE
  5
10A
100
AcDbEntity
  8
SOLDERMASK_PADS_BTM
100
AcDbCircle
 10
44022.774
 20
25513.516
 30
0.0
 40
190.0
  0
CIRCLE
  5
10B
100
AcDbEntity
  8
SOLDERMASK_PADS_BTM
100
AcDbCircle
 10
40627.062
 20
25513.516
 30
0.0
 40
190.0
  0
CIRCLE
  5
10C
100
AcDbEntity
  8
SOLDERMASK_PADS_BTM
100
AcDbCircle
 10
19977.462
 20
17987.884
 30
0.0
 40
190.0
  0
CIRCLE
  5
10D
100
AcDbEntity
  8
SOLDERMASK_PADS_BTM
100
AcDbCircle
 10
17943.094
 20
18003.18
 30
0.0
 40
190.0
  0
CIRCLE
  5
10E
100
AcDbEntity
  8
SOLDERMASK_PADS_BTM
100
AcDbCircle
 10
15908.726
 20
18018.476
 30
0.0
 40
190.0
  0
CIRCLE
  5
10F
100
AcDbEntity
  8
SOLDERMASK_PADS_BTM
100
AcDbCircle
 10
25282.696
 20
7684.966
 30
0.0
 40
190.0
  0
CIRCLE
  5
110
100
AcDbEntity
  8
SOLDERMASK_PADS_BTM
100
AcDbCircle
 10
30557.304
 20
9235.034
 30
0.0
 40
190.0
  0
CIRCLE
  5
111
100
AcDbEntity
  8
SOLDERMASK_PADS_BTM
100
AcDbCircle
 10
30522.696
 20
7684.966
 30
0.0
 40
190.0
  0
CIRCLE
  5
112
100
AcDbEntity
  8
SOLDERMASK_PADS_BTM
100
AcDbCircle
 10
38447.304
 20
9235.034
 30
0.0
 40
190.0
  0
CIRCLE
  5
113
100
AcDbEntity
  8
SOLDERMASK_PADS_BTM
100
AcDbCircle
 10
38412.696
 20
7684.966
 30
0.0
 40
190.0
  0
CIRCLE
  5
114
100
AcDbEntity
  8
SOLDERMASK_PADS_BTM
100
AcDbCircle
 10
40092.696
 20
9454.966
 30
0.0
 40
190.0
  0
CIRCLE
  5
115
100
AcDbEntity
  8
SOLDERMASK_PADS_BTM
100
AcDbCircle
 10
55840.446
 20
24262.935
 30
0.0
 40
190.0
  0
CIRCLE
  5
116
100
AcDbEntity
  8
SOLDERMASK_PADS_BTM
100
AcDbCircle
 10
62441.442
 20
1489.074
 30
0.0
 40
190.0
  0
CIRCLE
  5
117
100
AcDbEntity
  8
SOLDERMASK_PADS_BTM
100
AcDbCircle
 10
64645.986
 20
1489.074
 30
0.0
 40
190.0
  0
CIRCLE
  5
118
100
AcDbEntity
  8
SOLDERMASK_PADS_BTM
100
AcDbCircle
 10
74290.866
 20
9893.898
 30
0.0
 40
190.0
  0
CIRCLE
  5
119
100
AcDbEntity
  8
SOLDERMASK_PADS_BTM
100
AcDbCircle
 10
74428.65
 20
12132.888
 30
0.0
 40
190.0
  0
CIRCLE
  5
11A
100
AcDbEntity
  8
SOLDERMASK_PADS_BTM
100
AcDbCircle
 10
66953.868
 20
25360.152
 30
0.0
 40
190.0
  0
CIRCLE
  5
11B
100
AcDbEntity
  8
SOLDERMASK_PADS_BTM
100
AcDbCircle
 10
66391.427
 20
23507.76
 30
0.0
 40
190.0
  0
CIRCLE
  5
11C
100
AcDbEntity
  8
SOLDERMASK_PADS_BTM
100
AcDbCircle
 10
69147.107
 20
12192.249
 30
0.0
 40
190.0
  0
CIRCLE
  5
11D
100
AcDbEntity
  8
SOLDERMASK_PADS_BTM
100
AcDbCircle
 10
72350.585
 20
11623.89
 30
0.0
 40
190.0
  0
CIRCLE
  5
11E
100
AcDbEntity
  8
SOLDERMASK_PADS_BTM
100
AcDbCircle
 10
70438.832
 20
9660.468
 30
0.0
 40
190.0
  0
CIRCLE
  5
11F
100
AcDbEntity
  8
SOLDERMASK_PADS_BTM
100
AcDbCircle
 10
41705.125
 20
8879.692
 30
0.0
 40
190.0
  0
CIRCLE
  5
120
100
AcDbEntity
  8
SOLDERMASK_PADS_BTM
100
AcDbCircle
 10
43226.489
 20
1714.924
 30
0.0
 40
190.0
  0
CIRCLE
  5
121
100
AcDbEntity
  8
SOLDERMASK_PADS_BTM
100
AcDbCircle
 10
67722.761
 20
22130.759
 30
0.0
 40
190.0
  0
CIRCLE
  5
122
100
AcDbEntity
  8
SOLDERMASK_PADS_BTM
100
AcDbCircle
 10
17132.803
 20
25269.17
 30
0.0
 40
190.0
  0
CIRCLE
  5
123
100
AcDbEntity
  8
SOLDERMASK_PADS_BTM
100
AcDbCircle
 10
29686.633
 20
24840.518
 30
0.0
 40
190.0
  0
CIRCLE
  5
124
100
AcDbEntity
  8
SOLDERMASK_PADS_BTM
100
AcDbCircle
 10
27711.729
 20
23233.038
 30
0.0
 40
190.0
  0
CIRCLE
  5
125
100
AcDbEntity
  8
SOLDERMASK_PADS_BTM
100
AcDbCircle
 10
20799.565
 20
23141.182
 30
0.0
 40
190.0
  0
CIRCLE
  5
126
100
AcDbEntity
  8
SOLDERMASK_PADS_BTM
100
AcDbCircle
 10
18916.517
 20
21602.594
 30
0.0
 40
190.0
  0
CIRCLE
  5
127
100
AcDbEntity
  8
SOLDERMASK_PADS_BTM
100
AcDbCircle
 10
19146.157
 20
24702.734
 30
0.0
 40
190.0
  0
CIRCLE
  5
128
100
AcDbEntity
  8
SOLDERMASK_PADS_BTM
100
AcDbCircle
 10
17056.433
 20
23072.29
 30
0.0
 40
190.0
  0
CIRCLE
  5
129
100
AcDbEntity
  8
SOLDERMASK_PADS_BTM
100
AcDbCircle
 10
5818.546
 20
17132.272
 30
0.0
 40
190.0
  0
CIRCLE
  5
12A
100
AcDbEntity
  8
SOLDERMASK_PADS_BTM
100
AcDbCircle
 10
7854.643
 20
19015.279
 30
0.0
 40
190.0
  0
CIRCLE
  5
12B
100
AcDbEntity
  8
SOLDERMASK_PADS_BTM
100
AcDbCircle
 10
4211.101
 20
18724.408
 30
0.0
 40
190.0
  0
CIRCLE
  5
12C
100
AcDbEntity
  8
SOLDERMASK_PADS_BTM
100
AcDbCircle
 10
3078.235
 20
17392.525
 30
0.0
 40
190.0
  0
CIRCLE
  5
12D
100
AcDbEntity
  8
SOLDERMASK_PADS_BTM
100
AcDbCircle
 10
1501.408
 20
17943.649
 30
0.0
 40
190.0
  0
CIRCLE
  5
12E
100
AcDbEntity
  8
SOLDERMASK_PADS_BTM
100
AcDbCircle
 10
7946.497
 20
16749.547
 30
0.0
 40
190.0
  0
CIRCLE
  5
12F
100
AcDbEntity
  8
SOLDERMASK_PADS_BTM
100
AcDbCircle
 10
1555.104
 20
15945.827
 30
0.0
 40
190.0
  0
CIRCLE
  5
130
100
AcDbEntity
  8
SOLDERMASK_PADS_BTM
100
AcDbCircle
 10
9615.468
 20
18288.155
 30
0.0
 40
190.0
  0
CIRCLE
  5
131
100
AcDbEntity
  8
SOLDERMASK_PADS_BTM
100
AcDbCircle
 10
12876.356
 20
15302.835
 30
0.0
 40
190.0
  0
CIRCLE
  5
132
100
AcDbEntity
  8
SOLDERMASK_PADS_BTM
100
AcDbCircle
 10
9730.288
 20
15532.475
 30
0.0
 40
190.0
  0
CIRCLE
  5
133
100
AcDbEntity
  8
SOLDERMASK_PADS_BTM
100
AcDbCircle
 10
28235.235
 20
7719.653
 30
0.0
 40
190.0
  0
CIRCLE
  5
134
100
AcDbEntity
  8
SOLDERMASK_PADS_BTM
100
AcDbCircle
 10
22586.091
 20
7903.365
 30
0.0
 40
190.0
  0
CIRCLE
  5
135
100
AcDbEntity
  8
SOLDERMASK_PADS_BTM
100
AcDbCircle
 10
37745.448
 20
15952.435
 30
0.0
 40
190.0
  0
CIRCLE
  5
136
100
AcDbEntity
  8
SOLDERMASK_PADS_BTM
100
AcDbCircle
 10
37179.015
 20
12875.326
 30
0.0
 40
190.0
  0
CIRCLE
  5
137
100
AcDbEntity
  8
SOLDERMASK_PADS_BTM
100
AcDbCircle
 10
36046.149
 20
10104.397
 30
0.0
 40
190.0
  0
CIRCLE
  5
138
100
AcDbEntity
  8
SOLDERMASK_PADS_BTM
100
AcDbCircle
 10
34897.974
 20
8343.862
 30
0.0
 40
190.0
  0
CIRCLE
  5
139
100
AcDbEntity
  8
SOLDERMASK_PADS_BTM
100
AcDbCircle
 10
13858.645
 20
12433.998
 30
0.0
 40
190.0
  0
CIRCLE
  5
13A
100
AcDbEntity
  8
SOLDERMASK_PADS_BTM
100
AcDbCircle
 10
16461.397
 20
9364.476
 30
0.0
 40
190.0
  0
CIRCLE
  5
13B
100
AcDbEntity
  8
SOLDERMASK_PADS_BTM
100
AcDbCircle
 10
14950.636
 20
10938.751
 30
0.0
 40
190.0
  0
CIRCLE
  5
13C
100
AcDbEntity
  8
SOLDERMASK_PADS_BTM
100
AcDbCircle
 10
5502.384
 20
7631.923
 30
0.0
 40
190.0
  0
CIRCLE
  5
13D
100
AcDbEntity
  8
SOLDERMASK_PADS_BTM
100
AcDbCircle
 10
1450.286
 20
9591.473
 30
0.0
 40
190.0
  0
CIRCLE
  5
13E
100
AcDbEntity
  8
SOLDERMASK_PADS_BTM
100
AcDbCircle
 10
2797.478
 20
10265.069
 30
0.0
 40
190.0
  0
CIRCLE
  5
13F
100
AcDbEntity
  8
SOLDERMASK_PADS_BTM
100
AcDbCircle
 10
3909.932
 20
9560.855
 30
0.0
 40
190.0
  0
CIRCLE
  5
140
100
AcDbEntity
  8
SOLDERMASK_PADS_BTM
100
AcDbCircle
 10
8420.984
 20
7540.067
 30
0.0
 40
190.0
  0
CIRCLE
  5
141
100
AcDbEntity
  8
SOLDERMASK_PADS_BTM
100
AcDbCircle
 10
9962.09
 20
8846.435
 30
0.0
 40
190.0
  0
CIRCLE
  5
142
100
AcDbEntity
  8
SOLDERMASK_PADS_BTM
100
AcDbCircle
 10
8727.164
 20
8856.641
 30
0.0
 40
190.0
  0
CIRCLE
  5
143
100
AcDbEntity
  8
SOLDERMASK_PADS_BTM
100
AcDbCircle
 10
7788.212
 20
9591.473
 30
0.0
 40
190.0
  0
CIRCLE
  5
144
100
AcDbEntity
  8
SOLDERMASK_PADS_BTM
100
AcDbCircle
 10
69513.263
 20
19516.598
 30
0.0
 40
190.0
  0
CIRCLE
  5
145
100
AcDbEntity
  8
SOLDERMASK_PADS_BTM
100
AcDbCircle
 10
69523.46
 20
20974.769
 30
0.0
 40
190.0
  0
CIRCLE
  5
146
100
AcDbEntity
  8
SOLDERMASK_PADS_BTM
100
AcDbCircle
 10
69492.869
 20
22341.167
 30
0.0
 40
190.0
  0
CIRCLE
  5
147
100
AcDbEntity
  8
SOLDERMASK_PADS_BTM
100
AcDbCircle
 10
69533.657
 20
23554.61
 30
0.0
 40
190.0
  0
CIRCLE
  5
148
100
AcDbEntity
  8
SOLDERMASK_PADS_BTM
100
AcDbCircle
 10
70961.237
 20
23615.792
 30
0.0
 40
190.0
  0
CIRCLE
  5
149
100
AcDbEntity
  8
SOLDERMASK_PADS_BTM
100
AcDbCircle
 10
72093.104
 20
23564.807
 30
0.0
 40
190.0
  0
CIRCLE
  5
14A
100
AcDbEntity
  8
SOLDERMASK_PADS_BTM
100
AcDbCircle
 10
69584.642
 20
18058.427
 30
0.0
 40
190.0
  0
CIRCLE
  5
14B
100
AcDbEntity
  8
SOLDERMASK_PADS_BTM
100
AcDbCircle
 10
8580.854
 20
20496.714
 30
0.0
 40
190.0
  0
CIRCLE
  5
14C
100
AcDbEntity
  8
SOLDERMASK_PADS_BTM
100
AcDbCircle
 10
7403.062
 20
20527.306
 30
0.0
 40
190.0
  0
CIRCLE
  5
14D
100
AcDbEntity
  8
SOLDERMASK_PADS_BTM
100
AcDbCircle
 10
6041.718
 20
20512.01
 30
0.0
 40
190.0
  0
CIRCLE
  5
14E
100
AcDbEntity
  8
SOLDERMASK_PADS_BTM
100
AcDbCircle
 10
4833.334
 20
20481.418
 30
0.0
 40
190.0
  0
CIRCLE
  5
14F
100
AcDbEntity
  8
SOLDERMASK_PADS_BTM
100
AcDbCircle
 10
3640.246
 20
20542.602
 30
0.0
 40
190.0
  0
CIRCLE
  5
150
100
AcDbEntity
  8
SOLDERMASK_PADS_BTM
100
AcDbCircle
 10
3583.866
 20
21801.891
 30
0.0
 40
190.0
  0
CIRCLE
  5
151
100
AcDbEntity
  8
SOLDERMASK_PADS_BTM
100
AcDbCircle
 10
3624.654
 20
23209.077
 30
0.0
 40
190.0
  0
CIRCLE
  5
152
100
AcDbEntity
  8
SOLDERMASK_PADS_BTM
100
AcDbCircle
 10
3624.654
 20
24391.929
 30
0.0
 40
190.0
  0
CIRCLE
  5
153
100
AcDbEntity
  8
SOLDERMASK_PADS_BTM
100
AcDbCircle
 10
1411.905
 20
19951.135
 30
0.0
 40
190.0
  0
CIRCLE
  5
154
100
AcDbEntity
  8
SOLDERMASK_PADS_BTM
100
AcDbCircle
 10
1452.693
 20
21215.563
 30
0.0
 40
190.0
  0
CIRCLE
  5
155
100
AcDbEntity
  8
SOLDERMASK_PADS_BTM
100
AcDbCircle
 10
1513.875
 20
22694.128
 30
0.0
 40
190.0
  0
CIRCLE
  5
156
100
AcDbEntity
  8
SOLDERMASK_PADS_BTM
100
AcDbCircle
 10
1575.057
 20
24142.102
 30
0.0
 40
190.0
  0
CIRCLE
  5
157
100
AcDbEntity
  8
SOLDERMASK_PADS_BTM
100
AcDbCircle
 10
1422.102
 20
25457.515
 30
0.0
 40
190.0
  0
CIRCLE
  5
158
100
AcDbEntity
  8
SOLDERMASK_PADS_BTM
100
AcDbCircle
 10
2462.196
 20
25457.515
 30
0.0
 40
190.0
  0
CIRCLE
  5
159
100
AcDbEntity
  8
SOLDERMASK_PADS_BTM
100
AcDbCircle
 10
13158.848
 20
21577.556
 30
0.0
 40
190.0
  0
CIRCLE
  5
15A
100
AcDbEntity
  8
SOLDERMASK_PADS_BTM
100
AcDbCircle
 10
13169.045
 20
22994.939
 30
0.0
 40
190.0
  0
CIRCLE
  5
15B
100
AcDbEntity
  8
SOLDERMASK_PADS_BTM
100
AcDbCircle
 10
13179.242
 20
24198.185
 30
0.0
 40
190.0
  0
CIRCLE
  5
15C
100
AcDbEntity
  8
SOLDERMASK_PADS_BTM
100
AcDbCircle
 10
72972.919
 20
13917.98
 30
0.0
 40
190.0
  0
CIRCLE
  5
15D
100
AcDbEntity
  8
SOLDERMASK_PADS_BTM
100
AcDbCircle
 10
71626.915
 20
13938.374
 30
0.0
 40
190.0
  0
CIRCLE
  5
15E
100
AcDbEntity
  8
SOLDERMASK_PADS_BTM
100
AcDbCircle
 10
70352.29
 20
13938.374
 30
0.0
 40
190.0
  0
CIRCLE
  5
15F
100
AcDbEntity
  8
SOLDERMASK_PADS_BTM
100
AcDbCircle
 10
69610.829
 20
15030.374
 30
0.0
 40
190.0
  0
CIRCLE
  5
160
100
AcDbEntity
  8
SOLDERMASK_PADS_BTM
100
AcDbCircle
 10
74413.773
 20
25477.542
 30
0.0
 40
190.0
  0
CIRCLE
  5
161
100
AcDbEntity
  8
SOLDERMASK_PADS_BTM
100
AcDbCircle
 10
72593.549
 20
25492.838
 30
0.0
 40
190.0
  0
CIRCLE
  5
162
100
AcDbEntity
  8
SOLDERMASK_PADS_BTM
100
AcDbCircle
 10
71033.357
 20
25538.726
 30
0.0
 40
190.0
  0
CIRCLE
  5
163
100
AcDbEntity
  8
SOLDERMASK_PADS_BTM
100
AcDbCircle
 10
69182.541
 20
25554.022
 30
0.0
 40
190.0
  0
CIRCLE
  5
164
100
AcDbEntity
  8
SOLDERMASK_PADS_BTM
100
AcDbCircle
 10
73235.981
 20
23580.838
 30
0.0
 40
190.0
  0
CIRCLE
  5
165
100
AcDbEntity
  8
SOLDERMASK_PADS_BTM
100
AcDbCircle
 10
2919.743
 20
8551.709
 30
0.0
 40
190.0
  0
CIRCLE
  5
166
100
AcDbEntity
  8
SOLDERMASK_PADS_BTM
100
AcDbCircle
 10
1541.933
 20
8138.366
 30
0.0
 40
190.0
  0
CIRCLE
  5
167
100
AcDbEntity
  8
SOLDERMASK_PADS_BTM
100
AcDbCircle
 10
15259.801
 20
15137.278
 30
0.0
 40
190.0
  0
CIRCLE
  5
168
100
AcDbEntity
  8
SOLDERMASK_PADS_BTM
100
AcDbCircle
 10
66973.086
 20
9213.53
 30
0.0
 40
190.0
  0
CIRCLE
  5
169
100
AcDbEntity
  8
SOLDERMASK_PADS_BTM
100
AcDbCircle
 10
67320.101
 20
1548.458
 30
0.0
 40
190.0
  0
CIRCLE
  5
16A
100
AcDbEntity
  8
SOLDERMASK_PADS_BTM
100
AcDbCircle
 10
67320.101
 20
2722.148
 30
0.0
 40
190.0
  0
CIRCLE
  5
16B
100
AcDbEntity
  8
SOLDERMASK_PADS_BTM
100
AcDbCircle
 10
67381.337
 20
3936.662
 30
0.0
 40
190.0
  0
CIRCLE
  5
16C
100
AcDbEntity
  8
SOLDERMASK_PADS_BTM
100
AcDbCircle
 10
67401.749
 20
5253.236
 30
0.0
 40
190.0
  0
CIRCLE
  5
16D
100
AcDbEntity
  8
SOLDERMASK_PADS_BTM
100
AcDbCircle
 10
67381.337
 20
6590.222
 30
0.0
 40
190.0
  0
CIRCLE
  5
16E
100
AcDbEntity
  8
SOLDERMASK_PADS_BTM
100
AcDbCircle
 10
68289.671
 20
8682.452
 30
0.0
 40
190.0
  0
CIRCLE
  5
16F
100
AcDbEntity
  8
SOLDERMASK_PADS_BTM
100
AcDbCircle
 10
74443.889
 20
8529.362
 30
0.0
 40
190.0
  0
CIRCLE
  5
170
100
AcDbEntity
  8
SOLDERMASK_PADS_BTM
100
AcDbCircle
 10
72923.195
 20
8621.216
 30
0.0
 40
190.0
  0
CIRCLE
  5
171
100
AcDbEntity
  8
SOLDERMASK_PADS_BTM
100
AcDbCircle
 10
71535.179
 20
8590.598
 30
0.0
 40
190.0
  0
CIRCLE
  5
172
100
AcDbEntity
  8
SOLDERMASK_PADS_BTM
100
AcDbCircle
 10
67381.337
 20
7763.912
 30
0.0
 40
190.0
  0
CIRCLE
  5
173
100
AcDbEntity
  8
SOLDERMASK_PADS_BTM
100
AcDbCircle
 10
69784.85
 20
8575.289
 30
0.0
 40
190.0
  0
CIRCLE
  5
174
100
AcDbEntity
  8
SOLDERMASK_PADS_BTM
100
AcDbCircle
 10
74420.288
 20
24424.423
 30
0.0
 40
190.0
  0
CIRCLE
  5
175
100
AcDbEntity
  8
SOLDERMASK_PADS_BTM
100
AcDbCircle
 10
15542.62
 20
25483.333
 30
0.0
 40
190.0
  0
CIRCLE
  5
176
100
AcDbEntity
  8
SOLDERMASK_PADS_BTM
100
AcDbCircle
 10
13959.395
 20
25541.433
 30
0.0
 40
190.0
  0
CIRCLE
  5
177
100
AcDbEntity
  8
SOLDERMASK_PADS_BTM
100
AcDbCircle
 10
65260.529
 20
6543.996
 30
0.0
 40
190.0
  0
CIRCLE
  5
178
100
AcDbEntity
  8
SOLDERMASK_PADS_BTM
100
AcDbCircle
 10
12926.04
 20
8661.409
 30
0.0
 40
190.0
  0
CIRCLE
  5
179
100
AcDbEntity
  8
SOLDERMASK_PADS_BTM
100
AcDbCircle
 10
58727.431
 20
23198.779
 30
0.0
 40
190.0
  0
CIRCLE
  5
17A
100
AcDbEntity
  8
SOLDERMASK_PADS_BTM
100
AcDbCircle
 10
56735.616
 20
1766.894
 30
0.0
 40
190.0
  0
CIRCLE
  5
17B
100
AcDbEntity
  8
SOLDERMASK_PADS_BTM
100
AcDbCircle
 10
47048.756
 20
1882.558
 30
0.0
 40
190.0
  0
CIRCLE
  5
17C
100
AcDbEntity
  8
SOLDERMASK_PADS_BTM
100
AcDbCircle
 10
44966.804
 20
4051.258
 30
0.0
 40
190.0
  0
CIRCLE
  5
17D
100
AcDbEntity
  8
SOLDERMASK_PADS_BTM
100
AcDbCircle
 10
43983.66
 20
6885.026
 30
0.0
 40
190.0
  0
CIRCLE
  5
17E
100
AcDbEntity
  8
SOLDERMASK_PADS_BTM
100
AcDbCircle
 10
61029.22
 20
21523.075
 30
0.0
 40
190.0
  0
CIRCLE
  5
17F
100
AcDbEntity
  8
SOLDERMASK_PADS_BTM
100
AcDbCircle
 10
67756.893
 20
15277.327
 30
0.0
 40
190.0
  0
CIRCLE
  5
180
100
AcDbEntity
  8
SOLDERMASK_PADS_BTM
100
AcDbCircle
 10
23311.99
 20
18033.772
 30
0.0
 40
190.0
  0
CIRCLE
  5
181
100
AcDbEntity
  8
SOLDERMASK_PADS_BTM
100
AcDbCircle
 10
25782.198
 20
15753.47
 30
0.0
 40
190.0
  0
CIRCLE
  5
182
100
AcDbEntity
  8
SOLDERMASK_PADS_BTM
100
AcDbCircle
 10
17257.385
 20
12992.855
 30
0.0
 40
190.0
  0
CIRCLE
  5
183
100
AcDbEntity
  8
SOLDERMASK_PADS_BTM
100
AcDbCircle
 10
20430.159
 20
8466.527
 30
0.0
 40
190.0
  0
CIRCLE
  5
184
100
AcDbEntity
  8
SOLDERMASK_PADS_BTM
100
AcDbCircle
 10
18600.663
 20
7856.695
 30
0.0
 40
190.0
  0
CIRCLE
  5
185
100
AcDbEntity
  8
SOLDERMASK_PADS_BTM
100
AcDbCircle
 10
19347.675
 20
12224.403
 30
0.0
 40
190.0
  0
CIRCLE
  5
186
100
AcDbEntity
  8
SOLDERMASK_PADS_BTM
100
AcDbCircle
 10
43595.62
 20
13209.154
 30
0.0
 40
190.0
  0
CIRCLE
  5
187
100
AcDbEntity
  8
SOLDERMASK_PADS_BTM
100
AcDbCircle
 10
32484.634
 20
7415.897
 30
0.0
 40
190.0
  0
CIRCLE
  5
188
100
AcDbEntity
  8
SOLDERMASK_PADS_BTM
100
AcDbCircle
 10
33369.874
 20
10297.845
 30
0.0
 40
190.0
  0
CIRCLE
  5
189
100
AcDbEntity
  8
SOLDERMASK_PADS_BTM
100
AcDbCircle
 10
41870.149
 20
20575.0
 30
0.0
 40
190.0
  0
CIRCLE
  5
18A
100
AcDbEntity
  8
SOLDERMASK_PADS_BTM
100
AcDbCircle
 10
44601.037
 20
20575.0
 30
0.0
 40
190.0
  0
CIRCLE
  5
18B
100
AcDbEntity
  8
SOLDERMASK_PADS_BTM
100
AcDbCircle
 10
29681.701
 20
20670.519
 30
0.0
 40
190.0
  0
CIRCLE
  5
18C
100
AcDbEntity
  8
SOLDERMASK_PADS_BTM
100
AcDbCircle
 10
47695.075
 20
20732.214
 30
0.0
 40
190.0
  0
CIRCLE
  5
18D
100
AcDbEntity
  8
SOLDERMASK_PADS_BTM
100
AcDbCircle
 10
38776.111
 20
20630.532
 30
0.0
 40
190.0
  0
CIRCLE
  5
18E
100
AcDbEntity
  8
SOLDERMASK_PADS_BTM
100
AcDbCircle
 10
36045.223
 20
20732.214
 30
0.0
 40
190.0
  0
CIRCLE
  5
18F
100
AcDbEntity
  8
SOLDERMASK_PADS_BTM
100
AcDbCircle
 10
33735.589
 20
20746.74
 30
0.0
 40
190.0
  0
CIRCLE
  5
190
100
AcDbEntity
  8
SOLDERMASK_PADS_BTM
100
AcDbCircle
 10
31818.157
 20
20674.11
 30
0.0
 40
190.0
  0
CIRCLE
  5
191
100
AcDbEntity
  8
SOLDERMASK_PADS_BTM
100
AcDbCircle
 10
27750.877
 20
20703.162
 30
0.0
 40
190.0
  0
CIRCLE
  5
192
100
AcDbEntity
  8
SOLDERMASK_PADS_BTM
100
AcDbCircle
 10
60670.069
 20
19134.173
 30
0.0
 40
190.0
  0
CIRCLE
  5
193
100
AcDbEntity
  8
SOLDERMASK_PADS_BTM
100
AcDbCircle
 10
61797.411
 20
18208.743
 30
0.0
 40
190.0
  0
CIRCLE
  5
194
100
AcDbEntity
  8
SOLDERMASK_PADS_BTM
100
AcDbCircle
 10
61797.411
 20
20295.167
 30
0.0
 40
190.0
  0
CIRCLE
  5
195
100
AcDbEntity
  8
SOLDERMASK_PADS_BTM
100
AcDbCircle
 10
29657.321
 20
19345.0
 30
0.0
 40
190.0
  0
CIRCLE
  5
196
100
AcDbEntity
  8
SOLDERMASK_PADS_BTM
100
AcDbCircle
 10
26535.761
 20
19345.0
 30
0.0
 40
190.0
  0
CIRCLE
  5
197
100
AcDbEntity
  8
SOLDERMASK_PADS_BTM
100
AcDbCircle
 10
25254.582
 20
18538.54
 30
0.0
 40
190.0
  0
CIRCLE
  5
198
100
AcDbEntity
  8
SOLDERMASK_PADS_BTM
100
AcDbCircle
 10
33814.569
 20
19240.736
 30
0.0
 40
190.0
  0
CIRCLE
  5
199
100
AcDbEntity
  8
SOLDERMASK_PADS_BTM
100
AcDbCircle
 10
27904.445
 20
19312.726
 30
0.0
 40
190.0
  0
CIRCLE
  5
19A
100
AcDbEntity
  8
SOLDERMASK_PADS_BTM
100
AcDbCircle
 10
35361.299
 20
19275.034
 30
0.0
 40
190.0
  0
CIRCLE
  5
19B
100
AcDbEntity
  8
SOLDERMASK_PADS_BTM
100
AcDbCircle
 10
36729.343
 20
19275.034
 30
0.0
 40
190.0
  0
CIRCLE
  5
19C
100
AcDbEntity
  8
SOLDERMASK_PADS_BTM
100
AcDbCircle
 10
30815.515
 20
19221.174
 30
0.0
 40
190.0
  0
CIRCLE
  5
19D
100
AcDbEntity
  8
SOLDERMASK_PADS_BTM
100
AcDbCircle
 10
30771.66
 20
17939.588
 30
0.0
 40
190.0
  0
CIRCLE
  5
19E
100
AcDbEntity
  8
SOLDERMASK_PADS_BTM
100
AcDbCircle
 10
32349.268
 20
17983.82
 30
0.0
 40
190.0
  0
CIRCLE
  5
19F
100
AcDbEntity
  8
SOLDERMASK_PADS_BTM
100
AcDbCircle
 10
33808.924
 20
17895.356
 30
0.0
 40
190.0
  0
CIRCLE
  5
1A0
100
AcDbEntity
  8
SOLDERMASK_PADS_BTM
100
AcDbCircle
 10
36772.468
 20
17718.428
 30
0.0
 40
190.0
  0
CIRCLE
  5
1A1
100
AcDbEntity
  8
SOLDERMASK_PADS_BTM
100
AcDbCircle
 10
39559.084
 20
17512.012
 30
0.0
 40
190.0
  0
CIRCLE
  5
1A2
100
AcDbEntity
  8
SOLDERMASK_PADS_BTM
100
AcDbCircle
 10
45441.94
 20
18042.796
 30
0.0
 40
190.0
  0
CIRCLE
  5
1A3
100
AcDbEntity
  8
SOLDERMASK_PADS_BTM
100
AcDbCircle
 10
46496.153
 20
7433.461
 30
0.0
 40
190.0
  0
CIRCLE
  5
1A4
100
AcDbEntity
  8
SOLDERMASK_PADS_BTM
100
AcDbCircle
 10
24382.696
 20
7684.966
 30
0.0
 40
190.0
  0
CIRCLE
  5
1A5
100
AcDbEntity
  8
SOLDERMASK_PADS_BTM
100
AcDbCircle
 10
9100.0
 20
25390.0
 30
0.0
 40
90.0
  0
CIRCLE
  5
1A6
100
AcDbEntity
  8
SOLDERMASK_PADS_BTM
100
AcDbCircle
 10
8100.0
 20
25390.0
 30
0.0
 40
90.0
  0
CIRCLE
  5
1A7
100
AcDbEntity
  8
SOLDERMASK_PADS_BTM
100
AcDbCircle
 10
7100.0
 20
25390.0
 30
0.0
 40
90.0
  0
CIRCLE
  5
1A8
100
AcDbEntity
  8
SOLDERMASK_PADS_BTM
100
AcDbCircle
 10
6100.0
 20
25390.0
 30
0.0
 40
90.0
  0
CIRCLE
  5
1A9
100
AcDbEntity
  8
SOLDERMASK_PADS_BTM
100
AcDbCircle
 10
5100.0
 20
25390.0
 30
0.0
 40
90.0
  0
CIRCLE
  5
1AA
100
AcDbEntity
  8
SOLDERMASK_PADS_BTM
100
AcDbCircle
 10
74430.0
 20
20935.0
 30
0.0
 40
90.0
  0
CIRCLE
  5
1AB
100
AcDbEntity
  8
SOLDERMASK_PADS_BTM
100
AcDbCircle
 10
74430.0
 20
19935.0
 30
0.0
 40
90.0
  0
CIRCLE
  5
1AC
100
AcDbEntity
  8
SOLDERMASK_PADS_BTM
100
AcDbCircle
 10
74430.0
 20
21935.0
 30
0.0
 40
90.0
  0
CIRCLE
  5
1AD
100
AcDbEntity
  8
SOLDERMASK_PADS_BTM
100
AcDbCircle
 10
74430.0
 20
18935.0
 30
0.0
 40
90.0
  0
CIRCLE
  5
1AE
100
AcDbEntity
  8
SOLDERMASK_PADS_BTM
100
AcDbCircle
 10
74430.0
 20
17935.0
 30
0.0
 40
90.0
  0
CIRCLE
  5
1AF
100
AcDbEntity
  8
SOLDERMASK_PADS_BTM
100
AcDbCircle
 10
18503.963
 20
14388.98
 30
0.0
 40
190.0
  0
CIRCLE
  5
1B0
100
AcDbEntity
  8
SOLDERMASK_PADS_BTM
100
AcDbCircle
 10
19839.689
 20
14527.092
 30
0.0
 40
190.0
  0
CIRCLE
  5
1B1
100
AcDbEntity
  8
SOLDERMASK_PADS_BTM
100
AcDbCircle
 10
16998.493
 20
14029.777
 30
0.0
 40
190.0
  0
CIRCLE
  5
1B2
100
AcDbEntity
  8
SOLDERMASK_PADS_BTM
100
AcDbCircle
 10
27100.043
 20
8483.314
 30
0.0
 40
190.0
  0
CIRCLE
  5
1B3
100
AcDbEntity
  8
SOLDERMASK_PADS_BTM
100
AcDbCircle
 10
24299.666
 20
9292.081
 30
0.0
 40
190.0
  0
CIRCLE
  5
1B4
100
AcDbEntity
  8
SOLDERMASK_PADS_BTM
100
AcDbCircle
 10
25412.093
 20
9919.138
 30
0.0
 40
190.0
  0
CIRCLE
  5
1B5
100
AcDbEntity
  8
SOLDERMASK_PADS_BTM
100
AcDbCircle
 10
26312.093
 20
9984.814
 30
0.0
 40
190.0
  0
CIRCLE
  5
1B6
100
AcDbEntity
  8
SOLDERMASK_PADS_BTM
100
AcDbCircle
 10
28844.318
 20
11757.202
 30
0.0
 40
190.0
  0
CIRCLE
  5
1B7
100
AcDbEntity
  8
SOLDERMASK_PADS_BTM
100
AcDbCircle
 10
17631.153
 20
11894.773
 30
0.0
 40
190.0
  0
CIRCLE
  5
1B8
100
AcDbEntity
  8
SOLDERMASK_PADS_BTM
100
AcDbCircle
 10
18212.775
 20
12920.277
 30
0.0
 40
190.0
  0
CIRCLE
  5
1B9
100
AcDbEntity
  8
SOLDERMASK_PADS_BTM
100
AcDbCircle
 10
19675.764
 20
15769.609
 30
0.0
 40
190.0
  0
CIRCLE
  5
1BA
100
AcDbEntity
  8
SOLDERMASK_PADS_BTM
100
AcDbCircle
 10
7196.772
 20
7628.055
 30
0.0
 40
190.0
  0
CIRCLE
  5
1BB
100
AcDbEntity
  8
SOLDERMASK_PADS_BTM
100
AcDbCircle
 10
32437.878
 20
12150.0
 30
0.0
 40
190.0
  0
CIRCLE
  5
1BC
100
AcDbEntity
  8
SOLDERMASK_PADS_BTM
100
AcDbCircle
 10
40983.045
 20
18264.039
 30
0.0
 40
190.0
  0
CIRCLE
  5
1BD
100
AcDbEntity
  8
SOLDERMASK_PADS_BTM
100
AcDbCircle
 10
24259.204
 20
17965.0
 30
0.0
 40
190.0
  0
CIRCLE
  5
1BE
100
AcDbEntity
  8
SOLDERMASK_PADS_BTM
100
AcDbCircle
 10
63105.16
 20
15708.027
 30
0.0
 40
190.0
  0
CIRCLE
  5
1BF
100
AcDbEntity
  8
SOLDERMASK_PADS_BTM
100
AcDbCircle
 10
44757.405
 20
16933.654
 30
0.0
 40
190.0
  0
CIRCLE
  5
1C0
100
AcDbEntity
  8
SOLDERMASK_PADS_BTM
100
AcDbCircle
 10
38164.234
 20
18838.328
 30
0.0
 40
190.0
  0
CIRCLE
  5
1C1
100
AcDbEntity
  8
SOLDERMASK_PADS_BTM
100
AcDbCircle
 10
4644.797
 20
7904.955
 30
0.0
 40
190.0
  0
CIRCLE
  5
1C2
100
AcDbEntity
  8
SOLDERMASK_PADS_BTM
100
AcDbCircle
 10
38493.737
 20
11004.574
 30
0.0
 40
190.0
  0
CIRCLE
  5
1C3
100
AcDbEntity
  8
SOLDERMASK_PADS_BTM
100
AcDbCircle
 10
57978.094
 20
3519.068
 30
0.0
 40
190.0
  0
CIRCLE
  5
1C4
100
AcDbEntity
  8
SOLDERMASK_PADS_BTM
100
AcDbCircle
 10
2583.156
 20
14428.291
 30
0.0
 40
190.0
  0
CIRCLE
  5
1C5
100
AcDbEntity
  8
SOLDERMASK_PADS_BTM
100
AcDbCircle
 10
56519.423
 20
2989.383
 30
0.0
 40
190.0
  0
CIRCLE
  5
1C6
100
AcDbEntity
  8
SOLDERMASK_PADS_BTM
100
AcDbCircle
 10
2353.687
 20
13528.291
 30
0.0
 40
190.0
  0
CIRCLE
  5
1C7
100
AcDbEntity
  8
SOLDERMASK_PADS_BTM
100
AcDbCircle
 10
54128.792
 20
3359.059
 30
0.0
 40
190.0
  0
CIRCLE
  5
1C8
100
AcDbEntity
  8
SOLDERMASK_PADS_BTM
100
AcDbCircle
 10
26731.029
 20
15775.202
 30
0.0
 40
190.0
  0
CIRCLE
  5
1C9
100
AcDbEntity
  8
SOLDERMASK_PADS_BTM
100
AcDbCircle
 10
55499.986
 20
2524.078
 30
0.0
 40
190.0
  0
CIRCLE
  5
1CA
100
AcDbEntity
  8
SOLDERMASK_PADS_BTM
100
AcDbCircle
 10
3055.752
 20
12913.291
 30
0.0
 40
190.0
  0
CIRCLE
  5
1CB
100
AcDbEntity
  8
SOLDERMASK_PADS_BTM
100
AcDbCircle
 10
27044.329
 20
11598.745
 30
0.0
 40
190.0
  0
CIRCLE
  5
1CC
100
AcDbEntity
  8
SOLDERMASK_PADS_BTM
100
AcDbCircle
 10
48966.944
 20
10470.504
 30
0.0
 40
190.0
  0
CIRCLE
  5
1CD
100
AcDbEntity
  8
SOLDERMASK_PADS_BTM
100
AcDbCircle
 10
26144.58
 20
11577.444
 30
0.0
 40
190.0
  0
CIRCLE
  5
1CE
100
AcDbEntity
  8
SOLDERMASK_PADS_BTM
100
AcDbCircle
 10
51831.651
 20
3614.219
 30
0.0
 40
190.0
  0
CIRCLE
  5
1CF
100
AcDbEntity
  8
SOLDERMASK_PADS_BTM
100
AcDbCircle
 10
48305.231
 20
2989.383
 30
0.0
 40
190.0
  0
CIRCLE
  5
1D0
100
AcDbEntity
  8
SOLDERMASK_PADS_BTM
100
AcDbCircle
 10
2097.456
 20
11524.257
 30
0.0
 40
190.0
  0
CIRCLE
  5
1D1
100
AcDbEntity
  8
SOLDERMASK_PADS_BTM
100
AcDbCircle
 10
27645.641
 20
15820.072
 30
0.0
 40
190.0
  0
CIRCLE
  5
1D2
100
AcDbEntity
  8
SOLDERMASK_PADS_BTM
100
AcDbCircle
 10
53031.651
 20
3510.919
 30
0.0
 40
190.0
  0
CIRCLE
  5
1D3
100
AcDbEntity
  8
SOLDERMASK_PADS_BTM
100
AcDbCircle
 10
49266.813
 20
2011.503
 30
0.0
 40
190.0
  0
CIRCLE
  5
1D4
100
AcDbEntity
  8
SOLDERMASK_PADS_BTM
100
AcDbCircle
 10
2997.456
 20
11376.317
 30
0.0
 40
190.0
  0
CIRCLE
  5
1D5
100
AcDbEntity
  8
SOLDERMASK_PADS_BTM
100
AcDbCircle
 10
63103.815
 20
10339.781
 30
0.0
 40
190.0
  0
CIRCLE
  5
1D6
100
AcDbEntity
  8
SOLDERMASK_PADS_BTM
100
AcDbCircle
 10
43809.373
 20
12009.154
 30
0.0
 40
190.0
  0
CIRCLE
  5
1D7
100
AcDbEntity
  8
SOLDERMASK_PADS_BTM
100
AcDbCircle
 10
62726.455
 20
9019.643
 30
0.0
 40
190.0
  0
CIRCLE
  5
1D8
100
AcDbEntity
  8
SOLDERMASK_PADS_BTM
100
AcDbCircle
 10
42395.62
 20
12956.542
 30
0.0
 40
190.0
  0
CIRCLE
  5
1D9
100
AcDbEntity
  8
SOLDERMASK_PADS_BTM
100
AcDbCircle
 10
63705.68
 20
11010.709
 30
0.0
 40
190.0
  0
CIRCLE
  5
1DA
100
AcDbEntity
  8
SOLDERMASK_PADS_BTM
100
AcDbCircle
 10
43328.515
 20
14446.486
 30
0.0
 40
190.0
  0
CIRCLE
  5
1DB
100
AcDbEntity
  8
SOLDERMASK_PADS_BTM
100
AcDbCircle
 10
62861.985
 20
11946.744
 30
0.0
 40
190.0
  0
CIRCLE
  5
1DC
100
AcDbEntity
  8
SOLDERMASK_PADS_BTM
100
AcDbCircle
 10
43079.453
 20
15311.338
 30
0.0
 40
190.0
  0
CIRCLE
  5
1DD
100
AcDbEntity
  8
SOLDERMASK_PADS_BTM
100
AcDbCircle
 10
63519.778
 20
12561.744
 30
0.0
 40
190.0
  0
CIRCLE
  5
1DE
100
AcDbEntity
  8
SOLDERMASK_PADS_BTM
100
AcDbCircle
 10
42387.34
 20
15926.338
 30
0.0
 40
190.0
  0
CIRCLE
  5
1DF
100
AcDbEntity
  8
SOLDERMASK_PADS_BTM
100
AcDbCircle
 10
62942.396
 20
13461.744
 30
0.0
 40
190.0
  0
CIRCLE
  5
1E0
100
AcDbEntity
  8
SOLDERMASK_PADS_BTM
100
AcDbCircle
 10
42673.553
 20
16779.616
 30
0.0
 40
190.0
  0
CIRCLE
  5
1E1
100
AcDbEntity
  8
SOLDERMASK_PADS_BTM
100
AcDbCircle
 10
64445.389
 20
14749.722
 30
0.0
 40
190.0
  0
CIRCLE
  5
1E2
100
AcDbEntity
  8
SOLDERMASK_PADS_BTM
100
AcDbCircle
 10
2212.865
 20
12488.195
 30
0.0
 40
190.0
  0
CIRCLE
  5
1E3
100
AcDbEntity
  8
SOLDERMASK_PADS_BTM
100
AcDbCircle
 10
27950.928
 20
11648.32
 30
0.0
 40
190.0
  0
CIRCLE
  5
1E4
100
AcDbEntity
  8
SOLDERMASK_PADS_BTM
100
AcDbCircle
 10
48307.725
 20
11084.078
 30
0.0
 40
190.0
  0
CIRCLE
  5
1E5
100
AcDbEntity
  8
SOLDERMASK_PADS_BTM
100
AcDbCircle
 10
41320.0
 20
3350.0
 30
0.0
 40
725.0
  0
CIRCLE
  5
1E6
100
AcDbEntity
  8
SOLDERMASK_PADS_BTM
100
AcDbCircle
 10
41320.0
 20
5890.0
 30
0.0
 40
725.0
  0
CIRCLE
  5
1E7
100
AcDbEntity
  8
SOLDERMASK_PADS_BTM
100
AcDbCircle
 10
38780.0
 20
3350.0
 30
0.0
 40
725.0
  0
CIRCLE
  5
1E8
100
AcDbEntity
  8
SOLDERMASK_PADS_BTM
100
AcDbCircle
 10
38780.0
 20
5890.0
 30
0.0
 40
725.0
  0
CIRCLE
  5
1E9
100
AcDbEntity
  8
SOLDERMASK_PADS_BTM
100
AcDbCircle
 10
36240.0
 20
3350.0
 30
0.0
 40
725.0
  0
CIRCLE
  5
1EA
100
AcDbEntity
  8
SOLDERMASK_PADS_BTM
100
AcDbCircle
 10
36240.0
 20
5890.0
 30
0.0
 40
725.0
  0
CIRCLE
  5
1EB
100
AcDbEntity
  8
SOLDERMASK_PADS_BTM
100
AcDbCircle
 10
33700.0
 20
3350.0
 30
0.0
 40
725.0
  0
CIRCLE
  5
1EC
100
AcDbEntity
  8
SOLDERMASK_PADS_BTM
100
AcDbCircle
 10
33700.0
 20
5890.0
 30
0.0
 40
725.0
  0
CIRCLE
  5
1ED
100
AcDbEntity
  8
SOLDERMASK_PADS_BTM
100
AcDbCircle
 10
31160.0
 20
5890.0
 30
0.0
 40
725.0
  0
CIRCLE
  5
1EE
100
AcDbEntity
  8
SOLDERMASK_PADS_BTM
100
AcDbCircle
 10
31160.0
 20
3350.0
 30
0.0
 40
725.0
  0
CIRCLE
  5
1EF
100
AcDbEntity
  8
SOLDERMASK_PADS_BTM
100
AcDbCircle
 10
28620.0
 20
5890.0
 30
0.0
 40
725.0
  0
CIRCLE
  5
1F0
100
AcDbEntity
  8
SOLDERMASK_PADS_BTM
100
AcDbCircle
 10
28620.0
 20
3350.0
 30
0.0
 40
725.0
  0
CIRCLE
  5
1F1
100
AcDbEntity
  8
SOLDERMASK_PADS_BTM
100
AcDbCircle
 10
26080.0
 20
5890.0
 30
0.0
 40
725.0
  0
CIRCLE
  5
1F2
100
AcDbEntity
  8
SOLDERMASK_PADS_BTM
100
AcDbCircle
 10
26080.0
 20
3350.0
 30
0.0
 40
725.0
  0
CIRCLE
  5
1F3
100
AcDbEntity
  8
SOLDERMASK_PADS_BTM
100
AcDbCircle
 10
23540.0
 20
5890.0
 30
0.0
 40
725.0
  0
CIRCLE
  5
1F4
100
AcDbEntity
  8
SOLDERMASK_PADS_BTM
100
AcDbCircle
 10
23540.0
 20
3350.0
 30
0.0
 40
725.0
  0
CIRCLE
  5
1F5
100
AcDbEntity
  8
SOLDERMASK_PADS_BTM
100
AcDbCircle
 10
21000.0
 20
5890.0
 30
0.0
 40
725.0
  0
CIRCLE
  5
1F6
100
AcDbEntity
  8
SOLDERMASK_PADS_BTM
100
AcDbCircle
 10
21000.0
 20
3350.0
 30
0.0
 40
725.0
  0
CIRCLE
  5
1F7
100
AcDbEntity
  8
SOLDERMASK_PADS_BTM
100
AcDbCircle
 10
18460.0
 20
5890.0
 30
0.0
 40
725.0
  0
CIRCLE
  5
1F8
100
AcDbEntity
  8
SOLDERMASK_PADS_BTM
100
AcDbCircle
 10
18460.0
 20
3350.0
 30
0.0
 40
725.0
  0
CIRCLE
  5
1F9
100
AcDbEntity
  8
SOLDERMASK_PADS_BTM
100
AcDbCircle
 10
15920.0
 20
5890.0
 30
0.0
 40
725.0
  0
CIRCLE
  5
1FA
100
AcDbEntity
  8
SOLDERMASK_PADS_BTM
100
AcDbCircle
 10
15920.0
 20
3350.0
 30
0.0
 40
725.0
  0
CIRCLE
  5
1FB
100
AcDbEntity
  8
SOLDERMASK_PADS_BTM
100
AcDbCircle
 10
13380.0
 20
5890.0
 30
0.0
 40
725.0
  0
CIRCLE
  5
1FC
100
AcDbEntity
  8
SOLDERMASK_PADS_BTM
100
AcDbCircle
 10
13380.0
 20
3350.0
 30
0.0
 40
725.0
  0
CIRCLE
  5
1FD
100
AcDbEntity
  8
SOLDERMASK_PADS_BTM
100
AcDbCircle
 10
10840.0
 20
5890.0
 30
0.0
 40
725.0
  0
CIRCLE
  5
1FE
100
AcDbEntity
  8
SOLDERMASK_PADS_BTM
100
AcDbCircle
 10
10840.0
 20
3350.0
 30
0.0
 40
725.0
  0
CIRCLE
  5
1FF
100
AcDbEntity
  8
SOLDERMASK_PADS_BTM
100
AcDbCircle
 10
8300.0
 20
5890.0
 30
0.0
 40
725.0
  0
CIRCLE
  5
200
100
AcDbEntity
  8
SOLDERMASK_PADS_BTM
100
AcDbCircle
 10
8300.0
 20
3350.0
 30
0.0
 40
725.0
  0
CIRCLE
  5
201
100
AcDbEntity
  8
SOLDERMASK_PADS_BTM
100
AcDbCircle
 10
5760.0
 20
5890.0
 30
0.0
 40
725.0
  0
CIRCLE
  5
202
100
AcDbEntity
  8
SOLDERMASK_PADS_BTM
100
AcDbCircle
 10
5760.0
 20
3350.0
 30
0.0
 40
725.0
  0
CIRCLE
  5
203
100
AcDbEntity
  8
SOLDERMASK_PADS_BTM
100
AcDbCircle
 10
3220.0
 20
5890.0
 30
0.0
 40
725.0
  0
CIRCLE
  5
204
100
AcDbEntity
  8
SOLDERMASK_PADS_BTM
100
AcDbCircle
 10
3220.0
 20
3350.0
 30
0.0
 40
725.0
  0
LWPOLYLINE
  5
205
100
AcDbEntity
  8
SOLDERMASK_PADS_TOP
100
AcDbPolyline
 90
        4
 70
         1
 10
68000.0
 20
9700.0
 10
68000.0
 20
11300.0
 10
69600.0
 20
11300.0
 10
69600.0
 20
9700.0
  0
CIRCLE
  5
206
100
AcDbEntity
  8
SOLDERMASK_PADS_TOP
100
AcDbCircle
 10
15000.0
 20
23400.0
 30
0.0
 40
800.0
  0
CIRCLE
  5
207
100
AcDbEntity
  8
SOLDERMASK_PADS_TOP
100
AcDbCircle
 10
25252.674
 20
20750.361
 30
0.0
 40
190.0
  0
CIRCLE
  5
208
100
AcDbEntity
  8
SOLDERMASK_PADS_TOP
100
AcDbCircle
 10
64571.987
 20
22780.23
 30
0.0
 40
190.0
  0
CIRCLE
  5
209
100
AcDbEntity
  8
SOLDERMASK_PADS_TOP
100
AcDbCircle
 10
61578.003
 20
22789.405
 30
0.0
 40
190.0
  0
CIRCLE
  5
20A
100
AcDbEntity
  8
SOLDERMASK_PADS_TOP
100
AcDbCircle
 10
60409.936
 20
24004.342
 30
0.0
 40
190.0
  0
CIRCLE
  5
20B
100
AcDbEntity
  8
SOLDERMASK_PADS_TOP
100
AcDbCircle
 10
27177.763
 20
25108.736
 30
0.0
 40
190.0
  0
CIRCLE
  5
20C
100
AcDbEntity
  8
SOLDERMASK_PADS_TOP
100
AcDbCircle
 10
22675.111
 20
22802.302
 30
0.0
 40
190.0
  0
CIRCLE
  5
20D
100
AcDbEntity
  8
SOLDERMASK_PADS_TOP
100
AcDbCircle
 10
55881.507
 20
15541.611
 30
0.0
 40
190.0
  0
CIRCLE
  5
20E
100
AcDbEntity
  8
SOLDERMASK_PADS_TOP
100
AcDbCircle
 10
50966.553
 20
15516.685
 30
0.0
 40
190.0
  0
CIRCLE
  5
20F
100
AcDbEntity
  8
SOLDERMASK_PADS_TOP
100
AcDbCircle
 10
58268.879
 20
5651.99
 30
0.0
 40
190.0
  0
CIRCLE
  5
210
100
AcDbEntity
  8
SOLDERMASK_PADS_TOP
100
AcDbCircle
 10
60788.263
 20
10389.584
 30
0.0
 40
190.0
  0
CIRCLE
  5
211
100
AcDbEntity
  8
SOLDERMASK_PADS_TOP
100
AcDbCircle
 10
53404.91
 20
10577.141
 30
0.0
 40
190.0
  0
CIRCLE
  5
212
100
AcDbEntity
  8
SOLDERMASK_PADS_TOP
100
AcDbCircle
 10
50889.237
 20
7852.251
 30
0.0
 40
190.0
  0
CIRCLE
  5
213
100
AcDbEntity
  8
SOLDERMASK_PADS_TOP
100
AcDbCircle
 10
59727.05
 20
10587.338
 30
0.0
 40
190.0
  0
CIRCLE
  5
214
100
AcDbEntity
  8
SOLDERMASK_PADS_TOP
100
AcDbCircle
 10
58299.47
 20
15492.095
 30
0.0
 40
190.0
  0
CIRCLE
  5
215
100
AcDbEntity
  8
SOLDERMASK_PADS_TOP
100
AcDbCircle
 10
55842.109
 20
9281.757
 30
0.0
 40
190.0
  0
CIRCLE
  5
216
100
AcDbEntity
  8
SOLDERMASK_PADS_TOP
100
AcDbCircle
 10
54669.338
 20
15522.686
 30
0.0
 40
190.0
  0
CIRCLE
  5
217
100
AcDbEntity
  8
SOLDERMASK_PADS_TOP
100
AcDbCircle
 10
55971.932
 20
10511.757
 30
0.0
 40
190.0
  0
CIRCLE
  5
218
100
AcDbEntity
  8
SOLDERMASK_PADS_TOP
100
AcDbCircle
 10
51967.133
 20
15573.671
 30
0.0
 40
190.0
  0
CIRCLE
  5
219
100
AcDbEntity
  8
SOLDERMASK_PADS_TOP
100
AcDbCircle
 10
56892.284
 20
15563.474
 30
0.0
 40
190.0
  0
CIRCLE
  5
21A
100
AcDbEntity
  8
SOLDERMASK_PADS_TOP
100
AcDbCircle
 10
50965.7
 20
10365.256
 30
0.0
 40
190.0
  0
CIRCLE
  5
21B
100
AcDbEntity
  8
SOLDERMASK_PADS_TOP
100
AcDbCircle
 10
52007.921
 20
10607.732
 30
0.0
 40
190.0
  0
CIRCLE
  5
21C
100
AcDbEntity
  8
SOLDERMASK_PADS_TOP
100
AcDbCircle
 10
60816.072
 20
9154.131
 30
0.0
 40
190.0
  0
CIRCLE
  5
21D
100
AcDbEntity
  8
SOLDERMASK_PADS_TOP
100
AcDbCircle
 10
59686.262
 20
5672.384
 30
0.0
 40
190.0
  0
CIRCLE
  5
21E
100
AcDbEntity
  8
SOLDERMASK_PADS_TOP
100
AcDbCircle
 10
60746.75
 20
11647.826
 30
0.0
 40
190.0
  0
CIRCLE
  5
21F
100
AcDbEntity
  8
SOLDERMASK_PADS_TOP
100
AcDbCircle
 10
51987.527
 20
5682.581
 30
0.0
 40
190.0
  0
CIRCLE
  5
220
100
AcDbEntity
  8
SOLDERMASK_PADS_TOP
100
AcDbCircle
 10
55831.796
 20
14615.012
 30
0.0
 40
190.0
  0
CIRCLE
  5
221
100
AcDbEntity
  8
SOLDERMASK_PADS_TOP
100
AcDbCircle
 10
60745.476
 20
15516.685
 30
0.0
 40
190.0
  0
CIRCLE
  5
222
100
AcDbEntity
  8
SOLDERMASK_PADS_TOP
100
AcDbCircle
 10
55831.242
 20
7886.511
 30
0.0
 40
190.0
  0
CIRCLE
  5
223
100
AcDbEntity
  8
SOLDERMASK_PADS_TOP
100
AcDbCircle
 10
50925.73
 20
13296.836
 30
0.0
 40
190.0
  0
CIRCLE
  5
224
100
AcDbEntity
  8
SOLDERMASK_PADS_TOP
100
AcDbCircle
 10
54771.308
 20
5672.384
 30
0.0
 40
190.0
  0
CIRCLE
  5
225
100
AcDbEntity
  8
SOLDERMASK_PADS_TOP
100
AcDbCircle
 10
55861.113
 20
5727.565
 30
0.0
 40
190.0
  0
CIRCLE
  5
226
100
AcDbEntity
  8
SOLDERMASK_PADS_TOP
100
AcDbCircle
 10
60736.553
 20
6824.645
 30
0.0
 40
190.0
  0
CIRCLE
  5
227
100
AcDbEntity
  8
SOLDERMASK_PADS_TOP
100
AcDbCircle
 10
54668.704
 20
10609.332
 30
0.0
 40
190.0
  0
CIRCLE
  5
228
100
AcDbEntity
  8
SOLDERMASK_PADS_TOP
100
AcDbCircle
 10
50957.63
 20
6722.675
 30
0.0
 40
190.0
  0
CIRCLE
  5
229
100
AcDbEntity
  8
SOLDERMASK_PADS_TOP
100
AcDbCircle
 10
55852.19
 20
6737.97
 30
0.0
 40
190.0
  0
CIRCLE
  5
22A
100
AcDbEntity
  8
SOLDERMASK_PADS_TOP
100
AcDbCircle
 10
55862.387
 20
13055.012
 30
0.0
 40
190.0
  0
CIRCLE
  5
22B
100
AcDbEntity
  8
SOLDERMASK_PADS_TOP
100
AcDbCircle
 10
53364.122
 20
5611.202
 30
0.0
 40
190.0
  0
CIRCLE
  5
22C
100
AcDbEntity
  8
SOLDERMASK_PADS_TOP
100
AcDbCircle
 10
55841.993
 20
11741.757
 30
0.0
 40
190.0
  0
CIRCLE
  5
22D
100
AcDbEntity
  8
SOLDERMASK_PADS_TOP
100
AcDbCircle
 10
56871.89
 20
5651.99
 30
0.0
 40
190.0
  0
CIRCLE
  5
22E
100
AcDbEntity
  8
SOLDERMASK_PADS_TOP
100
AcDbCircle
 10
60807.932
 20
14462.198
 30
0.0
 40
190.0
  0
CIRCLE
  5
22F
100
AcDbEntity
  8
SOLDERMASK_PADS_TOP
100
AcDbCircle
 10
50997.144
 20
5676.58
 30
0.0
 40
190.0
  0
CIRCLE
  5
230
100
AcDbEntity
  8
SOLDERMASK_PADS_TOP
100
AcDbCircle
 10
59696.459
 20
15553.277
 30
0.0
 40
190.0
  0
CIRCLE
  5
231
100
AcDbEntity
  8
SOLDERMASK_PADS_TOP
100
AcDbCircle
 10
57169.684
 20
10592.202
 30
0.0
 40
190.0
  0
CIRCLE
  5
232
100
AcDbEntity
  8
SOLDERMASK_PADS_TOP
100
AcDbCircle
 10
60704.688
 20
5686.777
 30
0.0
 40
190.0
  0
CIRCLE
  5
233
100
AcDbEntity
  8
SOLDERMASK_PADS_TOP
100
AcDbCircle
 10
60824.637
 20
7869.381
 30
0.0
 40
190.0
  0
CIRCLE
  5
234
100
AcDbEntity
  8
SOLDERMASK_PADS_TOP
100
AcDbCircle
 10
50925.73
 20
14567.816
 30
0.0
 40
190.0
  0
CIRCLE
  5
235
100
AcDbEntity
  8
SOLDERMASK_PADS_TOP
100
AcDbCircle
 10
58370.849
 20
10577.141
 30
0.0
 40
190.0
  0
CIRCLE
  5
236
100
AcDbEntity
  8
SOLDERMASK_PADS_TOP
100
AcDbCircle
 10
50954.28
 20
9135.256
 30
0.0
 40
190.0
  0
CIRCLE
  5
237
100
AcDbEntity
  8
SOLDERMASK_PADS_TOP
100
AcDbCircle
 10
50931.44
 20
11736.836
 30
0.0
 40
190.0
  0
CIRCLE
  5
238
100
AcDbEntity
  8
SOLDERMASK_PADS_TOP
100
AcDbCircle
 10
60746.75
 20
13207.826
 30
0.0
 40
190.0
  0
CIRCLE
  5
239
100
AcDbEntity
  8
SOLDERMASK_PADS_TOP
100
AcDbCircle
 10
53313.137
 20
15543.08
 30
0.0
 40
190.0
  0
CIRCLE
  5
23A
100
AcDbEntity
  8
SOLDERMASK_PADS_TOP
100
AcDbCircle
 10
26645.0
 20
24201.821
 30
0.0
 40
190.0
  0
CIRCLE
  5
23B
100
AcDbEntity
  8
SOLDERMASK_PADS_TOP
100
AcDbCircle
 10
40869.318
 20
19234.8
 30
0.0
 40
190.0
  0
CIRCLE
  5
23C
100
AcDbEntity
  8
SOLDERMASK_PADS_TOP
100
AcDbCircle
 10
42697.113
 20
19234.8
 30
0.0
 40
190.0
  0
CIRCLE
  5
23D
100
AcDbEntity
  8
SOLDERMASK_PADS_TOP
100
AcDbCircle
 10
32160.805
 20
19217.919
 30
0.0
 40
190.0
  0
CIRCLE
  5
23E
100
AcDbEntity
  8
SOLDERMASK_PADS_TOP
100
AcDbCircle
 10
44165.257
 20
19032.672
 30
0.0
 40
190.0
  0
CIRCLE
  5
23F
100
AcDbEntity
  8
SOLDERMASK_PADS_TOP
100
AcDbCircle
 10
46227.949
 20
19061.724
 30
0.0
 40
190.0
  0
CIRCLE
  5
240
100
AcDbEntity
  8
SOLDERMASK_PADS_TOP
100
AcDbCircle
 10
47753.179
 20
18175.638
 30
0.0
 40
190.0
  0
CIRCLE
  5
241
100
AcDbEntity
  8
SOLDERMASK_PADS_TOP
100
AcDbCircle
 10
51312.049
 20
17957.748
 30
0.0
 40
190.0
  0
CIRCLE
  5
242
100
AcDbEntity
  8
SOLDERMASK_PADS_TOP
100
AcDbCircle
 10
49699.663
 20
19802.55
 30
0.0
 40
190.0
  0
CIRCLE
  5
243
100
AcDbEntity
  8
SOLDERMASK_PADS_TOP
100
AcDbCircle
 10
19993.993
 20
20877.474
 30
0.0
 40
190.0
  0
CIRCLE
  5
244
100
AcDbEntity
  8
SOLDERMASK_PADS_TOP
100
AcDbCircle
 10
22899.193
 20
19163.406
 30
0.0
 40
190.0
  0
CIRCLE
  5
245
100
AcDbEntity
  8
SOLDERMASK_PADS_TOP
100
AcDbCircle
 10
20444.299
 20
19265.088
 30
0.0
 40
190.0
  0
CIRCLE
  5
246
100
AcDbEntity
  8
SOLDERMASK_PADS_TOP
100
AcDbCircle
 10
18367.081
 20
19294.14
 30
0.0
 40
190.0
  0
CIRCLE
  5
247
100
AcDbEntity
  8
SOLDERMASK_PADS_TOP
100
AcDbCircle
 10
16464.175
 20
20775.792
 30
0.0
 40
190.0
  0
CIRCLE
  5
248
100
AcDbEntity
  8
SOLDERMASK_PADS_TOP
100
AcDbCircle
 10
12876.253
 20
19076.25
 30
0.0
 40
190.0
  0
CIRCLE
  5
249
100
AcDbEntity
  8
SOLDERMASK_PADS_TOP
100
AcDbCircle
 10
14503.165
 20
19105.302
 30
0.0
 40
190.0
  0
CIRCLE
  5
24A
100
AcDbEntity
  8
SOLDERMASK_PADS_TOP
100
AcDbCircle
 10
11769.734
 20
20575.0
 30
0.0
 40
190.0
  0
CIRCLE
  5
24B
100
AcDbEntity
  8
SOLDERMASK_PADS_TOP
100
AcDbCircle
 10
13326.559
 20
20630.532
 30
0.0
 40
190.0
  0
CIRCLE
  5
24C
100
AcDbEntity
  8
SOLDERMASK_PADS_TOP
100
AcDbCircle
 10
14750.107
 20
20645.058
 30
0.0
 40
190.0
  0
CIRCLE
  5
24D
100
AcDbEntity
  8
SOLDERMASK_PADS_TOP
100
AcDbCircle
 10
16594.909
 20
19076.25
 30
0.0
 40
190.0
  0
CIRCLE
  5
24E
100
AcDbEntity
  8
SOLDERMASK_PADS_TOP
100
AcDbCircle
 10
11378.507
 20
18800.271
 30
0.0
 40
190.0
  0
CIRCLE
  5
24F
100
AcDbEntity
  8
SOLDERMASK_PADS_TOP
100
AcDbCircle
 10
21927.657
 20
20705.613
 30
0.0
 40
190.0
  0
CIRCLE
  5
250
100
AcDbEntity
  8
SOLDERMASK_PADS_TOP
100
AcDbCircle
 10
34200.718
 20
22995.32
 30
0.0
 40
190.0
  0
CIRCLE
  5
251
100
AcDbEntity
  8
SOLDERMASK_PADS_TOP
100
AcDbCircle
 10
37730.59
 20
22505.06
 30
0.0
 40
190.0
  0
CIRCLE
  5
252
100
AcDbEntity
  8
SOLDERMASK_PADS_TOP
100
AcDbCircle
 10
40966.306
 20
22603.112
 30
0.0
 40
190.0
  0
CIRCLE
  5
253
100
AcDbEntity
  8
SOLDERMASK_PADS_TOP
100
AcDbCircle
 10
51065.662
 20
22014.8
 30
0.0
 40
190.0
  0
CIRCLE
  5
254
100
AcDbEntity
  8
SOLDERMASK_PADS_TOP
100
AcDbCircle
 10
51784.71
 20
19040.556
 30
0.0
 40
190.0
  0
CIRCLE
  5
255
100
AcDbEntity
  8
SOLDERMASK_PADS_TOP
100
AcDbCircle
 10
54137.958
 20
21818.696
 30
0.0
 40
190.0
  0
CIRCLE
  5
256
100
AcDbEntity
  8
SOLDERMASK_PADS_TOP
100
AcDbCircle
 10
57144.886
 20
22047.484
 30
0.0
 40
190.0
  0
CIRCLE
  5
257
100
AcDbEntity
  8
SOLDERMASK_PADS_TOP
100
AcDbCircle
 10
59138.61
 20
18877.136
 30
0.0
 40
190.0
  0
CIRCLE
  5
258
100
AcDbEntity
  8
SOLDERMASK_PADS_TOP
100
AcDbCircle
 10
65758.478
 20
21804.141
 30
0.0
 40
190.0
  0
CIRCLE
  5
259
100
AcDbEntity
  8
SOLDERMASK_PADS_TOP
100
AcDbCircle
 10
64218.721
 20
16291.524
 30
0.0
 40
190.0
  0
CIRCLE
  5
25A
100
AcDbEntity
  8
SOLDERMASK_PADS_TOP
100
AcDbCircle
 10
67036.765
 20
19850.394
 30
0.0
 40
190.0
  0
CIRCLE
  5
25B
100
AcDbEntity
  8
SOLDERMASK_PADS_TOP
100
AcDbCircle
 10
67312.759
 20
17250.24
 30
0.0
 40
190.0
  0
CIRCLE
  5
25C
100
AcDbEntity
  8
SOLDERMASK_PADS_TOP
100
AcDbCircle
 10
65366.275
 20
17773.176
 30
0.0
 40
190.0
  0
CIRCLE
  5
25D
100
AcDbEntity
  8
SOLDERMASK_PADS_TOP
100
AcDbCircle
 10
64915.969
 20
20431.434
 30
0.0
 40
190.0
  0
CIRCLE
  5
25E
100
AcDbEntity
  8
SOLDERMASK_PADS_TOP
100
AcDbCircle
 10
65375.752
 20
9103.174
 30
0.0
 40
190.0
  0
CIRCLE
  5
25F
100
AcDbEntity
  8
SOLDERMASK_PADS_TOP
100
AcDbCircle
 10
66415.88
 20
10280.966
 30
0.0
 40
190.0
  0
CIRCLE
  5
260
100
AcDbEntity
  8
SOLDERMASK_PADS_TOP
100
AcDbCircle
 10
65589.475
 20
14217.9
 30
0.0
 40
190.0
  0
CIRCLE
  5
261
100
AcDbEntity
  8
SOLDERMASK_PADS_TOP
100
AcDbCircle
 10
67220.995
 20
14136.324
 30
0.0
 40
190.0
  0
CIRCLE
  5
262
100
AcDbEntity
  8
SOLDERMASK_PADS_TOP
100
AcDbCircle
 10
67166.611
 20
12878.694
 30
0.0
 40
190.0
  0
CIRCLE
  5
263
100
AcDbEntity
  8
SOLDERMASK_PADS_TOP
100
AcDbCircle
 10
65535.091
 20
12960.27
 30
0.0
 40
190.0
  0
CIRCLE
  5
264
100
AcDbEntity
  8
SOLDERMASK_PADS_TOP
100
AcDbCircle
 10
65548.687
 20
11566.68
 30
0.0
 40
190.0
  0
CIRCLE
  5
265
100
AcDbEntity
  8
SOLDERMASK_PADS_TOP
100
AcDbCircle
 10
67220.995
 20
11206.386
 30
0.0
 40
190.0
  0
CIRCLE
  5
266
100
AcDbEntity
  8
SOLDERMASK_PADS_TOP
100
AcDbCircle
 10
65511.576
 20
15409.369
 30
0.0
 40
190.0
  0
CIRCLE
  5
267
100
AcDbEntity
  8
SOLDERMASK_PADS_TOP
100
AcDbCircle
 10
59400.431
 20
25085.223
 30
0.0
 40
190.0
  0
CIRCLE
  5
268
100
AcDbEntity
  8
SOLDERMASK_PADS_TOP
100
AcDbCircle
 10
57728.123
 20
25544.088
 30
0.0
 40
190.0
  0
CIRCLE
  5
269
100
AcDbEntity
  8
SOLDERMASK_PADS_TOP
100
AcDbCircle
 10
54168.959
 20
25574.664
 30
0.0
 40
190.0
  0
CIRCLE
  5
26A
100
AcDbEntity
  8
SOLDERMASK_PADS_TOP
100
AcDbCircle
 10
55973.828
 20
25512.564
 30
0.0
 40
190.0
  0
CIRCLE
  5
26B
100
AcDbEntity
  8
SOLDERMASK_PADS_TOP
100
AcDbCircle
 10
54250.535
 20
24106.296
 30
0.0
 40
190.0
  0
CIRCLE
  5
26C
100
AcDbEntity
  8
SOLDERMASK_PADS_TOP
100
AcDbCircle
 10
57666.53
 20
24034.917
 30
0.0
 40
190.0
  0
CIRCLE
  5
26D
100
AcDbEntity
  8
SOLDERMASK_PADS_TOP
100
AcDbCircle
 10
21713.558
 20
18003.18
 30
0.0
 40
190.0
  0
CIRCLE
  5
26E
100
AcDbEntity
  8
SOLDERMASK_PADS_TOP
100
AcDbCircle
 10
31457.11
 20
23815.66
 30
0.0
 40
190.0
  0
CIRCLE
  5
26F
100
AcDbEntity
  8
SOLDERMASK_PADS_TOP
100
AcDbCircle
 10
32772.566
 20
25161.708
 30
0.0
 40
190.0
  0
CIRCLE
  5
270
100
AcDbEntity
  8
SOLDERMASK_PADS_TOP
100
AcDbCircle
 10
34852.822
 20
25544.108
 30
0.0
 40
190.0
  0
CIRCLE
  5
271
100
AcDbEntity
  8
SOLDERMASK_PADS_TOP
100
AcDbCircle
 10
36749.526
 20
25528.812
 30
0.0
 40
190.0
  0
CIRCLE
  5
272
100
AcDbEntity
  8
SOLDERMASK_PADS_TOP
100
AcDbCircle
 10
38814.486
 20
25512.564
 30
0.0
 40
190.0
  0
CIRCLE
  5
273
100
AcDbEntity
  8
SOLDERMASK_PADS_TOP
100
AcDbCircle
 10
42118.422
 20
25512.564
 30
0.0
 40
190.0
  0
CIRCLE
  5
274
100
AcDbEntity
  8
SOLDERMASK_PADS_TOP
100
AcDbCircle
 10
52320.854
 20
24090.988
 30
0.0
 40
190.0
  0
CIRCLE
  5
275
100
AcDbEntity
  8
SOLDERMASK_PADS_TOP
100
AcDbCircle
 10
52359.094
 20
25605.292
 30
0.0
 40
190.0
  0
CIRCLE
  5
276
100
AcDbEntity
  8
SOLDERMASK_PADS_TOP
100
AcDbCircle
 10
50232.95
 20
25544.108
 30
0.0
 40
190.0
  0
CIRCLE
  5
277
100
AcDbEntity
  8
SOLDERMASK_PADS_TOP
100
AcDbCircle
 10
48198.582
 20
25559.404
 30
0.0
 40
190.0
  0
CIRCLE
  5
278
100
AcDbEntity
  8
SOLDERMASK_PADS_TOP
100
AcDbCircle
 10
46164.214
 20
25574.7
 30
0.0
 40
190.0
  0
CIRCLE
  5
279
100
AcDbEntity
  8
SOLDERMASK_PADS_TOP
100
AcDbCircle
 10
44022.774
 20
25513.516
 30
0.0
 40
190.0
  0
CIRCLE
  5
27A
100
AcDbEntity
  8
SOLDERMASK_PADS_TOP
100
AcDbCircle
 10
40627.062
 20
25513.516
 30
0.0
 40
190.0
  0
CIRCLE
  5
27B
100
AcDbEntity
  8
SOLDERMASK_PADS_TOP
100
AcDbCircle
 10
19977.462
 20
17987.884
 30
0.0
 40
190.0
  0
CIRCLE
  5
27C
100
AcDbEntity
  8
SOLDERMASK_PADS_TOP
100
AcDbCircle
 10
17943.094
 20
18003.18
 30
0.0
 40
190.0
  0
CIRCLE
  5
27D
100
AcDbEntity
  8
SOLDERMASK_PADS_TOP
100
AcDbCircle
 10
15908.726
 20
18018.476
 30
0.0
 40
190.0
  0
CIRCLE
  5
27E
100
AcDbEntity
  8
SOLDERMASK_PADS_TOP
100
AcDbCircle
 10
25282.696
 20
7684.966
 30
0.0
 40
190.0
  0
CIRCLE
  5
27F
100
AcDbEntity
  8
SOLDERMASK_PADS_TOP
100
AcDbCircle
 10
30557.304
 20
9235.034
 30
0.0
 40
190.0
  0
CIRCLE
  5
280
100
AcDbEntity
  8
SOLDERMASK_PADS_TOP
100
AcDbCircle
 10
30522.696
 20
7684.966
 30
0.0
 40
190.0
  0
CIRCLE
  5
281
100
AcDbEntity
  8
SOLDERMASK_PADS_TOP
100
AcDbCircle
 10
38447.304
 20
9235.034
 30
0.0
 40
190.0
  0
CIRCLE
  5
282
100
AcDbEntity
  8
SOLDERMASK_PADS_TOP
100
AcDbCircle
 10
38412.696
 20
7684.966
 30
0.0
 40
190.0
  0
CIRCLE
  5
283
100
AcDbEntity
  8
SOLDERMASK_PADS_TOP
100
AcDbCircle
 10
40092.696
 20
9454.966
 30
0.0
 40
190.0
  0
CIRCLE
  5
284
100
AcDbEntity
  8
SOLDERMASK_PADS_TOP
100
AcDbCircle
 10
55840.446
 20
24262.935
 30
0.0
 40
190.0
  0
CIRCLE
  5
285
100
AcDbEntity
  8
SOLDERMASK_PADS_TOP
100
AcDbCircle
 10
62441.442
 20
1489.074
 30
0.0
 40
190.0
  0
CIRCLE
  5
286
100
AcDbEntity
  8
SOLDERMASK_PADS_TOP
100
AcDbCircle
 10
64645.986
 20
1489.074
 30
0.0
 40
190.0
  0
CIRCLE
  5
287
100
AcDbEntity
  8
SOLDERMASK_PADS_TOP
100
AcDbCircle
 10
74290.866
 20
9893.898
 30
0.0
 40
190.0
  0
CIRCLE
  5
288
100
AcDbEntity
  8
SOLDERMASK_PADS_TOP
100
AcDbCircle
 10
74428.65
 20
12132.888
 30
0.0
 40
190.0
  0
CIRCLE
  5
289
100
AcDbEntity
  8
SOLDERMASK_PADS_TOP
100
AcDbCircle
 10
66953.868
 20
25360.152
 30
0.0
 40
190.0
  0
CIRCLE
  5
28A
100
AcDbEntity
  8
SOLDERMASK_PADS_TOP
100
AcDbCircle
 10
66391.427
 20
23507.76
 30
0.0
 40
190.0
  0
CIRCLE
  5
28B
100
AcDbEntity
  8
SOLDERMASK_PADS_TOP
100
AcDbCircle
 10
69147.107
 20
12192.249
 30
0.0
 40
190.0
  0
CIRCLE
  5
28C
100
AcDbEntity
  8
SOLDERMASK_PADS_TOP
100
AcDbCircle
 10
72350.585
 20
11623.89
 30
0.0
 40
190.0
  0
CIRCLE
  5
28D
100
AcDbEntity
  8
SOLDERMASK_PADS_TOP
100
AcDbCircle
 10
70438.832
 20
9660.468
 30
0.0
 40
190.0
  0
CIRCLE
  5
28E
100
AcDbEntity
  8
SOLDERMASK_PADS_TOP
100
AcDbCircle
 10
41705.125
 20
8879.692
 30
0.0
 40
190.0
  0
CIRCLE
  5
28F
100
AcDbEntity
  8
SOLDERMASK_PADS_TOP
100
AcDbCircle
 10
43226.489
 20
1714.924
 30
0.0
 40
190.0
  0
CIRCLE
  5
290
100
AcDbEntity
  8
SOLDERMASK_PADS_TOP
100
AcDbCircle
 10
67722.761
 20
22130.759
 30
0.0
 40
190.0
  0
CIRCLE
  5
291
100
AcDbEntity
  8
SOLDERMASK_PADS_TOP
100
AcDbCircle
 10
17132.803
 20
25269.17
 30
0.0
 40
190.0
  0
CIRCLE
  5
292
100
AcDbEntity
  8
SOLDERMASK_PADS_TOP
100
AcDbCircle
 10
29686.633
 20
24840.518
 30
0.0
 40
190.0
  0
CIRCLE
  5
293
100
AcDbEntity
  8
SOLDERMASK_PADS_TOP
100
AcDbCircle
 10
27711.729
 20
23233.038
 30
0.0
 40
190.0
  0
CIRCLE
  5
294
100
AcDbEntity
  8
SOLDERMASK_PADS_TOP
100
AcDbCircle
 10
20799.565
 20
23141.182
 30
0.0
 40
190.0
  0
CIRCLE
  5
295
100
AcDbEntity
  8
SOLDERMASK_PADS_TOP
100
AcDbCircle
 10
18916.517
 20
21602.594
 30
0.0
 40
190.0
  0
CIRCLE
  5
296
100
AcDbEntity
  8
SOLDERMASK_PADS_TOP
100
AcDbCircle
 10
19146.157
 20
24702.734
 30
0.0
 40
190.0
  0
CIRCLE
  5
297
100
AcDbEntity
  8
SOLDERMASK_PADS_TOP
100
AcDbCircle
 10
17056.433
 20
23072.29
 30
0.0
 40
190.0
  0
CIRCLE
  5
298
100
AcDbEntity
  8
SOLDERMASK_PADS_TOP
100
AcDbCircle
 10
5818.546
 20
17132.272
 30
0.0
 40
190.0
  0
CIRCLE
  5
299
100
AcDbEntity
  8
SOLDERMASK_PADS_TOP
100
AcDbCircle
 10
7854.643
 20
19015.279
 30
0.0
 40
190.0
  0
CIRCLE
  5
29A
100
AcDbEntity
  8
SOLDERMASK_PADS_TOP
100
AcDbCircle
 10
4211.101
 20
18724.408
 30
0.0
 40
190.0
  0
CIRCLE
  5
29B
100
AcDbEntity
  8
SOLDERMASK_PADS_TOP
100
AcDbCircle
 10
3078.235
 20
17392.525
 30
0.0
 40
190.0
  0
CIRCLE
  5
29C
100
AcDbEntity
  8
SOLDERMASK_PADS_TOP
100
AcDbCircle
 10
1501.408
 20
17943.649
 30
0.0
 40
190.0
  0
CIRCLE
  5
29D
100
AcDbEntity
  8
SOLDERMASK_PADS_TOP
100
AcDbCircle
 10
7946.497
 20
16749.547
 30
0.0
 40
190.0
  0
CIRCLE
  5
29E
100
AcDbEntity
  8
SOLDERMASK_PADS_TOP
100
AcDbCircle
 10
1555.104
 20
15945.827
 30
0.0
 40
190.0
  0
CIRCLE
  5
29F
100
AcDbEntity
  8
SOLDERMASK_PADS_TOP
100
AcDbCircle
 10
9615.468
 20
18288.155
 30
0.0
 40
190.0
  0
CIRCLE
  5
2A0
100
AcDbEntity
  8
SOLDERMASK_PADS_TOP
100
AcDbCircle
 10
12876.356
 20
15302.835
 30
0.0
 40
190.0
  0
CIRCLE
  5
2A1
100
AcDbEntity
  8
SOLDERMASK_PADS_TOP
100
AcDbCircle
 10
9730.288
 20
15532.475
 30
0.0
 40
190.0
  0
CIRCLE
  5
2A2
100
AcDbEntity
  8
SOLDERMASK_PADS_TOP
100
AcDbCircle
 10
28235.235
 20
7719.653
 30
0.0
 40
190.0
  0
CIRCLE
  5
2A3
100
AcDbEntity
  8
SOLDERMASK_PADS_TOP
100
AcDbCircle
 10
22586.091
 20
7903.365
 30
0.0
 40
190.0
  0
CIRCLE
  5
2A4
100
AcDbEntity
  8
SOLDERMASK_PADS_TOP
100
AcDbCircle
 10
37745.448
 20
15952.435
 30
0.0
 40
190.0
  0
CIRCLE
  5
2A5
100
AcDbEntity
  8
SOLDERMASK_PADS_TOP
100
AcDbCircle
 10
37179.015
 20
12875.326
 30
0.0
 40
190.0
  0
CIRCLE
  5
2A6
100
AcDbEntity
  8
SOLDERMASK_PADS_TOP
100
AcDbCircle
 10
36046.149
 20
10104.397
 30
0.0
 40
190.0
  0
CIRCLE
  5
2A7
100
AcDbEntity
  8
SOLDERMASK_PADS_TOP
100
AcDbCircle
 10
34897.974
 20
8343.862
 30
0.0
 40
190.0
  0
CIRCLE
  5
2A8
100
AcDbEntity
  8
SOLDERMASK_PADS_TOP
100
AcDbCircle
 10
13858.645
 20
12433.998
 30
0.0
 40
190.0
  0
CIRCLE
  5
2A9
100
AcDbEntity
  8
SOLDERMASK_PADS_TOP
100
AcDbCircle
 10
16461.397
 20
9364.476
 30
0.0
 40
190.0
  0
CIRCLE
  5
2AA
100
AcDbEntity
  8
SOLDERMASK_PADS_TOP
100
AcDbCircle
 10
14950.636
 20
10938.751
 30
0.0
 40
190.0
  0
CIRCLE
  5
2AB
100
AcDbEntity
  8
SOLDERMASK_PADS_TOP
100
AcDbCircle
 10
5502.384
 20
7631.923
 30
0.0
 40
190.0
  0
CIRCLE
  5
2AC
100
AcDbEntity
  8
SOLDERMASK_PADS_TOP
100
AcDbCircle
 10
1450.286
 20
9591.473
 30
0.0
 40
190.0
  0
CIRCLE
  5
2AD
100
AcDbEntity
  8
SOLDERMASK_PADS_TOP
100
AcDbCircle
 10
2797.478
 20
10265.069
 30
0.0
 40
190.0
  0
CIRCLE
  5
2AE
100
AcDbEntity
  8
SOLDERMASK_PADS_TOP
100
AcDbCircle
 10
3909.932
 20
9560.855
 30
0.0
 40
190.0
  0
CIRCLE
  5
2AF
100
AcDbEntity
  8
SOLDERMASK_PADS_TOP
100
AcDbCircle
 10
8420.984
 20
7540.067
 30
0.0
 40
190.0
  0
CIRCLE
  5
2B0
100
AcDbEntity
  8
SOLDERMASK_PADS_TOP
100
AcDbCircle
 10
9962.09
 20
8846.435
 30
0.0
 40
190.0
  0
CIRCLE
  5
2B1
100
AcDbEntity
  8
SOLDERMASK_PADS_TOP
100
AcDbCircle
 10
8727.164
 20
8856.641
 30
0.0
 40
190.0
  0
CIRCLE
  5
2B2
100
AcDbEntity
  8
SOLDERMASK_PADS_TOP
100
AcDbCircle
 10
7788.212
 20
9591.473
 30
0.0
 40
190.0
  0
CIRCLE
  5
2B3
100
AcDbEntity
  8
SOLDERMASK_PADS_TOP
100
AcDbCircle
 10
69513.263
 20
19516.598
 30
0.0
 40
190.0
  0
CIRCLE
  5
2B4
100
AcDbEntity
  8
SOLDERMASK_PADS_TOP
100
AcDbCircle
 10
69523.46
 20
20974.769
 30
0.0
 40
190.0
  0
CIRCLE
  5
2B5
100
AcDbEntity
  8
SOLDERMASK_PADS_TOP
100
AcDbCircle
 10
69492.869
 20
22341.167
 30
0.0
 40
190.0
  0
CIRCLE
  5
2B6
100
AcDbEntity
  8
SOLDERMASK_PADS_TOP
100
AcDbCircle
 10
69533.657
 20
23554.61
 30
0.0
 40
190.0
  0
CIRCLE
  5
2B7
100
AcDbEntity
  8
SOLDERMASK_PADS_TOP
100
AcDbCircle
 10
70961.237
 20
23615.792
 30
0.0
 40
190.0
  0
CIRCLE
  5
2B8
100
AcDbEntity
  8
SOLDERMASK_PADS_TOP
100
AcDbCircle
 10
72093.104
 20
23564.807
 30
0.0
 40
190.0
  0
CIRCLE
  5
2B9
100
AcDbEntity
  8
SOLDERMASK_PADS_TOP
100
AcDbCircle
 10
69584.642
 20
18058.427
 30
0.0
 40
190.0
  0
CIRCLE
  5
2BA
100
AcDbEntity
  8
SOLDERMASK_PADS_TOP
100
AcDbCircle
 10
8580.854
 20
20496.714
 30
0.0
 40
190.0
  0
CIRCLE
  5
2BB
100
AcDbEntity
  8
SOLDERMASK_PADS_TOP
100
AcDbCircle
 10
7403.062
 20
20527.306
 30
0.0
 40
190.0
  0
CIRCLE
  5
2BC
100
AcDbEntity
  8
SOLDERMASK_PADS_TOP
100
AcDbCircle
 10
6041.718
 20
20512.01
 30
0.0
 40
190.0
  0
CIRCLE
  5
2BD
100
AcDbEntity
  8
SOLDERMASK_PADS_TOP
100
AcDbCircle
 10
4833.334
 20
20481.418
 30
0.0
 40
190.0
  0
CIRCLE
  5
2BE
100
AcDbEntity
  8
SOLDERMASK_PADS_TOP
100
AcDbCircle
 10
3640.246
 20
20542.602
 30
0.0
 40
190.0
  0
CIRCLE
  5
2BF
100
AcDbEntity
  8
SOLDERMASK_PADS_TOP
100
AcDbCircle
 10
3583.866
 20
21801.891
 30
0.0
 40
190.0
  0
CIRCLE
  5
2C0
100
AcDbEntity
  8
SOLDERMASK_PADS_TOP
100
AcDbCircle
 10
3624.654
 20
23209.077
 30
0.0
 40
190.0
  0
CIRCLE
  5
2C1
100
AcDbEntity
  8
SOLDERMASK_PADS_TOP
100
AcDbCircle
 10
3624.654
 20
24391.929
 30
0.0
 40
190.0
  0
CIRCLE
  5
2C2
100
AcDbEntity
  8
SOLDERMASK_PADS_TOP
100
AcDbCircle
 10
1411.905
 20
19951.135
 30
0.0
 40
190.0
  0
CIRCLE
  5
2C3
100
AcDbEntity
  8
SOLDERMASK_PADS_TOP
100
AcDbCircle
 10
1452.693
 20
21215.563
 30
0.0
 40
190.0
  0
CIRCLE
  5
2C4
100
AcDbEntity
  8
SOLDERMASK_PADS_TOP
100
AcDbCircle
 10
1513.875
 20
22694.128
 30
0.0
 40
190.0
  0
CIRCLE
  5
2C5
100
AcDbEntity
  8
SOLDERMASK_PADS_TOP
100
AcDbCircle
 10
1575.057
 20
24142.102
 30
0.0
 40
190.0
  0
CIRCLE
  5
2C6
100
AcDbEntity
  8
SOLDERMASK_PADS_TOP
100
AcDbCircle
 10
1422.102
 20
25457.515
 30
0.0
 40
190.0
  0
CIRCLE
  5
2C7
100
AcDbEntity
  8
SOLDERMASK_PADS_TOP
100
AcDbCircle
 10
2462.196
 20
25457.515
 30
0.0
 40
190.0
  0
CIRCLE
  5
2C8
100
AcDbEntity
  8
SOLDERMASK_PADS_TOP
100
AcDbCircle
 10
13158.848
 20
21577.556
 30
0.0
 40
190.0
  0
CIRCLE
  5
2C9
100
AcDbEntity
  8
SOLDERMASK_PADS_TOP
100
AcDbCircle
 10
13169.045
 20
22994.939
 30
0.0
 40
190.0
  0
CIRCLE
  5
2CA
100
AcDbEntity
  8
SOLDERMASK_PADS_TOP
100
AcDbCircle
 10
13179.242
 20
24198.185
 30
0.0
 40
190.0
  0
CIRCLE
  5
2CB
100
AcDbEntity
  8
SOLDERMASK_PADS_TOP
100
AcDbCircle
 10
72972.919
 20
13917.98
 30
0.0
 40
190.0
  0
CIRCLE
  5
2CC
100
AcDbEntity
  8
SOLDERMASK_PADS_TOP
100
AcDbCircle
 10
71626.915
 20
13938.374
 30
0.0
 40
190.0
  0
CIRCLE
  5
2CD
100
AcDbEntity
  8
SOLDERMASK_PADS_TOP
100
AcDbCircle
 10
70352.29
 20
13938.374
 30
0.0
 40
190.0
  0
CIRCLE
  5
2CE
100
AcDbEntity
  8
SOLDERMASK_PADS_TOP
100
AcDbCircle
 10
69610.829
 20
15030.374
 30
0.0
 40
190.0
  0
CIRCLE
  5
2CF
100
AcDbEntity
  8
SOLDERMASK_PADS_TOP
100
AcDbCircle
 10
74413.773
 20
25477.542
 30
0.0
 40
190.0
  0
CIRCLE
  5
2D0
100
AcDbEntity
  8
SOLDERMASK_PADS_TOP
100
AcDbCircle
 10
72593.549
 20
25492.838
 30
0.0
 40
190.0
  0
CIRCLE
  5
2D1
100
AcDbEntity
  8
SOLDERMASK_PADS_TOP
100
AcDbCircle
 10
71033.357
 20
25538.726
 30
0.0
 40
190.0
  0
CIRCLE
  5
2D2
100
AcDbEntity
  8
SOLDERMASK_PADS_TOP
100
AcDbCircle
 10
69182.541
 20
25554.022
 30
0.0
 40
190.0
  0
CIRCLE
  5
2D3
100
AcDbEntity
  8
SOLDERMASK_PADS_TOP
100
AcDbCircle
 10
73235.981
 20
23580.838
 30
0.0
 40
190.0
  0
CIRCLE
  5
2D4
100
AcDbEntity
  8
SOLDERMASK_PADS_TOP
100
AcDbCircle
 10
2919.743
 20
8551.709
 30
0.0
 40
190.0
  0
CIRCLE
  5
2D5
100
AcDbEntity
  8
SOLDERMASK_PADS_TOP
100
AcDbCircle
 10
1541.933
 20
8138.366
 30
0.0
 40
190.0
  0
CIRCLE
  5
2D6
100
AcDbEntity
  8
SOLDERMASK_PADS_TOP
100
AcDbCircle
 10
15259.801
 20
15137.278
 30
0.0
 40
190.0
  0
CIRCLE
  5
2D7
100
AcDbEntity
  8
SOLDERMASK_PADS_TOP
100
AcDbCircle
 10
66973.086
 20
9213.53
 30
0.0
 40
190.0
  0
CIRCLE
  5
2D8
100
AcDbEntity
  8
SOLDERMASK_PADS_TOP
100
AcDbCircle
 10
67320.101
 20
1548.458
 30
0.0
 40
190.0
  0
CIRCLE
  5
2D9
100
AcDbEntity
  8
SOLDERMASK_PADS_TOP
100
AcDbCircle
 10
67320.101
 20
2722.148
 30
0.0
 40
190.0
  0
CIRCLE
  5
2DA
100
AcDbEntity
  8
SOLDERMASK_PADS_TOP
100
AcDbCircle
 10
67381.337
 20
3936.662
 30
0.0
 40
190.0
  0
CIRCLE
  5
2DB
100
AcDbEntity
  8
SOLDERMASK_PADS_TOP
100
AcDbCircle
 10
67401.749
 20
5253.236
 30
0.0
 40
190.0
  0
CIRCLE
  5
2DC
100
AcDbEntity
  8
SOLDERMASK_PADS_TOP
100
AcDbCircle
 10
67381.337
 20
6590.222
 30
0.0
 40
190.0
  0
CIRCLE
  5
2DD
100
AcDbEntity
  8
SOLDERMASK_PADS_TOP
100
AcDbCircle
 10
68289.671
 20
8682.452
 30
0.0
 40
190.0
  0
CIRCLE
  5
2DE
100
AcDbEntity
  8
SOLDERMASK_PADS_TOP
100
AcDbCircle
 10
74443.889
 20
8529.362
 30
0.0
 40
190.0
  0
CIRCLE
  5
2DF
100
AcDbEntity
  8
SOLDERMASK_PADS_TOP
100
AcDbCircle
 10
72923.195
 20
8621.216
 30
0.0
 40
190.0
  0
CIRCLE
  5
2E0
100
AcDbEntity
  8
SOLDERMASK_PADS_TOP
100
AcDbCircle
 10
71535.179
 20
8590.598
 30
0.0
 40
190.0
  0
CIRCLE
  5
2E1
100
AcDbEntity
  8
SOLDERMASK_PADS_TOP
100
AcDbCircle
 10
67381.337
 20
7763.912
 30
0.0
 40
190.0
  0
CIRCLE
  5
2E2
100
AcDbEntity
  8
SOLDERMASK_PADS_TOP
100
AcDbCircle
 10
69784.85
 20
8575.289
 30
0.0
 40
190.0
  0
CIRCLE
  5
2E3
100
AcDbEntity
  8
SOLDERMASK_PADS_TOP
100
AcDbCircle
 10
74420.288
 20
24424.423
 30
0.0
 40
190.0
  0
CIRCLE
  5
2E4
100
AcDbEntity
  8
SOLDERMASK_PADS_TOP
100
AcDbCircle
 10
15542.62
 20
25483.333
 30
0.0
 40
190.0
  0
CIRCLE
  5
2E5
100
AcDbEntity
  8
SOLDERMASK_PADS_TOP
100
AcDbCircle
 10
13959.395
 20
25541.433
 30
0.0
 40
190.0
  0
CIRCLE
  5
2E6
100
AcDbEntity
  8
SOLDERMASK_PADS_TOP
100
AcDbCircle
 10
65260.529
 20
6543.996
 30
0.0
 40
190.0
  0
CIRCLE
  5
2E7
100
AcDbEntity
  8
SOLDERMASK_PADS_TOP
100
AcDbCircle
 10
12926.04
 20
8661.409
 30
0.0
 40
190.0
  0
CIRCLE
  5
2E8
100
AcDbEntity
  8
SOLDERMASK_PADS_TOP
100
AcDbCircle
 10
58727.431
 20
23198.779
 30
0.0
 40
190.0
  0
CIRCLE
  5
2E9
100
AcDbEntity
  8
SOLDERMASK_PADS_TOP
100
AcDbCircle
 10
56735.616
 20
1766.894
 30
0.0
 40
190.0
  0
CIRCLE
  5
2EA
100
AcDbEntity
  8
SOLDERMASK_PADS_TOP
100
AcDbCircle
 10
47048.756
 20
1882.558
 30
0.0
 40
190.0
  0
CIRCLE
  5
2EB
100
AcDbEntity
  8
SOLDERMASK_PADS_TOP
100
AcDbCircle
 10
44966.804
 20
4051.258
 30
0.0
 40
190.0
  0
CIRCLE
  5
2EC
100
AcDbEntity
  8
SOLDERMASK_PADS_TOP
100
AcDbCircle
 10
43983.66
 20
6885.026
 30
0.0
 40
190.0
  0
CIRCLE
  5
2ED
100
AcDbEntity
  8
SOLDERMASK_PADS_TOP
100
AcDbCircle
 10
61029.22
 20
21523.075
 30
0.0
 40
190.0
  0
CIRCLE
  5
2EE
100
AcDbEntity
  8
SOLDERMASK_PADS_TOP
100
AcDbCircle
 10
67756.893
 20
15277.327
 30
0.0
 40
190.0
  0
CIRCLE
  5
2EF
100
AcDbEntity
  8
SOLDERMASK_PADS_TOP
100
AcDbCircle
 10
23311.99
 20
18033.772
 30
0.0
 40
190.0
  0
CIRCLE
  5
2F0
100
AcDbEntity
  8
SOLDERMASK_PADS_TOP
100
AcDbCircle
 10
25782.198
 20
15753.47
 30
0.0
 40
190.0
  0
CIRCLE
  5
2F1
100
AcDbEntity
  8
SOLDERMASK_PADS_TOP
100
AcDbCircle
 10
17257.385
 20
12992.855
 30
0.0
 40
190.0
  0
CIRCLE
  5
2F2
100
AcDbEntity
  8
SOLDERMASK_PADS_TOP
100
AcDbCircle
 10
20430.159
 20
8466.527
 30
0.0
 40
190.0
  0
CIRCLE
  5
2F3
100
AcDbEntity
  8
SOLDERMASK_PADS_TOP
100
AcDbCircle
 10
18600.663
 20
7856.695
 30
0.0
 40
190.0
  0
CIRCLE
  5
2F4
100
AcDbEntity
  8
SOLDERMASK_PADS_TOP
100
AcDbCircle
 10
19347.675
 20
12224.403
 30
0.0
 40
190.0
  0
CIRCLE
  5
2F5
100
AcDbEntity
  8
SOLDERMASK_PADS_TOP
100
AcDbCircle
 10
43595.62
 20
13209.154
 30
0.0
 40
190.0
  0
CIRCLE
  5
2F6
100
AcDbEntity
  8
SOLDERMASK_PADS_TOP
100
AcDbCircle
 10
32484.634
 20
7415.897
 30
0.0
 40
190.0
  0
CIRCLE
  5
2F7
100
AcDbEntity
  8
SOLDERMASK_PADS_TOP
100
AcDbCircle
 10
33369.874
 20
10297.845
 30
0.0
 40
190.0
  0
CIRCLE
  5
2F8
100
AcDbEntity
  8
SOLDERMASK_PADS_TOP
100
AcDbCircle
 10
41870.149
 20
20575.0
 30
0.0
 40
190.0
  0
CIRCLE
  5
2F9
100
AcDbEntity
  8
SOLDERMASK_PADS_TOP
100
AcDbCircle
 10
44601.037
 20
20575.0
 30
0.0
 40
190.0
  0
CIRCLE
  5
2FA
100
AcDbEntity
  8
SOLDERMASK_PADS_TOP
100
AcDbCircle
 10
29681.701
 20
20670.519
 30
0.0
 40
190.0
  0
CIRCLE
  5
2FB
100
AcDbEntity
  8
SOLDERMASK_PADS_TOP
100
AcDbCircle
 10
47695.075
 20
20732.214
 30
0.0
 40
190.0
  0
CIRCLE
  5
2FC
100
AcDbEntity
  8
SOLDERMASK_PADS_TOP
100
AcDbCircle
 10
38776.111
 20
20630.532
 30
0.0
 40
190.0
  0
CIRCLE
  5
2FD
100
AcDbEntity
  8
SOLDERMASK_PADS_TOP
100
AcDbCircle
 10
36045.223
 20
20732.214
 30
0.0
 40
190.0
  0
CIRCLE
  5
2FE
100
AcDbEntity
  8
SOLDERMASK_PADS_TOP
100
AcDbCircle
 10
33735.589
 20
20746.74
 30
0.0
 40
190.0
  0
CIRCLE
  5
2FF
100
AcDbEntity
  8
SOLDERMASK_PADS_TOP
100
AcDbCircle
 10
31818.157
 20
20674.11
 30
0.0
 40
190.0
  0
CIRCLE
  5
300
100
AcDbEntity
  8
SOLDERMASK_PADS_TOP
100
AcDbCircle
 10
27750.877
 20
20703.162
 30
0.0
 40
190.0
  0
CIRCLE
  5
301
100
AcDbEntity
  8
SOLDERMASK_PADS_TOP
100
AcDbCircle
 10
60670.069
 20
19134.173
 30
0.0
 40
190.0
  0
CIRCLE
  5
302
100
AcDbEntity
  8
SOLDERMASK_PADS_TOP
100
AcDbCircle
 10
61797.411
 20
18208.743
 30
0.0
 40
190.0
  0
CIRCLE
  5
303
100
AcDbEntity
  8
SOLDERMASK_PADS_TOP
100
AcDbCircle
 10
61797.411
 20
20295.167
 30
0.0
 40
190.0
  0
CIRCLE
  5
304
100
AcDbEntity
  8
SOLDERMASK_PADS_TOP
100
AcDbCircle
 10
29657.321
 20
19345.0
 30
0.0
 40
190.0
  0
CIRCLE
  5
305
100
AcDbEntity
  8
SOLDERMASK_PADS_TOP
100
AcDbCircle
 10
26535.761
 20
19345.0
 30
0.0
 40
190.0
  0
CIRCLE
  5
306
100
AcDbEntity
  8
SOLDERMASK_PADS_TOP
100
AcDbCircle
 10
25254.582
 20
18538.54
 30
0.0
 40
190.0
  0
CIRCLE
  5
307
100
AcDbEntity
  8
SOLDERMASK_PADS_TOP
100
AcDbCircle
 10
33814.569
 20
19240.736
 30
0.0
 40
190.0
  0
CIRCLE
  5
308
100
AcDbEntity
  8
SOLDERMASK_PADS_TOP
100
AcDbCircle
 10
27904.445
 20
19312.726
 30
0.0
 40
190.0
  0
CIRCLE
  5
309
100
AcDbEntity
  8
SOLDERMASK_PADS_TOP
100
AcDbCircle
 10
35361.299
 20
19275.034
 30
0.0
 40
190.0
  0
CIRCLE
  5
30A
100
AcDbEntity
  8
SOLDERMASK_PADS_TOP
100
AcDbCircle
 10
36729.343
 20
19275.034
 30
0.0
 40
190.0
  0
CIRCLE
  5
30B
100
AcDbEntity
  8
SOLDERMASK_PADS_TOP
100
AcDbCircle
 10
30815.515
 20
19221.174
 30
0.0
 40
190.0
  0
CIRCLE
  5
30C
100
AcDbEntity
  8
SOLDERMASK_PADS_TOP
100
AcDbCircle
 10
30771.66
 20
17939.588
 30
0.0
 40
190.0
  0
CIRCLE
  5
30D
100
AcDbEntity
  8
SOLDERMASK_PADS_TOP
100
AcDbCircle
 10
32349.268
 20
17983.82
 30
0.0
 40
190.0
  0
CIRCLE
  5
30E
100
AcDbEntity
  8
SOLDERMASK_PADS_TOP
100
AcDbCircle
 10
33808.924
 20
17895.356
 30
0.0
 40
190.0
  0
CIRCLE
  5
30F
100
AcDbEntity
  8
SOLDERMASK_PADS_TOP
100
AcDbCircle
 10
36772.468
 20
17718.428
 30
0.0
 40
190.0
  0
CIRCLE
  5
310
100
AcDbEntity
  8
SOLDERMASK_PADS_TOP
100
AcDbCircle
 10
39559.084
 20
17512.012
 30
0.0
 40
190.0
  0
CIRCLE
  5
311
100
AcDbEntity
  8
SOLDERMASK_PADS_TOP
100
AcDbCircle
 10
45441.94
 20
18042.796
 30
0.0
 40
190.0
  0
CIRCLE
  5
312
100
AcDbEntity
  8
SOLDERMASK_PADS_TOP
100
AcDbCircle
 10
46496.153
 20
7433.461
 30
0.0
 40
190.0
  0
CIRCLE
  5
313
100
AcDbEntity
  8
SOLDERMASK_PADS_TOP
100
AcDbCircle
 10
24382.696
 20
7684.966
 30
0.0
 40
190.0
  0
CIRCLE
  5
314
100
AcDbEntity
  8
SOLDERMASK_PADS_TOP
100
AcDbCircle
 10
9100.0
 20
25390.0
 30
0.0
 40
90.0
  0
CIRCLE
  5
315
100
AcDbEntity
  8
SOLDERMASK_PADS_TOP
100
AcDbCircle
 10
8100.0
 20
25390.0
 30
0.0
 40
90.0
  0
CIRCLE
  5
316
100
AcDbEntity
  8
SOLDERMASK_PADS_TOP
100
AcDbCircle
 10
7100.0
 20
25390.0
 30
0.0
 40
90.0
  0
CIRCLE
  5
317
100
AcDbEntity
  8
SOLDERMASK_PADS_TOP
100
AcDbCircle
 10
6100.0
 20
25390.0
 30
0.0
 40
90.0
  0
CIRCLE
  5
318
100
AcDbEntity
  8
SOLDERMASK_PADS_TOP
100
AcDbCircle
 10
5100.0
 20
25390.0
 30
0.0
 40
90.0
  0
CIRCLE
  5
319
100
AcDbEntity
  8
SOLDERMASK_PADS_TOP
100
AcDbCircle
 10
74430.0
 20
20935.0
 30
0.0
 40
90.0
  0
CIRCLE
  5
31A
100
AcDbEntity
  8
SOLDERMASK_PADS_TOP
100
AcDbCircle
 10
74430.0
 20
19935.0
 30
0.0
 40
90.0
  0
CIRCLE
  5
31B
100
AcDbEntity
  8
SOLDERMASK_PADS_TOP
100
AcDbCircle
 10
74430.0
 20
21935.0
 30
0.0
 40
90.0
  0
CIRCLE
  5
31C
100
AcDbEntity
  8
SOLDERMASK_PADS_TOP
100
AcDbCircle
 10
74430.0
 20
18935.0
 30
0.0
 40
90.0
  0
CIRCLE
  5
31D
100
AcDbEntity
  8
SOLDERMASK_PADS_TOP
100
AcDbCircle
 10
74430.0
 20
17935.0
 30
0.0
 40
90.0
  0
CIRCLE
  5
31E
100
AcDbEntity
  8
SOLDERMASK_PADS_TOP
100
AcDbCircle
 10
18503.963
 20
14388.98
 30
0.0
 40
190.0
  0
CIRCLE
  5
31F
100
AcDbEntity
  8
SOLDERMASK_PADS_TOP
100
AcDbCircle
 10
19839.689
 20
14527.092
 30
0.0
 40
190.0
  0
CIRCLE
  5
320
100
AcDbEntity
  8
SOLDERMASK_PADS_TOP
100
AcDbCircle
 10
16998.493
 20
14029.777
 30
0.0
 40
190.0
  0
CIRCLE
  5
321
100
AcDbEntity
  8
SOLDERMASK_PADS_TOP
100
AcDbCircle
 10
27100.043
 20
8483.314
 30
0.0
 40
190.0
  0
CIRCLE
  5
322
100
AcDbEntity
  8
SOLDERMASK_PADS_TOP
100
AcDbCircle
 10
24299.666
 20
9292.081
 30
0.0
 40
190.0
  0
CIRCLE
  5
323
100
AcDbEntity
  8
SOLDERMASK_PADS_TOP
100
AcDbCircle
 10
25412.093
 20
9919.138
 30
0.0
 40
190.0
  0
CIRCLE
  5
324
100
AcDbEntity
  8
SOLDERMASK_PADS_TOP
100
AcDbCircle
 10
26312.093
 20
9984.814
 30
0.0
 40
190.0
  0
CIRCLE
  5
325
100
AcDbEntity
  8
SOLDERMASK_PADS_TOP
100
AcDbCircle
 10
28844.318
 20
11757.202
 30
0.0
 40
190.0
  0
CIRCLE
  5
326
100
AcDbEntity
  8
SOLDERMASK_PADS_TOP
100
AcDbCircle
 10
17631.153
 20
11894.773
 30
0.0
 40
190.0
  0
CIRCLE
  5
327
100
AcDbEntity
  8
SOLDERMASK_PADS_TOP
100
AcDbCircle
 10
18212.775
 20
12920.277
 30
0.0
 40
190.0
  0
CIRCLE
  5
328
100
AcDbEntity
  8
SOLDERMASK_PADS_TOP
100
AcDbCircle
 10
19675.764
 20
15769.609
 30
0.0
 40
190.0
  0
CIRCLE
  5
329
100
AcDbEntity
  8
SOLDERMASK_PADS_TOP
100
AcDbCircle
 10
7196.772
 20
7628.055
 30
0.0
 40
190.0
  0
CIRCLE
  5
32A
100
AcDbEntity
  8
SOLDERMASK_PADS_TOP
100
AcDbCircle
 10
32437.878
 20
12150.0
 30
0.0
 40
190.0
  0
CIRCLE
  5
32B
100
AcDbEntity
  8
SOLDERMASK_PADS_TOP
100
AcDbCircle
 10
40983.045
 20
18264.039
 30
0.0
 40
190.0
  0
CIRCLE
  5
32C
100
AcDbEntity
  8
SOLDERMASK_PADS_TOP
100
AcDbCircle
 10
24259.204
 20
17965.0
 30
0.0
 40
190.0
  0
CIRCLE
  5
32D
100
AcDbEntity
  8
SOLDERMASK_PADS_TOP
100
AcDbCircle
 10
63105.16
 20
15708.027
 30
0.0
 40
190.0
  0
CIRCLE
  5
32E
100
AcDbEntity
  8
SOLDERMASK_PADS_TOP
100
AcDbCircle
 10
44757.405
 20
16933.654
 30
0.0
 40
190.0
  0
CIRCLE
  5
32F
100
AcDbEntity
  8
SOLDERMASK_PADS_TOP
100
AcDbCircle
 10
38164.234
 20
18838.328
 30
0.0
 40
190.0
  0
CIRCLE
  5
330
100
AcDbEntity
  8
SOLDERMASK_PADS_TOP
100
AcDbCircle
 10
4644.797
 20
7904.955
 30
0.0
 40
190.0
  0
CIRCLE
  5
331
100
AcDbEntity
  8
SOLDERMASK_PADS_TOP
100
AcDbCircle
 10
38493.737
 20
11004.574
 30
0.0
 40
190.0
  0
CIRCLE
  5
332
100
AcDbEntity
  8
SOLDERMASK_PADS_TOP
100
AcDbCircle
 10
57978.094
 20
3519.068
 30
0.0
 40
190.0
  0
CIRCLE
  5
333
100
AcDbEntity
  8
SOLDERMASK_PADS_TOP
100
AcDbCircle
 10
2583.156
 20
14428.291
 30
0.0
 40
190.0
  0
CIRCLE
  5
334
100
AcDbEntity
  8
SOLDERMASK_PADS_TOP
100
AcDbCircle
 10
56519.423
 20
2989.383
 30
0.0
 40
190.0
  0
CIRCLE
  5
335
100
AcDbEntity
  8
SOLDERMASK_PADS_TOP
100
AcDbCircle
 10
2353.687
 20
13528.291
 30
0.0
 40
190.0
  0
CIRCLE
  5
336
100
AcDbEntity
  8
SOLDERMASK_PADS_TOP
100
AcDbCircle
 10
54128.792
 20
3359.059
 30
0.0
 40
190.0
  0
CIRCLE
  5
337
100
AcDbEntity
  8
SOLDERMASK_PADS_TOP
100
AcDbCircle
 10
26731.029
 20
15775.202
 30
0.0
 40
190.0
  0
CIRCLE
  5
338
100
AcDbEntity
  8
SOLDERMASK_PADS_TOP
100
AcDbCircle
 10
55499.986
 20
2524.078
 30
0.0
 40
190.0
  0
CIRCLE
  5
339
100
AcDbEntity
  8
SOLDERMASK_PADS_TOP
100
AcDbCircle
 10
3055.752
 20
12913.291
 30
0.0
 40
190.0
  0
CIRCLE
  5
33A
100
AcDbEntity
  8
SOLDERMASK_PADS_TOP
100
AcDbCircle
 10
27044.329
 20
11598.745
 30
0.0
 40
190.0
  0
CIRCLE
  5
33B
100
AcDbEntity
  8
SOLDERMASK_PADS_TOP
100
AcDbCircle
 10
48966.944
 20
10470.504
 30
0.0
 40
190.0
  0
CIRCLE
  5
33C
100
AcDbEntity
  8
SOLDERMASK_PADS_TOP
100
AcDbCircle
 10
26144.58
 20
11577.444
 30
0.0
 40
190.0
  0
CIRCLE
  5
33D
100
AcDbEntity
  8
SOLDERMASK_PADS_TOP
100
AcDbCircle
 10
51831.651
 20
3614.219
 30
0.0
 40
190.0
  0
CIRCLE
  5
33E
100
AcDbEntity
  8
SOLDERMASK_PADS_TOP
100
AcDbCircle
 10
48305.231
 20
2989.383
 30
0.0
 40
190.0
  0
CIRCLE
  5
33F
100
AcDbEntity
  8
SOLDERMASK_PADS_TOP
100
AcDbCircle
 10
2097.456
 20
11524.257
 30
0.0
 40
190.0
  0
CIRCLE
  5
340
100
AcDbEntity
  8
SOLDERMASK_PADS_TOP
100
AcDbCircle
 10
27645.641
 20
15820.072
 30
0.0
 40
190.0
  0
CIRCLE
  5
341
100
AcDbEntity
  8
SOLDERMASK_PADS_TOP
100
AcDbCircle
 10
53031.651
 20
3510.919
 30
0.0
 40
190.0
  0
CIRCLE
  5
342
100
AcDbEntity
  8
SOLDERMASK_PADS_TOP
100
AcDbCircle
 10
49266.813
 20
2011.503
 30
0.0
 40
190.0
  0
CIRCLE
  5
343
100
AcDbEntity
  8
SOLDERMASK_PADS_TOP
100
AcDbCircle
 10
2997.456
 20
11376.317
 30
0.0
 40
190.0
  0
CIRCLE
  5
344
100
AcDbEntity
  8
SOLDERMASK_PADS_TOP
100
AcDbCircle
 10
63103.815
 20
10339.781
 30
0.0
 40
190.0
  0
CIRCLE
  5
345
100
AcDbEntity
  8
SOLDERMASK_PADS_TOP
100
AcDbCircle
 10
43809.373
 20
12009.154
 30
0.0
 40
190.0
  0
CIRCLE
  5
346
100
AcDbEntity
  8
SOLDERMASK_PADS_TOP
100
AcDbCircle
 10
62726.455
 20
9019.643
 30
0.0
 40
190.0
  0
CIRCLE
  5
347
100
AcDbEntity
  8
SOLDERMASK_PADS_TOP
100
AcDbCircle
 10
42395.62
 20
12956.542
 30
0.0
 40
190.0
  0
CIRCLE
  5
348
100
AcDbEntity
  8
SOLDERMASK_PADS_TOP
100
AcDbCircle
 10
63705.68
 20
11010.709
 30
0.0
 40
190.0
  0
CIRCLE
  5
349
100
AcDbEntity
  8
SOLDERMASK_PADS_TOP
100
AcDbCircle
 10
43328.515
 20
14446.486
 30
0.0
 40
190.0
  0
CIRCLE
  5
34A
100
AcDbEntity
  8
SOLDERMASK_PADS_TOP
100
AcDbCircle
 10
62861.985
 20
11946.744
 30
0.0
 40
190.0
  0
CIRCLE
  5
34B
100
AcDbEntity
  8
SOLDERMASK_PADS_TOP
100
AcDbCircle
 10
43079.453
 20
15311.338
 30
0.0
 40
190.0
  0
CIRCLE
  5
34C
100
AcDbEntity
  8
SOLDERMASK_PADS_TOP
100
AcDbCircle
 10
63519.778
 20
12561.744
 30
0.0
 40
190.0
  0
CIRCLE
  5
34D
100
AcDbEntity
  8
SOLDERMASK_PADS_TOP
100
AcDbCircle
 10
42387.34
 20
15926.338
 30
0.0
 40
190.0
  0
CIRCLE
  5
34E
100
AcDbEntity
  8
SOLDERMASK_PADS_TOP
100
AcDbCircle
 10
62942.396
 20
13461.744
 30
0.0
 40
190.0
  0
CIRCLE
  5
34F
100
AcDbEntity
  8
SOLDERMASK_PADS_TOP
100
AcDbCircle
 10
42673.553
 20
16779.616
 30
0.0
 40
190.0
  0
CIRCLE
  5
350
100
AcDbEntity
  8
SOLDERMASK_PADS_TOP
100
AcDbCircle
 10
64445.389
 20
14749.722
 30
0.0
 40
190.0
  0
CIRCLE
  5
351
100
AcDbEntity
  8
SOLDERMASK_PADS_TOP
100
AcDbCircle
 10
2212.865
 20
12488.195
 30
0.0
 40
190.0
  0
CIRCLE
  5
352
100
AcDbEntity
  8
SOLDERMASK_PADS_TOP
100
AcDbCircle
 10
27950.928
 20
11648.32
 30
0.0
 40
190.0
  0
CIRCLE
  5
353
100
AcDbEntity
  8
SOLDERMASK_PADS_TOP
100
AcDbCircle
 10
48307.725
 20
11084.078
 30
0.0
 40
190.0
  0
LWPOLYLINE
  5
354
100
AcDbEntity
  8
SOLDERMASK_PADS_TOP
100
AcDbPolyline
 90
        4
 70
         1
 10
10565.0
 20
25384.0
 10
10565.0
 20
25674.0
 10
11165.0
 20
25674.0
 10
11165.0
 20
25384.0
  0
LWPOLYLINE
  5
355
100
AcDbEntity
  8
SOLDERMASK_PADS_TOP
100
AcDbPolyline
 90
        4
 70
         1
 10
10565.0
 20
24884.0
 10
10565.0
 20
25174.0
 10
11165.0
 20
25174.0
 10
11165.0
 20
24884.0
  0
LWPOLYLINE
  5
356
100
AcDbEntity
  8
SOLDERMASK_PADS_TOP
100
AcDbPolyline
 90
        4
 70
         1
 10
11315.0
 20
24946.0
 10
11315.0
 20
25710.0
 10
11765.0
 20
25710.0
 10
11765.0
 20
24946.0
  0
LWPOLYLINE
  5
357
100
AcDbEntity
  8
SOLDERMASK_PADS_TOP
100
AcDbPolyline
 90
        4
 70
         1
 10
9965.0
 20
24946.0
 10
9965.0
 20
25710.0
 10
10415.0
 20
25710.0
 10
10415.0
 20
24946.0
  0
LWPOLYLINE
  5
358
100
AcDbEntity
  8
SOLDERMASK_PADS_TOP
100
AcDbPolyline
 90
        4
 70
         1
 10
10615.0
 20
22215.0
 10
10615.0
 20
22615.0
 10
11115.0
 20
22615.0
 10
11115.0
 20
22215.0
  0
LWPOLYLINE
  5
359
100
AcDbEntity
  8
SOLDERMASK_PADS_TOP
100
AcDbPolyline
 90
        4
 70
         1
 10
10615.0
 20
23015.0
 10
10615.0
 20
23415.0
 10
11115.0
 20
23415.0
 10
11115.0
 20
23015.0
  0
LWPOLYLINE
  5
35A
100
AcDbEntity
  8
SOLDERMASK_PADS_TOP
100
AcDbPolyline
 90
        4
 70
         1
 10
71180.0
 20
16020.0
 10
71180.0
 20
16520.0
 10
71580.0
 20
16520.0
 10
71580.0
 20
16020.0
  0
LWPOLYLINE
  5
35B
100
AcDbEntity
  8
SOLDERMASK_PADS_TOP
100
AcDbPolyline
 90
        4
 70
         1
 10
71980.0
 20
16020.0
 10
71980.0
 20
16520.0
 10
72380.0
 20
16520.0
 10
72380.0
 20
16020.0
  0
CIRCLE
  5
35C
100
AcDbEntity
  8
SOLDERMASK_PADS_TOP
100
AcDbCircle
 10
28460.0
 20
8830.0
 30
0.0
 40
500.0
  0
LWPOLYLINE
  5
35D
100
AcDbEntity
  8
SOLDERMASK_PADS_TOP
100
AcDbPolyline
 90
        4
 70
         1
 10
62880.0
 20
19820.0
 10
62880.0
 20
20220.0
 10
63380.0
 20
20220.0
 10
63380.0
 20
19820.0
  0
LWPOLYLINE
  5
35E
100
AcDbEntity
  8
SOLDERMASK_PADS_TOP
100
AcDbPolyline
 90
        4
 70
         1
 10
62880.0
 20
19020.0
 10
62880.0
 20
19420.0
 10
63380.0
 20
19420.0
 10
63380.0
 20
19020.0
  0
LWPOLYLINE
  5
35F
100
AcDbEntity
  8
SOLDERMASK_PADS_TOP
100
AcDbPolyline
 90
        4
 70
         1
 10
62880.0
 20
18232.5
 10
62880.0
 20
18632.5
 10
63380.0
 20
18632.5
 10
63380.0
 20
18232.5
  0
LWPOLYLINE
  5
360
100
AcDbEntity
  8
SOLDERMASK_PADS_TOP
100
AcDbPolyline
 90
        4
 70
         1
 10
23920.0
 20
20410.0
 10
23920.0
 20
20910.0
 10
24420.0
 20
20910.0
 10
24420.0
 20
20410.0
  0
LWPOLYLINE
  5
361
100
AcDbEntity
  8
SOLDERMASK_PADS_TOP
100
AcDbPolyline
 90
        4
 70
         1
 10
23920.0
 20
19710.0
 10
23920.0
 20
20210.0
 10
24420.0
 20
20210.0
 10
24420.0
 20
19710.0
  0
LWPOLYLINE
  5
362
100
AcDbEntity
  8
SOLDERMASK_PADS_TOP
100
AcDbPolyline
 90
        4
 70
         1
 10
23220.0
 20
19710.0
 10
23220.0
 20
20210.0
 10
23720.0
 20
20210.0
 10
23720.0
 20
19710.0
  0
LWPOLYLINE
  5
363
100
AcDbEntity
  8
SOLDERMASK_PADS_TOP
100
AcDbPolyline
 90
        4
 70
         1
 10
23670.0
 20
22440.0
 10
23670.0
 20
23440.0
 10
24670.0
 20
23440.0
 10
24670.0
 20
22440.0
  0
LWPOLYLINE
  5
364
100
AcDbEntity
  8
SOLDERMASK_PADS_TOP
100
AcDbPolyline
 90
        4
 70
         1
 10
22220.0
 20
23340.0
 10
22220.0
 20
25540.0
 10
23220.0
 20
25540.0
 10
23220.0
 20
23340.0
  0
LWPOLYLINE
  5
365
100
AcDbEntity
  8
SOLDERMASK_PADS_TOP
100
AcDbPolyline
 90
        4
 70
         1
 10
25120.0
 20
23340.0
 10
25120.0
 20
25540.0
 10
26120.0
 20
25540.0
 10
26120.0
 20
23340.0
  0
LWPOLYLINE
  5
366
100
AcDbEntity
  8
SOLDERMASK_PADS_TOP
100
AcDbPolyline
 90
        4
 70
         1
 10
62620.0
 20
22440.0
 10
62620.0
 20
23440.0
 10
63620.0
 20
23440.0
 10
63620.0
 20
22440.0
  0
LWPOLYLINE
  5
367
100
AcDbEntity
  8
SOLDERMASK_PADS_TOP
100
AcDbPolyline
 90
        4
 70
         1
 10
61170.0
 20
23340.0
 10
61170.0
 20
25540.0
 10
62170.0
 20
25540.0
 10
62170.0
 20
23340.0
  0
LWPOLYLINE
  5
368
100
AcDbEntity
  8
SOLDERMASK_PADS_TOP
100
AcDbPolyline
 90
        4
 70
         1
 10
64070.0
 20
23340.0
 10
64070.0
 20
25540.0
 10
65070.0
 20
25540.0
 10
65070.0
 20
23340.0
  0
LWPOLYLINE
  5
369
100
AcDbEntity
  8
SOLDERMASK_PADS_TOP
100
AcDbPolyline
 90
        4
 70
         1
 10
70310.0
 20
15230.0
 10
70310.0
 20
15630.0
 10
70810.0
 20
15630.0
 10
70810.0
 20
15230.0
  0
LWPOLYLINE
  5
36A
100
AcDbEntity
  8
SOLDERMASK_PADS_TOP
100
AcDbPolyline
 90
        4
 70
         1
 10
70310.0
 20
16030.0
 10
70310.0
 20
16430.0
 10
70810.0
 20
16430.0
 10
70810.0
 20
16030.0
  0
LWPOLYLINE
  5
36B
100
AcDbEntity
  8
SOLDERMASK_PADS_TOP
100
AcDbPolyline
 90
        4
 70
         1
 10
11460.0
 20
21310.0
 10
11460.0
 20
21810.0
 10
11860.0
 20
21810.0
 10
11860.0
 20
21310.0
  0
LWPOLYLINE
  5
36C
100
AcDbEntity
  8
SOLDERMASK_PADS_TOP
100
AcDbPolyline
 90
        4
 70
         1
 10
10660.0
 20
21310.0
 10
10660.0
 20
21810.0
 10
11060.0
 20
21810.0
 10
11060.0
 20
21310.0
  0
CIRCLE
  5
36D
100
AcDbEntity
  8
SOLDERMASK_PADS_TOP
100
AcDbCircle
 10
44773.546
 20
9251.557
 30
0.0
 40
500.0
  0
CIRCLE
  5
36E
100
AcDbEntity
  8
SOLDERMASK_PADS_TOP
100
AcDbCircle
 10
44773.546
 20
11091.557
 30
0.0
 40
500.0
  0
CIRCLE
  5
36F
100
AcDbEntity
  8
SOLDERMASK_PADS_TOP
100
AcDbCircle
 10
63826.456
 20
9370.001
 30
0.0
 40
500.0
  0
CIRCLE
  5
370
100
AcDbEntity
  8
SOLDERMASK_PADS_TOP
100
AcDbCircle
 10
63826.456
 20
7860.001
 30
0.0
 40
500.0
  0
CIRCLE
  5
371
100
AcDbEntity
  8
SOLDERMASK_PADS_TOP
100
AcDbCircle
 10
63826.456
 20
4830.001
 30
0.0
 40
500.0
  0
CIRCLE
  5
372
100
AcDbEntity
  8
SOLDERMASK_PADS_TOP
100
AcDbCircle
 10
63826.456
 20
6350.001
 30
0.0
 40
500.0
  0
CIRCLE
  5
373
100
AcDbEntity
  8
SOLDERMASK_PADS_TOP
100
AcDbCircle
 10
56726.456
 20
18800.001
 30
0.0
 40
500.0
  0
CIRCLE
  5
374
100
AcDbEntity
  8
SOLDERMASK_PADS_TOP
100
AcDbCircle
 10
55126.456
 20
18800.001
 30
0.0
 40
500.0
  0
CIRCLE
  5
375
100
AcDbEntity
  8
SOLDERMASK_PADS_TOP
100
AcDbCircle
 10
53526.456
 20
18800.001
 30
0.0
 40
500.0
  0
LWPOLYLINE
  5
376
100
AcDbEntity
  8
SOLDERMASK_PADS_TOP
100
AcDbPolyline
 90
        4
 70
         1
 10
63331.455
 20
14660.0
 10
63331.455
 20
15060.0
 10
63831.455
 20
15060.0
 10
63831.455
 20
14660.0
  0
LWPOLYLINE
  5
377
100
AcDbEntity
  8
SOLDERMASK_PADS_TOP
100
AcDbPolyline
 90
        4
 70
         1
 10
63331.455
 20
13860.0
 10
63331.455
 20
14260.0
 10
63831.455
 20
14260.0
 10
63831.455
 20
13860.0
  0
LWPOLYLINE
  5
378
100
AcDbEntity
  8
SOLDERMASK_PADS_TOP
100
AcDbPolyline
 90
        4
 70
         1
 10
61451.455
 20
5500.0
 10
61451.455
 20
5900.0
 10
62201.455
 20
5900.0
 10
62201.455
 20
5500.0
  0
LWPOLYLINE
  5
379
100
AcDbEntity
  8
SOLDERMASK_PADS_TOP
100
AcDbPolyline
 90
        4
 70
         1
 10
61451.455
 20
6200.0
 10
61451.455
 20
6600.0
 10
62201.455
 20
6600.0
 10
62201.455
 20
6200.0
  0
LWPOLYLINE
  5
37A
100
AcDbEntity
  8
SOLDERMASK_PADS_TOP
100
AcDbPolyline
 90
        4
 70
         1
 10
61451.455
 20
6900.0
 10
61451.455
 20
7300.0
 10
62201.455
 20
7300.0
 10
62201.455
 20
6900.0
  0
LWPOLYLINE
  5
37B
100
AcDbEntity
  8
SOLDERMASK_PADS_TOP
100
AcDbPolyline
 90
        4
 70
         1
 10
61451.455
 20
7600.0
 10
61451.455
 20
8000.0
 10
62201.455
 20
8000.0
 10
62201.455
 20
7600.0
  0
LWPOLYLINE
  5
37C
100
AcDbEntity
  8
SOLDERMASK_PADS_TOP
100
AcDbPolyline
 90
        4
 70
         1
 10
61451.455
 20
8300.0
 10
61451.455
 20
8700.0
 10
62201.455
 20
8700.0
 10
62201.455
 20
8300.0
  0
LWPOLYLINE
  5
37D
100
AcDbEntity
  8
SOLDERMASK_PADS_TOP
100
AcDbPolyline
 90
        4
 70
         1
 10
61451.455
 20
9700.0
 10
61451.455
 20
10100.0
 10
62201.455
 20
10100.0
 10
62201.455
 20
9700.0
  0
LWPOLYLINE
  5
37E
100
AcDbEntity
  8
SOLDERMASK_PADS_TOP
100
AcDbPolyline
 90
        4
 70
         1
 10
61451.455
 20
11100.0
 10
61451.455
 20
11500.0
 10
62201.455
 20
11500.0
 10
62201.455
 20
11100.0
  0
LWPOLYLINE
  5
37F
100
AcDbEntity
  8
SOLDERMASK_PADS_TOP
100
AcDbPolyline
 90
        4
 70
         1
 10
61451.455
 20
11800.0
 10
61451.455
 20
12200.0
 10
62201.455
 20
12200.0
 10
62201.455
 20
11800.0
  0
LWPOLYLINE
  5
380
100
AcDbEntity
  8
SOLDERMASK_PADS_TOP
100
AcDbPolyline
 90
        4
 70
         1
 10
61451.455
 20
12500.0
 10
61451.455
 20
12900.0
 10
62201.455
 20
12900.0
 10
62201.455
 20
12500.0
  0
LWPOLYLINE
  5
381
100
AcDbEntity
  8
SOLDERMASK_PADS_TOP
100
AcDbPolyline
 90
        4
 70
         1
 10
61451.455
 20
13200.0
 10
61451.455
 20
13600.0
 10
62201.455
 20
13600.0
 10
62201.455
 20
13200.0
  0
LWPOLYLINE
  5
382
100
AcDbEntity
  8
SOLDERMASK_PADS_TOP
100
AcDbPolyline
 90
        4
 70
         1
 10
61451.455
 20
13900.0
 10
61451.455
 20
14300.0
 10
62201.455
 20
14300.0
 10
62201.455
 20
13900.0
  0
LWPOLYLINE
  5
383
100
AcDbEntity
  8
SOLDERMASK_PADS_TOP
100
AcDbPolyline
 90
        4
 70
         1
 10
60551.455
 20
16250.0
 10
60551.455
 20
17000.0
 10
60951.455
 20
17000.0
 10
60951.455
 20
16250.0
  0
LWPOLYLINE
  5
384
100
AcDbEntity
  8
SOLDERMASK_PADS_TOP
100
AcDbPolyline
 90
        4
 70
         1
 10
58451.455
 20
16250.0
 10
58451.455
 20
17000.0
 10
58851.455
 20
17000.0
 10
58851.455
 20
16250.0
  0
LWPOLYLINE
  5
385
100
AcDbEntity
  8
SOLDERMASK_PADS_TOP
100
AcDbPolyline
 90
        4
 70
         1
 10
57751.455
 20
16250.0
 10
57751.455
 20
17000.0
 10
58151.455
 20
17000.0
 10
58151.455
 20
16250.0
  0
LWPOLYLINE
  5
386
100
AcDbEntity
  8
SOLDERMASK_PADS_TOP
100
AcDbPolyline
 90
        4
 70
         1
 10
55651.455
 20
16250.0
 10
55651.455
 20
17000.0
 10
56051.455
 20
17000.0
 10
56051.455
 20
16250.0
  0
LWPOLYLINE
  5
387
100
AcDbEntity
  8
SOLDERMASK_PADS_TOP
100
AcDbPolyline
 90
        4
 70
         1
 10
54951.455
 20
16250.0
 10
54951.455
 20
17000.0
 10
55351.455
 20
17000.0
 10
55351.455
 20
16250.0
  0
LWPOLYLINE
  5
388
100
AcDbEntity
  8
SOLDERMASK_PADS_TOP
100
AcDbPolyline
 90
        4
 70
         1
 10
54251.455
 20
16250.0
 10
54251.455
 20
17000.0
 10
54651.455
 20
17000.0
 10
54651.455
 20
16250.0
  0
LWPOLYLINE
  5
389
100
AcDbEntity
  8
SOLDERMASK_PADS_TOP
100
AcDbPolyline
 90
        4
 70
         1
 10
50751.455
 20
16250.0
 10
50751.455
 20
17000.0
 10
51151.455
 20
17000.0
 10
51151.455
 20
16250.0
  0
LWPOLYLINE
  5
38A
100
AcDbEntity
  8
SOLDERMASK_PADS_TOP
100
AcDbPolyline
 90
        4
 70
         1
 10
49501.455
 20
13900.0
 10
49501.455
 20
14300.0
 10
50251.455
 20
14300.0
 10
50251.455
 20
13900.0
  0
LWPOLYLINE
  5
38B
100
AcDbEntity
  8
SOLDERMASK_PADS_TOP
100
AcDbPolyline
 90
        4
 70
         1
 10
49501.455
 20
12500.0
 10
49501.455
 20
12900.0
 10
50251.455
 20
12900.0
 10
50251.455
 20
12500.0
  0
LWPOLYLINE
  5
38C
100
AcDbEntity
  8
SOLDERMASK_PADS_TOP
100
AcDbPolyline
 90
        4
 70
         1
 10
49501.455
 20
11100.0
 10
49501.455
 20
11500.0
 10
50251.455
 20
11500.0
 10
50251.455
 20
11100.0
  0
LWPOLYLINE
  5
38D
100
AcDbEntity
  8
SOLDERMASK_PADS_TOP
100
AcDbPolyline
 90
        4
 70
         1
 10
49501.455
 20
10400.0
 10
49501.455
 20
10800.0
 10
50251.455
 20
10800.0
 10
50251.455
 20
10400.0
  0
LWPOLYLINE
  5
38E
100
AcDbEntity
  8
SOLDERMASK_PADS_TOP
100
AcDbPolyline
 90
        4
 70
         1
 10
49501.455
 20
9700.0
 10
49501.455
 20
10100.0
 10
50251.455
 20
10100.0
 10
50251.455
 20
9700.0
  0
LWPOLYLINE
  5
38F
100
AcDbEntity
  8
SOLDERMASK_PADS_TOP
100
AcDbPolyline
 90
        4
 70
         1
 10
49501.455
 20
9000.0
 10
49501.455
 20
9400.0
 10
50251.455
 20
9400.0
 10
50251.455
 20
9000.0
  0
LWPOLYLINE
  5
390
100
AcDbEntity
  8
SOLDERMASK_PADS_TOP
100
AcDbPolyline
 90
        4
 70
         1
 10
49501.455
 20
6900.0
 10
49501.455
 20
7300.0
 10
50251.455
 20
7300.0
 10
50251.455
 20
6900.0
  0
LWPOLYLINE
  5
391
100
AcDbEntity
  8
SOLDERMASK_PADS_TOP
100
AcDbPolyline
 90
        4
 70
         1
 10
49501.455
 20
6200.0
 10
49501.455
 20
6600.0
 10
50251.455
 20
6600.0
 10
50251.455
 20
6200.0
  0
LWPOLYLINE
  5
392
100
AcDbEntity
  8
SOLDERMASK_PADS_TOP
100
AcDbPolyline
 90
        4
 70
         1
 10
50751.455
 20
4200.0
 10
50751.455
 20
4950.0
 10
51151.455
 20
4950.0
 10
51151.455
 20
4200.0
  0
LWPOLYLINE
  5
393
100
AcDbEntity
  8
SOLDERMASK_PADS_TOP
100
AcDbPolyline
 90
        4
 70
         1
 10
51451.455
 20
4200.0
 10
51451.455
 20
4950.0
 10
51851.455
 20
4950.0
 10
51851.455
 20
4200.0
  0
LWPOLYLINE
  5
394
100
AcDbEntity
  8
SOLDERMASK_PADS_TOP
100
AcDbPolyline
 90
        4
 70
         1
 10
52151.455
 20
4200.0
 10
52151.455
 20
4950.0
 10
52551.455
 20
4950.0
 10
52551.455
 20
4200.0
  0
LWPOLYLINE
  5
395
100
AcDbEntity
  8
SOLDERMASK_PADS_TOP
100
AcDbPolyline
 90
        4
 70
         1
 10
52851.455
 20
4200.0
 10
52851.455
 20
4950.0
 10
53251.455
 20
4950.0
 10
53251.455
 20
4200.0
  0
LWPOLYLINE
  5
396
100
AcDbEntity
  8
SOLDERMASK_PADS_TOP
100
AcDbPolyline
 90
        4
 70
         1
 10
54951.455
 20
4200.0
 10
54951.455
 20
4950.0
 10
55351.455
 20
4950.0
 10
55351.455
 20
4200.0
  0
LWPOLYLINE
  5
397
100
AcDbEntity
  8
SOLDERMASK_PADS_TOP
100
AcDbPolyline
 90
        4
 70
         1
 10
55651.455
 20
4200.0
 10
55651.455
 20
4950.0
 10
56051.455
 20
4950.0
 10
56051.455
 20
4200.0
  0
LWPOLYLINE
  5
398
100
AcDbEntity
  8
SOLDERMASK_PADS_TOP
100
AcDbPolyline
 90
        4
 70
         1
 10
56351.455
 20
4200.0
 10
56351.455
 20
4950.0
 10
56751.455
 20
4950.0
 10
56751.455
 20
4200.0
  0
LWPOLYLINE
  5
399
100
AcDbEntity
  8
SOLDERMASK_PADS_TOP
100
AcDbPolyline
 90
        4
 70
         1
 10
57751.455
 20
4200.0
 10
57751.455
 20
4950.0
 10
58151.455
 20
4950.0
 10
58151.455
 20
4200.0
  0
LWPOLYLINE
  5
39A
100
AcDbEntity
  8
SOLDERMASK_PADS_TOP
100
AcDbPolyline
 90
        4
 70
         1
 10
59151.455
 20
4200.0
 10
59151.455
 20
4950.0
 10
59551.455
 20
4950.0
 10
59551.455
 20
4200.0
  0
LWPOLYLINE
  5
39B
100
AcDbEntity
  8
SOLDERMASK_PADS_TOP
100
AcDbPolyline
 90
        4
 70
         1
 10
54301.455
 20
7650.0
 10
54301.455
 20
8650.0
 10
55301.455
 20
8650.0
 10
55301.455
 20
7650.0
  0
LWPOLYLINE
  5
39C
100
AcDbEntity
  8
SOLDERMASK_PADS_TOP
100
AcDbPolyline
 90
        4
 70
         1
 10
54301.455
 20
6250.0
 10
54301.455
 20
7250.0
 10
55301.455
 20
7250.0
 10
55301.455
 20
6250.0
  0
LWPOLYLINE
  5
39D
100
AcDbEntity
  8
SOLDERMASK_PADS_TOP
100
AcDbPolyline
 90
        4
 70
         1
 10
51501.455
 20
13950.0
 10
51501.455
 20
14950.0
 10
52501.455
 20
14950.0
 10
52501.455
 20
13950.0
  0
LWPOLYLINE
  5
39E
100
AcDbEntity
  8
SOLDERMASK_PADS_TOP
100
AcDbPolyline
 90
        4
 70
         1
 10
51501.455
 20
12550.0
 10
51501.455
 20
13550.0
 10
52501.455
 20
13550.0
 10
52501.455
 20
12550.0
  0
LWPOLYLINE
  5
39F
100
AcDbEntity
  8
SOLDERMASK_PADS_TOP
100
AcDbPolyline
 90
        4
 70
         1
 10
51501.455
 20
11150.0
 10
51501.455
 20
12150.0
 10
52501.455
 20
12150.0
 10
52501.455
 20
11150.0
  0
LWPOLYLINE
  5
3A0
100
AcDbEntity
  8
SOLDERMASK_PADS_TOP
100
AcDbPolyline
 90
        4
 70
         1
 10
51501.455
 20
9050.0
 10
51501.455
 20
10050.0
 10
52501.455
 20
10050.0
 10
52501.455
 20
9050.0
  0
LWPOLYLINE
  5
3A1
100
AcDbEntity
  8
SOLDERMASK_PADS_TOP
100
AcDbPolyline
 90
        4
 70
         1
 10
51501.455
 20
7650.0
 10
51501.455
 20
8650.0
 10
52501.455
 20
8650.0
 10
52501.455
 20
7650.0
  0
LWPOLYLINE
  5
3A2
100
AcDbEntity
  8
SOLDERMASK_PADS_TOP
100
AcDbPolyline
 90
        4
 70
         1
 10
51501.455
 20
6250.0
 10
51501.455
 20
7250.0
 10
52501.455
 20
7250.0
 10
52501.455
 20
6250.0
  0
LWPOLYLINE
  5
3A3
100
AcDbEntity
  8
SOLDERMASK_PADS_TOP
100
AcDbPolyline
 90
        4
 70
         1
 10
52901.455
 20
13950.0
 10
52901.455
 20
14950.0
 10
53901.455
 20
14950.0
 10
53901.455
 20
13950.0
  0
LWPOLYLINE
  5
3A4
100
AcDbEntity
  8
SOLDERMASK_PADS_TOP
100
AcDbPolyline
 90
        4
 70
         1
 10
52901.455
 20
12550.0
 10
52901.455
 20
13550.0
 10
53901.455
 20
13550.0
 10
53901.455
 20
12550.0
  0
LWPOLYLINE
  5
3A5
100
AcDbEntity
  8
SOLDERMASK_PADS_TOP
100
AcDbPolyline
 90
        4
 70
         1
 10
52901.455
 20
11150.0
 10
52901.455
 20
12150.0
 10
53901.455
 20
12150.0
 10
53901.455
 20
11150.0
  0
LWPOLYLINE
  5
3A6
100
AcDbEntity
  8
SOLDERMASK_PADS_TOP
100
AcDbPolyline
 90
        4
 70
         1
 10
52901.455
 20
9050.0
 10
52901.455
 20
10050.0
 10
53901.455
 20
10050.0
 10
53901.455
 20
9050.0
  0
LWPOLYLINE
  5
3A7
100
AcDbEntity
  8
SOLDERMASK_PADS_TOP
100
AcDbPolyline
 90
        4
 70
         1
 10
52901.455
 20
7650.0
 10
52901.455
 20
8650.0
 10
53901.455
 20
8650.0
 10
53901.455
 20
7650.0
  0
LWPOLYLINE
  5
3A8
100
AcDbEntity
  8
SOLDERMASK_PADS_TOP
100
AcDbPolyline
 90
        4
 70
         1
 10
52901.455
 20
6250.0
 10
52901.455
 20
7250.0
 10
53901.455
 20
7250.0
 10
53901.455
 20
6250.0
  0
LWPOLYLINE
  5
3A9
100
AcDbEntity
  8
SOLDERMASK_PADS_TOP
100
AcDbPolyline
 90
        4
 70
         1
 10
54301.455
 20
13950.0
 10
54301.455
 20
14950.0
 10
55301.455
 20
14950.0
 10
55301.455
 20
13950.0
  0
LWPOLYLINE
  5
3AA
100
AcDbEntity
  8
SOLDERMASK_PADS_TOP
100
AcDbPolyline
 90
        4
 70
         1
 10
54301.455
 20
12550.0
 10
54301.455
 20
13550.0
 10
55301.455
 20
13550.0
 10
55301.455
 20
12550.0
  0
LWPOLYLINE
  5
3AB
100
AcDbEntity
  8
SOLDERMASK_PADS_TOP
100
AcDbPolyline
 90
        4
 70
         1
 10
54301.455
 20
11150.0
 10
54301.455
 20
12150.0
 10
55301.455
 20
12150.0
 10
55301.455
 20
11150.0
  0
LWPOLYLINE
  5
3AC
100
AcDbEntity
  8
SOLDERMASK_PADS_TOP
100
AcDbPolyline
 90
        4
 70
         1
 10
54301.455
 20
9050.0
 10
54301.455
 20
10050.0
 10
55301.455
 20
10050.0
 10
55301.455
 20
9050.0
  0
LWPOLYLINE
  5
3AD
100
AcDbEntity
  8
SOLDERMASK_PADS_TOP
100
AcDbPolyline
 90
        4
 70
         1
 10
56401.455
 20
13950.0
 10
56401.455
 20
14950.0
 10
57401.455
 20
14950.0
 10
57401.455
 20
13950.0
  0
LWPOLYLINE
  5
3AE
100
AcDbEntity
  8
SOLDERMASK_PADS_TOP
100
AcDbPolyline
 90
        4
 70
         1
 10
56401.455
 20
12550.0
 10
56401.455
 20
13550.0
 10
57401.455
 20
13550.0
 10
57401.455
 20
12550.0
  0
LWPOLYLINE
  5
3AF
100
AcDbEntity
  8
SOLDERMASK_PADS_TOP
100
AcDbPolyline
 90
        4
 70
         1
 10
56401.455
 20
11150.0
 10
56401.455
 20
12150.0
 10
57401.455
 20
12150.0
 10
57401.455
 20
11150.0
  0
LWPOLYLINE
  5
3B0
100
AcDbEntity
  8
SOLDERMASK_PADS_TOP
100
AcDbPolyline
 90
        4
 70
         1
 10
56401.455
 20
9050.0
 10
56401.455
 20
10050.0
 10
57401.455
 20
10050.0
 10
57401.455
 20
9050.0
  0
LWPOLYLINE
  5
3B1
100
AcDbEntity
  8
SOLDERMASK_PADS_TOP
100
AcDbPolyline
 90
        4
 70
         1
 10
56401.455
 20
7650.0
 10
56401.455
 20
8650.0
 10
57401.455
 20
8650.0
 10
57401.455
 20
7650.0
  0
LWPOLYLINE
  5
3B2
100
AcDbEntity
  8
SOLDERMASK_PADS_TOP
100
AcDbPolyline
 90
        4
 70
         1
 10
56401.455
 20
6250.0
 10
56401.455
 20
7250.0
 10
57401.455
 20
7250.0
 10
57401.455
 20
6250.0
  0
LWPOLYLINE
  5
3B3
100
AcDbEntity
  8
SOLDERMASK_PADS_TOP
100
AcDbPolyline
 90
        4
 70
         1
 10
57801.455
 20
13950.0
 10
57801.455
 20
14950.0
 10
58801.455
 20
14950.0
 10
58801.455
 20
13950.0
  0
LWPOLYLINE
  5
3B4
100
AcDbEntity
  8
SOLDERMASK_PADS_TOP
100
AcDbPolyline
 90
        4
 70
         1
 10
57801.455
 20
12550.0
 10
57801.455
 20
13550.0
 10
58801.455
 20
13550.0
 10
58801.455
 20
12550.0
  0
LWPOLYLINE
  5
3B5
100
AcDbEntity
  8
SOLDERMASK_PADS_TOP
100
AcDbPolyline
 90
        4
 70
         1
 10
57801.455
 20
11150.0
 10
57801.455
 20
12150.0
 10
58801.455
 20
12150.0
 10
58801.455
 20
11150.0
  0
LWPOLYLINE
  5
3B6
100
AcDbEntity
  8
SOLDERMASK_PADS_TOP
100
AcDbPolyline
 90
        4
 70
         1
 10
57801.455
 20
9050.0
 10
57801.455
 20
10050.0
 10
58801.455
 20
10050.0
 10
58801.455
 20
9050.0
  0
LWPOLYLINE
  5
3B7
100
AcDbEntity
  8
SOLDERMASK_PADS_TOP
100
AcDbPolyline
 90
        4
 70
         1
 10
57801.455
 20
7650.0
 10
57801.455
 20
8650.0
 10
58801.455
 20
8650.0
 10
58801.455
 20
7650.0
  0
LWPOLYLINE
  5
3B8
100
AcDbEntity
  8
SOLDERMASK_PADS_TOP
100
AcDbPolyline
 90
        4
 70
         1
 10
57801.455
 20
6250.0
 10
57801.455
 20
7250.0
 10
58801.455
 20
7250.0
 10
58801.455
 20
6250.0
  0
LWPOLYLINE
  5
3B9
100
AcDbEntity
  8
SOLDERMASK_PADS_TOP
100
AcDbPolyline
 90
        4
 70
         1
 10
59201.455
 20
13950.0
 10
59201.455
 20
14950.0
 10
60201.455
 20
14950.0
 10
60201.455
 20
13950.0
  0
LWPOLYLINE
  5
3BA
100
AcDbEntity
  8
SOLDERMASK_PADS_TOP
100
AcDbPolyline
 90
        4
 70
         1
 10
59201.455
 20
12550.0
 10
59201.455
 20
13550.0
 10
60201.455
 20
13550.0
 10
60201.455
 20
12550.0
  0
LWPOLYLINE
  5
3BB
100
AcDbEntity
  8
SOLDERMASK_PADS_TOP
100
AcDbPolyline
 90
        4
 70
         1
 10
59201.455
 20
11150.0
 10
59201.455
 20
12150.0
 10
60201.455
 20
12150.0
 10
60201.455
 20
11150.0
  0
LWPOLYLINE
  5
3BC
100
AcDbEntity
  8
SOLDERMASK_PADS_TOP
100
AcDbPolyline
 90
        4
 70
         1
 10
59201.455
 20
9050.0
 10
59201.455
 20
10050.0
 10
60201.455
 20
10050.0
 10
60201.455
 20
9050.0
  0
LWPOLYLINE
  5
3BD
100
AcDbEntity
  8
SOLDERMASK_PADS_TOP
100
AcDbPolyline
 90
        4
 70
         1
 10
59201.455
 20
7650.0
 10
59201.455
 20
8650.0
 10
60201.455
 20
8650.0
 10
60201.455
 20
7650.0
  0
LWPOLYLINE
  5
3BE
100
AcDbEntity
  8
SOLDERMASK_PADS_TOP
100
AcDbPolyline
 90
        4
 70
         1
 10
59201.455
 20
6250.0
 10
59201.455
 20
7250.0
 10
60201.455
 20
7250.0
 10
60201.455
 20
6250.0
  0
LWPOLYLINE
  5
3BF
100
AcDbEntity
  8
SOLDERMASK_PADS_TOP
100
AcDbPolyline
 90
        4
 70
         1
 10
60551.455
 20
4200.0
 10
60551.455
 20
4950.0
 10
60951.455
 20
4950.0
 10
60951.455
 20
4200.0
  0
LWPOLYLINE
  5
3C0
100
AcDbEntity
  8
SOLDERMASK_PADS_TOP
100
AcDbPolyline
 90
        4
 70
         1
 10
59851.455
 20
4200.0
 10
59851.455
 20
4950.0
 10
60251.455
 20
4950.0
 10
60251.455
 20
4200.0
  0
LWPOLYLINE
  5
3C1
100
AcDbEntity
  8
SOLDERMASK_PADS_TOP
100
AcDbPolyline
 90
        4
 70
         1
 10
58451.455
 20
4200.0
 10
58451.455
 20
4950.0
 10
58851.455
 20
4950.0
 10
58851.455
 20
4200.0
  0
LWPOLYLINE
  5
3C2
100
AcDbEntity
  8
SOLDERMASK_PADS_TOP
100
AcDbPolyline
 90
        4
 70
         1
 10
57051.455
 20
4200.0
 10
57051.455
 20
4950.0
 10
57451.455
 20
4950.0
 10
57451.455
 20
4200.0
  0
LWPOLYLINE
  5
3C3
100
AcDbEntity
  8
SOLDERMASK_PADS_TOP
100
AcDbPolyline
 90
        4
 70
         1
 10
54251.455
 20
4200.0
 10
54251.455
 20
4950.0
 10
54651.455
 20
4950.0
 10
54651.455
 20
4200.0
  0
LWPOLYLINE
  5
3C4
100
AcDbEntity
  8
SOLDERMASK_PADS_TOP
100
AcDbPolyline
 90
        4
 70
         1
 10
53551.455
 20
4200.0
 10
53551.455
 20
4950.0
 10
53951.455
 20
4950.0
 10
53951.455
 20
4200.0
  0
LWPOLYLINE
  5
3C5
100
AcDbEntity
  8
SOLDERMASK_PADS_TOP
100
AcDbPolyline
 90
        4
 70
         1
 10
49501.455
 20
4200.0
 10
49501.455
 20
4950.0
 10
50251.455
 20
4950.0
 10
50251.455
 20
4200.0
  0
LWPOLYLINE
  5
3C6
100
AcDbEntity
  8
SOLDERMASK_PADS_TOP
100
AcDbPolyline
 90
        4
 70
         1
 10
49501.455
 20
5500.0
 10
49501.455
 20
5900.0
 10
50251.455
 20
5900.0
 10
50251.455
 20
5500.0
  0
LWPOLYLINE
  5
3C7
100
AcDbEntity
  8
SOLDERMASK_PADS_TOP
100
AcDbPolyline
 90
        4
 70
         1
 10
49501.455
 20
7600.0
 10
49501.455
 20
8000.0
 10
50251.455
 20
8000.0
 10
50251.455
 20
7600.0
  0
LWPOLYLINE
  5
3C8
100
AcDbEntity
  8
SOLDERMASK_PADS_TOP
100
AcDbPolyline
 90
        4
 70
         1
 10
49501.455
 20
8300.0
 10
49501.455
 20
8700.0
 10
50251.455
 20
8700.0
 10
50251.455
 20
8300.0
  0
LWPOLYLINE
  5
3C9
100
AcDbEntity
  8
SOLDERMASK_PADS_TOP
100
AcDbPolyline
 90
        4
 70
         1
 10
49501.455
 20
11800.0
 10
49501.455
 20
12200.0
 10
50251.455
 20
12200.0
 10
50251.455
 20
11800.0
  0
LWPOLYLINE
  5
3CA
100
AcDbEntity
  8
SOLDERMASK_PADS_TOP
100
AcDbPolyline
 90
        4
 70
         1
 10
49501.455
 20
13200.0
 10
49501.455
 20
13600.0
 10
50251.455
 20
13600.0
 10
50251.455
 20
13200.0
  0
LWPOLYLINE
  5
3CB
100
AcDbEntity
  8
SOLDERMASK_PADS_TOP
100
AcDbPolyline
 90
        4
 70
         1
 10
49501.455
 20
14600.0
 10
49501.455
 20
15000.0
 10
50251.455
 20
15000.0
 10
50251.455
 20
14600.0
  0
LWPOLYLINE
  5
3CC
100
AcDbEntity
  8
SOLDERMASK_PADS_TOP
100
AcDbPolyline
 90
        4
 70
         1
 10
49501.455
 20
15300.0
 10
49501.455
 20
15700.0
 10
50251.455
 20
15700.0
 10
50251.455
 20
15300.0
  0
LWPOLYLINE
  5
3CD
100
AcDbEntity
  8
SOLDERMASK_PADS_TOP
100
AcDbPolyline
 90
        4
 70
         1
 10
49501.455
 20
16250.0
 10
49501.455
 20
17000.0
 10
50251.455
 20
17000.0
 10
50251.455
 20
16250.0
  0
LWPOLYLINE
  5
3CE
100
AcDbEntity
  8
SOLDERMASK_PADS_TOP
100
AcDbPolyline
 90
        4
 70
         1
 10
51451.455
 20
16250.0
 10
51451.455
 20
17000.0
 10
51851.455
 20
17000.0
 10
51851.455
 20
16250.0
  0
LWPOLYLINE
  5
3CF
100
AcDbEntity
  8
SOLDERMASK_PADS_TOP
100
AcDbPolyline
 90
        4
 70
         1
 10
52151.455
 20
16250.0
 10
52151.455
 20
17000.0
 10
52551.455
 20
17000.0
 10
52551.455
 20
16250.0
  0
LWPOLYLINE
  5
3D0
100
AcDbEntity
  8
SOLDERMASK_PADS_TOP
100
AcDbPolyline
 90
        4
 70
         1
 10
52851.455
 20
16250.0
 10
52851.455
 20
17000.0
 10
53251.455
 20
17000.0
 10
53251.455
 20
16250.0
  0
LWPOLYLINE
  5
3D1
100
AcDbEntity
  8
SOLDERMASK_PADS_TOP
100
AcDbPolyline
 90
        4
 70
         1
 10
53551.455
 20
16250.0
 10
53551.455
 20
17000.0
 10
53951.455
 20
17000.0
 10
53951.455
 20
16250.0
  0
LWPOLYLINE
  5
3D2
100
AcDbEntity
  8
SOLDERMASK_PADS_TOP
100
AcDbPolyline
 90
        4
 70
         1
 10
56351.455
 20
16250.0
 10
56351.455
 20
17000.0
 10
56751.455
 20
17000.0
 10
56751.455
 20
16250.0
  0
LWPOLYLINE
  5
3D3
100
AcDbEntity
  8
SOLDERMASK_PADS_TOP
100
AcDbPolyline
 90
        4
 70
         1
 10
57051.455
 20
16250.0
 10
57051.455
 20
17000.0
 10
57451.455
 20
17000.0
 10
57451.455
 20
16250.0
  0
LWPOLYLINE
  5
3D4
100
AcDbEntity
  8
SOLDERMASK_PADS_TOP
100
AcDbPolyline
 90
        4
 70
         1
 10
59151.455
 20
16250.0
 10
59151.455
 20
17000.0
 10
59551.455
 20
17000.0
 10
59551.455
 20
16250.0
  0
LWPOLYLINE
  5
3D5
100
AcDbEntity
  8
SOLDERMASK_PADS_TOP
100
AcDbPolyline
 90
        4
 70
         1
 10
59851.455
 20
16250.0
 10
59851.455
 20
17000.0
 10
60251.455
 20
17000.0
 10
60251.455
 20
16250.0
  0
LWPOLYLINE
  5
3D6
100
AcDbEntity
  8
SOLDERMASK_PADS_TOP
100
AcDbPolyline
 90
        4
 70
         1
 10
61451.455
 20
16250.0
 10
61451.455
 20
17000.0
 10
62201.455
 20
17000.0
 10
62201.455
 20
16250.0
  0
LWPOLYLINE
  5
3D7
100
AcDbEntity
  8
SOLDERMASK_PADS_TOP
100
AcDbPolyline
 90
        4
 70
         1
 10
61451.455
 20
15300.0
 10
61451.455
 20
15700.0
 10
62201.455
 20
15700.0
 10
62201.455
 20
15300.0
  0
LWPOLYLINE
  5
3D8
100
AcDbEntity
  8
SOLDERMASK_PADS_TOP
100
AcDbPolyline
 90
        4
 70
         1
 10
61451.455
 20
14600.0
 10
61451.455
 20
15000.0
 10
62201.455
 20
15000.0
 10
62201.455
 20
14600.0
  0
LWPOLYLINE
  5
3D9
100
AcDbEntity
  8
SOLDERMASK_PADS_TOP
100
AcDbPolyline
 90
        4
 70
         1
 10
61451.455
 20
10400.0
 10
61451.455
 20
10800.0
 10
62201.455
 20
10800.0
 10
62201.455
 20
10400.0
  0
LWPOLYLINE
  5
3DA
100
AcDbEntity
  8
SOLDERMASK_PADS_TOP
100
AcDbPolyline
 90
        4
 70
         1
 10
61451.455
 20
9000.0
 10
61451.455
 20
9400.0
 10
62201.455
 20
9400.0
 10
62201.455
 20
9000.0
  0
LWPOLYLINE
  5
3DB
100
AcDbEntity
  8
SOLDERMASK_PADS_TOP
100
AcDbPolyline
 90
        4
 70
         1
 10
61451.455
 20
4200.0
 10
61451.455
 20
4950.0
 10
62201.455
 20
4950.0
 10
62201.455
 20
4200.0
  0
LWPOLYLINE
  5
3DC
100
AcDbEntity
  8
SOLDERMASK_PADS_TOP
100
AcDbPolyline
 90
        4
 70
         1
 10
48001.455
 20
12500.0
 10
48001.455
 20
12900.0
 10
48501.455
 20
12900.0
 10
48501.455
 20
12500.0
  0
LWPOLYLINE
  5
3DD
100
AcDbEntity
  8
SOLDERMASK_PADS_TOP
100
AcDbPolyline
 90
        4
 70
         1
 10
48001.455
 20
11700.0
 10
48001.455
 20
12100.0
 10
48501.455
 20
12100.0
 10
48501.455
 20
11700.0
  0
LWPOLYLINE
  5
3DE
100
AcDbEntity
  8
SOLDERMASK_PADS_TOP
100
AcDbPolyline
 90
        4
 70
         1
 10
47101.455
 20
12500.0
 10
47101.455
 20
12900.0
 10
47601.455
 20
12900.0
 10
47601.455
 20
12500.0
  0
LWPOLYLINE
  5
3DF
100
AcDbEntity
  8
SOLDERMASK_PADS_TOP
100
AcDbPolyline
 90
        4
 70
         1
 10
47101.455
 20
11700.0
 10
47101.455
 20
12100.0
 10
47601.455
 20
12100.0
 10
47601.455
 20
11700.0
  0
LWPOLYLINE
  5
3E0
100
AcDbEntity
  8
SOLDERMASK_PADS_TOP
100
AcDbPolyline
 90
        4
 70
         1
 10
47951.455
 20
6240.0
 10
47951.455
 20
6640.0
 10
48451.455
 20
6640.0
 10
48451.455
 20
6240.0
  0
LWPOLYLINE
  5
3E1
100
AcDbEntity
  8
SOLDERMASK_PADS_TOP
100
AcDbPolyline
 90
        4
 70
         1
 10
47951.455
 20
5440.0
 10
47951.455
 20
5840.0
 10
48451.455
 20
5840.0
 10
48451.455
 20
5440.0
  0
LWPOLYLINE
  5
3E2
100
AcDbEntity
  8
SOLDERMASK_PADS_TOP
100
AcDbPolyline
 90
        4
 70
         1
 10
47146.455
 20
7050.0
 10
47146.455
 20
7900.0
 10
48396.455
 20
7900.0
 10
48396.455
 20
7050.0
  0
LWPOLYLINE
  5
3E3
100
AcDbEntity
  8
SOLDERMASK_PADS_TOP
100
AcDbPolyline
 90
        4
 70
         1
 10
47146.455
 20
8600.0
 10
47146.455
 20
9450.0
 10
48396.455
 20
9450.0
 10
48396.455
 20
8600.0
  0
LWPOLYLINE
  5
3E4
100
AcDbEntity
  8
SOLDERMASK_PADS_TOP
100
AcDbPolyline
 90
        4
 70
         1
 10
45411.455
 20
16495.0
 10
45411.455
 20
16765.0
 10
46211.455
 20
16765.0
 10
46211.455
 20
16495.0
  0
LWPOLYLINE
  5
3E5
100
AcDbEntity
  8
SOLDERMASK_PADS_TOP
100
AcDbPolyline
 90
        4
 70
         1
 10
45411.455
 20
15995.0
 10
45411.455
 20
16265.0
 10
46211.455
 20
16265.0
 10
46211.455
 20
15995.0
  0
LWPOLYLINE
  5
3E6
100
AcDbEntity
  8
SOLDERMASK_PADS_TOP
100
AcDbPolyline
 90
        4
 70
         1
 10
45411.455
 20
15495.0
 10
45411.455
 20
15765.0
 10
46211.455
 20
15765.0
 10
46211.455
 20
15495.0
  0
LWPOLYLINE
  5
3E7
100
AcDbEntity
  8
SOLDERMASK_PADS_TOP
100
AcDbPolyline
 90
        4
 70
         1
 10
45411.455
 20
14995.0
 10
45411.455
 20
15265.0
 10
46211.455
 20
15265.0
 10
46211.455
 20
14995.0
  0
LWPOLYLINE
  5
3E8
100
AcDbEntity
  8
SOLDERMASK_PADS_TOP
100
AcDbPolyline
 90
        4
 70
         1
 10
45411.455
 20
14495.0
 10
45411.455
 20
14765.0
 10
46211.455
 20
14765.0
 10
46211.455
 20
14495.0
  0
LWPOLYLINE
  5
3E9
100
AcDbEntity
  8
SOLDERMASK_PADS_TOP
100
AcDbPolyline
 90
        4
 70
         1
 10
47811.455
 20
13995.0
 10
47811.455
 20
14265.0
 10
48611.455
 20
14265.0
 10
48611.455
 20
13995.0
  0
LWPOLYLINE
  5
3EA
100
AcDbEntity
  8
SOLDERMASK_PADS_TOP
100
AcDbPolyline
 90
        4
 70
         1
 10
47811.455
 20
14495.0
 10
47811.455
 20
14765.0
 10
48611.455
 20
14765.0
 10
48611.455
 20
14495.0
  0
LWPOLYLINE
  5
3EB
100
AcDbEntity
  8
SOLDERMASK_PADS_TOP
100
AcDbPolyline
 90
        4
 70
         1
 10
47811.455
 20
14995.0
 10
47811.455
 20
15265.0
 10
48611.455
 20
15265.0
 10
48611.455
 20
14995.0
  0
LWPOLYLINE
  5
3EC
100
AcDbEntity
  8
SOLDERMASK_PADS_TOP
100
AcDbPolyline
 90
        4
 70
         1
 10
47811.455
 20
15495.0
 10
47811.455
 20
15765.0
 10
48611.455
 20
15765.0
 10
48611.455
 20
15495.0
  0
LWPOLYLINE
  5
3ED
100
AcDbEntity
  8
SOLDERMASK_PADS_TOP
100
AcDbPolyline
 90
        4
 70
         1
 10
47811.455
 20
15995.0
 10
47811.455
 20
16265.0
 10
48611.455
 20
16265.0
 10
48611.455
 20
15995.0
  0
LWPOLYLINE
  5
3EE
100
AcDbEntity
  8
SOLDERMASK_PADS_TOP
100
AcDbPolyline
 90
        4
 70
         1
 10
47811.455
 20
16495.0
 10
47811.455
 20
16765.0
 10
48611.455
 20
16765.0
 10
48611.455
 20
16495.0
  0
LWPOLYLINE
  5
3EF
100
AcDbEntity
  8
SOLDERMASK_PADS_TOP
100
AcDbPolyline
 90
        4
 70
         1
 10
45411.455
 20
13995.0
 10
45411.455
 20
14265.0
 10
46211.455
 20
14265.0
 10
46211.455
 20
13995.0
  0
LWPOLYLINE
  5
3F0
100
AcDbEntity
  8
SOLDERMASK_PADS_TOP
100
AcDbPolyline
 90
        4
 70
         1
 10
44421.455
 20
15610.0
 10
44421.455
 20
16010.0
 10
44921.455
 20
16010.0
 10
44921.455
 20
15610.0
  0
LWPOLYLINE
  5
3F1
100
AcDbEntity
  8
SOLDERMASK_PADS_TOP
100
AcDbPolyline
 90
        4
 70
         1
 10
44421.455
 20
14810.0
 10
44421.455
 20
15210.0
 10
44921.455
 20
15210.0
 10
44921.455
 20
14810.0
  0
LWPOLYLINE
  5
3F2
100
AcDbEntity
  8
SOLDERMASK_PADS_TOP
100
AcDbPolyline
 90
        4
 70
         1
 10
21550.0
 20
16570.0
 10
21550.0
 20
17070.0
 10
21950.0
 20
17070.0
 10
21950.0
 20
16570.0
  0
LWPOLYLINE
  5
3F3
100
AcDbEntity
  8
SOLDERMASK_PADS_TOP
100
AcDbPolyline
 90
        4
 70
         1
 10
20750.0
 20
16570.0
 10
20750.0
 20
17070.0
 10
21150.0
 20
17070.0
 10
21150.0
 20
16570.0
  0
LWPOLYLINE
  5
3F4
100
AcDbEntity
  8
SOLDERMASK_PADS_TOP
100
AcDbPolyline
 90
        4
 70
         1
 10
39860.0
 20
9980.0
 10
39860.0
 20
10480.0
 10
40260.0
 20
10480.0
 10
40260.0
 20
9980.0
  0
LWPOLYLINE
  5
3F5
100
AcDbEntity
  8
SOLDERMASK_PADS_TOP
100
AcDbPolyline
 90
        4
 70
         1
 10
39060.0
 20
9980.0
 10
39060.0
 20
10480.0
 10
39460.0
 20
10480.0
 10
39460.0
 20
9980.0
  0
LWPOLYLINE
  5
3F6
100
AcDbEntity
  8
SOLDERMASK_PADS_TOP
100
AcDbPolyline
 90
        4
 70
         1
 10
21810.0
 20
15170.0
 10
21810.0
 20
16020.0
 10
22110.0
 20
16020.0
 10
22110.0
 20
15170.0
 42
-1.0
  0
LWPOLYLINE
  5
3F7
100
AcDbEntity
  8
SOLDERMASK_PADS_TOP
100
AcDbPolyline
 90
        4
 70
         1
 10
21260.0
 20
14820.0
 10
20410.0
 20
14820.0
 10
20410.0
 20
15120.0
 10
21260.0
 20
15120.0
 42
-1.0
  0
LWPOLYLINE
  5
3F8
100
AcDbEntity
  8
SOLDERMASK_PADS_TOP
100
AcDbPolyline
 90
        4
 70
         1
 10
21260.0
 20
14320.0
 10
20410.0
 20
14320.0
 10
20410.0
 20
14620.0
 10
21260.0
 20
14620.0
 42
-1.0
  0
LWPOLYLINE
  5
3F9
100
AcDbEntity
  8
SOLDERMASK_PADS_TOP
100
AcDbPolyline
 90
        4
 70
         1
 10
21260.0
 20
13820.0
 10
20410.0
 20
13820.0
 10
20410.0
 20
14120.0
 10
21260.0
 20
14120.0
 42
-1.0
  0
LWPOLYLINE
  5
3FA
100
AcDbEntity
  8
SOLDERMASK_PADS_TOP
100
AcDbPolyline
 90
        4
 70
         1
 10
21260.0
 20
13320.0
 10
20410.0
 20
13320.0
 10
20410.0
 20
13620.0
 10
21260.0
 20
13620.0
 42
-1.0
  0
LWPOLYLINE
  5
3FB
100
AcDbEntity
  8
SOLDERMASK_PADS_TOP
100
AcDbPolyline
 90
        4
 70
         1
 10
21260.0
 20
12820.0
 10
20410.0
 20
12820.0
 10
20410.0
 20
13120.0
 10
21260.0
 20
13120.0
 42
-1.0
  0
LWPOLYLINE
  5
3FC
100
AcDbEntity
  8
SOLDERMASK_PADS_TOP
100
AcDbPolyline
 90
        4
 70
         1
 10
21260.0
 20
12320.0
 10
20410.0
 20
12320.0
 10
20410.0
 20
12620.0
 10
21260.0
 20
12620.0
 42
-1.0
  0
LWPOLYLINE
  5
3FD
100
AcDbEntity
  8
SOLDERMASK_PADS_TOP
100
AcDbPolyline
 90
        4
 70
         1
 10
21260.0
 20
11820.0
 10
20410.0
 20
11820.0
 10
20410.0
 20
12120.0
 10
21260.0
 20
12120.0
 42
-1.0
  0
LWPOLYLINE
  5
3FE
100
AcDbEntity
  8
SOLDERMASK_PADS_TOP
100
AcDbPolyline
 90
        4
 70
         1
 10
21260.0
 20
11320.0
 10
20410.0
 20
11320.0
 10
20410.0
 20
11620.0
 10
21260.0
 20
11620.0
 42
-1.0
  0
LWPOLYLINE
  5
3FF
100
AcDbEntity
  8
SOLDERMASK_PADS_TOP
100
AcDbPolyline
 90
        4
 70
         1
 10
21260.0
 20
10820.0
 10
20410.0
 20
10820.0
 10
20410.0
 20
11120.0
 10
21260.0
 20
11120.0
 42
-1.0
  0
LWPOLYLINE
  5
400
100
AcDbEntity
  8
SOLDERMASK_PADS_TOP
100
AcDbPolyline
 90
        4
 70
         1
 10
21260.0
 20
10320.0
 10
20410.0
 20
10320.0
 10
20410.0
 20
10620.0
 10
21260.0
 20
10620.0
 42
-1.0
  0
LWPOLYLINE
  5
401
100
AcDbEntity
  8
SOLDERMASK_PADS_TOP
100
AcDbPolyline
 90
        4
 70
         1
 10
22110.0
 20
10270.0
 10
22110.0
 20
9420.0
 10
21810.0
 20
9420.0
 10
21810.0
 20
10270.0
 42
-1.0
  0
LWPOLYLINE
  5
402
100
AcDbEntity
  8
SOLDERMASK_PADS_TOP
100
AcDbPolyline
 90
        4
 70
         1
 10
23610.0
 20
10270.0
 10
23610.0
 20
9420.0
 10
23310.0
 20
9420.0
 10
23310.0
 20
10270.0
 42
-1.0
  0
LWPOLYLINE
  5
403
100
AcDbEntity
  8
SOLDERMASK_PADS_TOP
100
AcDbPolyline
 90
        4
 70
         1
 10
24160.0
 20
10620.0
 10
25010.0
 20
10620.0
 10
25010.0
 20
10320.0
 10
24160.0
 20
10320.0
 42
-1.0
  0
LWPOLYLINE
  5
404
100
AcDbEntity
  8
SOLDERMASK_PADS_TOP
100
AcDbPolyline
 90
        4
 70
         1
 10
24160.0
 20
11120.0
 10
25010.0
 20
11120.0
 10
25010.0
 20
10820.0
 10
24160.0
 20
10820.0
 42
-1.0
  0
LWPOLYLINE
  5
405
100
AcDbEntity
  8
SOLDERMASK_PADS_TOP
100
AcDbPolyline
 90
        4
 70
         1
 10
24160.0
 20
11620.0
 10
25010.0
 20
11620.0
 10
25010.0
 20
11320.0
 10
24160.0
 20
11320.0
 42
-1.0
  0
LWPOLYLINE
  5
406
100
AcDbEntity
  8
SOLDERMASK_PADS_TOP
100
AcDbPolyline
 90
        4
 70
         1
 10
24160.0
 20
12120.0
 10
25010.0
 20
12120.0
 10
25010.0
 20
11820.0
 10
24160.0
 20
11820.0
 42
-1.0
  0
LWPOLYLINE
  5
407
100
AcDbEntity
  8
SOLDERMASK_PADS_TOP
100
AcDbPolyline
 90
        4
 70
         1
 10
24160.0
 20
12620.0
 10
25010.0
 20
12620.0
 10
25010.0
 20
12320.0
 10
24160.0
 20
12320.0
 42
-1.0
  0
LWPOLYLINE
  5
408
100
AcDbEntity
  8
SOLDERMASK_PADS_TOP
100
AcDbPolyline
 90
        4
 70
         1
 10
24160.0
 20
13120.0
 10
25010.0
 20
13120.0
 10
25010.0
 20
12820.0
 10
24160.0
 20
12820.0
 42
-1.0
  0
LWPOLYLINE
  5
409
100
AcDbEntity
  8
SOLDERMASK_PADS_TOP
100
AcDbPolyline
 90
        4
 70
         1
 10
24160.0
 20
13620.0
 10
25010.0
 20
13620.0
 10
25010.0
 20
13320.0
 10
24160.0
 20
13320.0
 42
-1.0
  0
LWPOLYLINE
  5
40A
100
AcDbEntity
  8
SOLDERMASK_PADS_TOP
100
AcDbPolyline
 90
        4
 70
         1
 10
24160.0
 20
14120.0
 10
25010.0
 20
14120.0
 10
25010.0
 20
13820.0
 10
24160.0
 20
13820.0
 42
-1.0
  0
LWPOLYLINE
  5
40B
100
AcDbEntity
  8
SOLDERMASK_PADS_TOP
100
AcDbPolyline
 90
        4
 70
         1
 10
24160.0
 20
14620.0
 10
25010.0
 20
14620.0
 10
25010.0
 20
14320.0
 10
24160.0
 20
14320.0
 42
-1.0
  0
LWPOLYLINE
  5
40C
100
AcDbEntity
  8
SOLDERMASK_PADS_TOP
100
AcDbPolyline
 90
        4
 70
         1
 10
24160.0
 20
15120.0
 10
25010.0
 20
15120.0
 10
25010.0
 20
14820.0
 10
24160.0
 20
14820.0
 42
-1.0
  0
LWPOLYLINE
  5
40D
100
AcDbEntity
  8
SOLDERMASK_PADS_TOP
100
AcDbPolyline
 90
        4
 70
         1
 10
23310.0
 20
15170.0
 10
23310.0
 20
16020.0
 10
23610.0
 20
16020.0
 10
23610.0
 20
15170.0
 42
-1.0
  0
LWPOLYLINE
  5
40E
100
AcDbEntity
  8
SOLDERMASK_PADS_TOP
100
AcDbPolyline
 90
        4
 70
         1
 10
21685.0
 20
10695.0
 10
21685.0
 20
14745.0
 10
23735.0
 20
14745.0
 10
23735.0
 20
10695.0
  0
LWPOLYLINE
  5
40F
100
AcDbEntity
  8
SOLDERMASK_PADS_TOP
100
AcDbPolyline
 90
        4
 70
         1
 10
24260.0
 20
16570.0
 10
24260.0
 20
17070.0
 10
24660.0
 20
17070.0
 10
24660.0
 20
16570.0
  0
LWPOLYLINE
  5
410
100
AcDbEntity
  8
SOLDERMASK_PADS_TOP
100
AcDbPolyline
 90
        4
 70
         1
 10
23460.0
 20
16570.0
 10
23460.0
 20
17070.0
 10
23860.0
 20
17070.0
 10
23860.0
 20
16570.0
  0
LWPOLYLINE
  5
411
100
AcDbEntity
  8
SOLDERMASK_PADS_TOP
100
AcDbPolyline
 90
        4
 70
         1
 10
32660.0
 20
14700.0
 10
32660.0
 20
15100.0
 10
33260.0
 20
15100.0
 10
33260.0
 20
14700.0
  0
LWPOLYLINE
  5
412
100
AcDbEntity
  8
SOLDERMASK_PADS_TOP
100
AcDbPolyline
 90
        4
 70
         1
 10
32660.0
 20
15500.0
 10
32660.0
 20
15900.0
 10
33260.0
 20
15900.0
 10
33260.0
 20
15500.0
  0
LWPOLYLINE
  5
413
100
AcDbEntity
  8
SOLDERMASK_PADS_TOP
100
AcDbPolyline
 90
        4
 70
         1
 10
31060.0
 20
15500.0
 10
31060.0
 20
15900.0
 10
31660.0
 20
15900.0
 10
31660.0
 20
15500.0
  0
LWPOLYLINE
  5
414
100
AcDbEntity
  8
SOLDERMASK_PADS_TOP
100
AcDbPolyline
 90
        4
 70
         1
 10
31060.0
 20
14700.0
 10
31060.0
 20
15100.0
 10
31660.0
 20
15100.0
 10
31660.0
 20
14700.0
  0
LWPOLYLINE
  5
415
100
AcDbEntity
  8
SOLDERMASK_PADS_TOP
100
AcDbPolyline
 90
        4
 70
         1
 10
32660.0
 20
13750.0
 10
32660.0
 20
14350.0
 10
33260.0
 20
14350.0
 10
33260.0
 20
13750.0
  0
LWPOLYLINE
  5
416
100
AcDbEntity
  8
SOLDERMASK_PADS_TOP
100
AcDbPolyline
 90
        4
 70
         1
 10
32660.0
 20
16250.0
 10
32660.0
 20
16850.0
 10
33260.0
 20
16850.0
 10
33260.0
 20
16250.0
  0
LWPOLYLINE
  5
417
100
AcDbEntity
  8
SOLDERMASK_PADS_TOP
100
AcDbPolyline
 90
        4
 70
         1
 10
31060.0
 20
16250.0
 10
31060.0
 20
16850.0
 10
31660.0
 20
16850.0
 10
31660.0
 20
16250.0
  0
LWPOLYLINE
  5
418
100
AcDbEntity
  8
SOLDERMASK_PADS_TOP
100
AcDbPolyline
 90
        4
 70
         1
 10
31060.0
 20
13750.0
 10
31060.0
 20
14350.0
 10
31660.0
 20
14350.0
 10
31660.0
 20
13750.0
  0
LWPOLYLINE
  5
419
100
AcDbEntity
  8
SOLDERMASK_PADS_TOP
100
AcDbPolyline
 90
        4
 70
         1
 10
31650.0
 20
12680.0
 10
31650.0
 20
13180.0
 10
32050.0
 20
13180.0
 10
32050.0
 20
12680.0
  0
LWPOLYLINE
  5
41A
100
AcDbEntity
  8
SOLDERMASK_PADS_TOP
100
AcDbPolyline
 90
        4
 70
         1
 10
32450.0
 20
12680.0
 10
32450.0
 20
13180.0
 10
32850.0
 20
13180.0
 10
32850.0
 20
12680.0
  0
LWPOLYLINE
  5
41B
100
AcDbEntity
  8
SOLDERMASK_PADS_TOP
100
AcDbPolyline
 90
        4
 70
         1
 10
33080.0
 20
11150.0
 10
33080.0
 20
11550.0
 10
33580.0
 20
11550.0
 10
33580.0
 20
11150.0
  0
LWPOLYLINE
  5
41C
100
AcDbEntity
  8
SOLDERMASK_PADS_TOP
100
AcDbPolyline
 90
        4
 70
         1
 10
33080.0
 20
11950.0
 10
33080.0
 20
12350.0
 10
33580.0
 20
12350.0
 10
33580.0
 20
11950.0
  0
LWPOLYLINE
  5
41D
100
AcDbEntity
  8
SOLDERMASK_PADS_TOP
100
AcDbPolyline
 90
        4
 70
         1
 10
40329.19
 20
11435.64
 10
40329.19
 20
11735.64
 10
41529.19
 20
11735.64
 10
41529.19
 20
11435.64
  0
LWPOLYLINE
  5
41E
100
AcDbEntity
  8
SOLDERMASK_PADS_TOP
100
AcDbPolyline
 90
        4
 70
         1
 10
40329.19
 20
12085.64
 10
40329.19
 20
12385.64
 10
41529.19
 20
12385.64
 10
41529.19
 20
12085.64
  0
LWPOLYLINE
  5
41F
100
AcDbEntity
  8
SOLDERMASK_PADS_TOP
100
AcDbPolyline
 90
        4
 70
         1
 10
40329.19
 20
12735.64
 10
40329.19
 20
13035.64
 10
41529.19
 20
13035.64
 10
41529.19
 20
12735.64
  0
LWPOLYLINE
  5
420
100
AcDbEntity
  8
SOLDERMASK_PADS_TOP
100
AcDbPolyline
 90
        4
 70
         1
 10
40329.19
 20
13385.64
 10
40329.19
 20
13685.64
 10
41529.19
 20
13685.64
 10
41529.19
 20
13385.64
  0
LWPOLYLINE
  5
421
100
AcDbEntity
  8
SOLDERMASK_PADS_TOP
100
AcDbPolyline
 90
        4
 70
         1
 10
40329.19
 20
14035.64
 10
40329.19
 20
14335.64
 10
41529.19
 20
14335.64
 10
41529.19
 20
14035.64
  0
LWPOLYLINE
  5
422
100
AcDbEntity
  8
SOLDERMASK_PADS_TOP
100
AcDbPolyline
 90
        4
 70
         1
 10
40329.19
 20
14685.64
 10
40329.19
 20
14985.64
 10
41529.19
 20
14985.64
 10
41529.19
 20
14685.64
  0
LWPOLYLINE
  5
423
100
AcDbEntity
  8
SOLDERMASK_PADS_TOP
100
AcDbPolyline
 90
        4
 70
         1
 10
40329.19
 20
15335.64
 10
40329.19
 20
15635.64
 10
41529.19
 20
15635.64
 10
41529.19
 20
15335.64
  0
LWPOLYLINE
  5
424
100
AcDbEntity
  8
SOLDERMASK_PADS_TOP
100
AcDbPolyline
 90
        4
 70
         1
 10
40329.19
 20
15985.64
 10
40329.19
 20
16285.64
 10
41529.19
 20
16285.64
 10
41529.19
 20
15985.64
  0
LWPOLYLINE
  5
425
100
AcDbEntity
  8
SOLDERMASK_PADS_TOP
100
AcDbPolyline
 90
        4
 70
         1
 10
40329.19
 20
16635.64
 10
40329.19
 20
16935.64
 10
41529.19
 20
16935.64
 10
41529.19
 20
16635.64
  0
LWPOLYLINE
  5
426
100
AcDbEntity
  8
SOLDERMASK_PADS_TOP
100
AcDbPolyline
 90
        4
 70
         1
 10
40329.19
 20
17285.64
 10
40329.19
 20
17585.64
 10
41529.19
 20
17585.64
 10
41529.19
 20
17285.64
  0
LWPOLYLINE
  5
427
100
AcDbEntity
  8
SOLDERMASK_PADS_TOP
100
AcDbPolyline
 90
        4
 70
         1
 10
34429.19
 20
17285.64
 10
34429.19
 20
17585.64
 10
35629.19
 20
17585.64
 10
35629.19
 20
17285.64
  0
LWPOLYLINE
  5
428
100
AcDbEntity
  8
SOLDERMASK_PADS_TOP
100
AcDbPolyline
 90
        4
 70
         1
 10
34429.19
 20
16635.64
 10
34429.19
 20
16935.64
 10
35629.19
 20
16935.64
 10
35629.19
 20
16635.64
  0
LWPOLYLINE
  5
429
100
AcDbEntity
  8
SOLDERMASK_PADS_TOP
100
AcDbPolyline
 90
        4
 70
         1
 10
34429.19
 20
15985.64
 10
34429.19
 20
16285.64
 10
35629.19
 20
16285.64
 10
35629.19
 20
15985.64
  0
LWPOLYLINE
  5
42A
100
AcDbEntity
  8
SOLDERMASK_PADS_TOP
100
AcDbPolyline
 90
        4
 70
         1
 10
34429.19
 20
15335.64
 10
34429.19
 20
15635.64
 10
35629.19
 20
15635.64
 10
35629.19
 20
15335.64
  0
LWPOLYLINE
  5
42B
100
AcDbEntity
  8
SOLDERMASK_PADS_TOP
100
AcDbPolyline
 90
        4
 70
         1
 10
34429.19
 20
14685.64
 10
34429.19
 20
14985.64
 10
35629.19
 20
14985.64
 10
35629.19
 20
14685.64
  0
LWPOLYLINE
  5
42C
100
AcDbEntity
  8
SOLDERMASK_PADS_TOP
100
AcDbPolyline
 90
        4
 70
         1
 10
34429.19
 20
14035.64
 10
34429.19
 20
14335.64
 10
35629.19
 20
14335.64
 10
35629.19
 20
14035.64
  0
LWPOLYLINE
  5
42D
100
AcDbEntity
  8
SOLDERMASK_PADS_TOP
100
AcDbPolyline
 90
        4
 70
         1
 10
34429.19
 20
13385.64
 10
34429.19
 20
13685.64
 10
35629.19
 20
13685.64
 10
35629.19
 20
13385.64
  0
LWPOLYLINE
  5
42E
100
AcDbEntity
  8
SOLDERMASK_PADS_TOP
100
AcDbPolyline
 90
        4
 70
         1
 10
34429.19
 20
12735.64
 10
34429.19
 20
13035.64
 10
35629.19
 20
13035.64
 10
35629.19
 20
12735.64
  0
LWPOLYLINE
  5
42F
100
AcDbEntity
  8
SOLDERMASK_PADS_TOP
100
AcDbPolyline
 90
        4
 70
         1
 10
34429.19
 20
12085.64
 10
34429.19
 20
12385.64
 10
35629.19
 20
12385.64
 10
35629.19
 20
12085.64
  0
LWPOLYLINE
  5
430
100
AcDbEntity
  8
SOLDERMASK_PADS_TOP
100
AcDbPolyline
 90
        4
 70
         1
 10
34429.19
 20
11435.64
 10
34429.19
 20
11735.64
 10
35629.19
 20
11735.64
 10
35629.19
 20
11435.64
  0
LWPOLYLINE
  5
431
100
AcDbEntity
  8
SOLDERMASK_PADS_TOP
100
AcDbPolyline
 90
        4
 70
         1
 10
38180.0
 20
8210.0
 10
38180.0
 20
8710.0
 10
38580.0
 20
8710.0
 10
38580.0
 20
8210.0
  0
LWPOLYLINE
  5
432
100
AcDbEntity
  8
SOLDERMASK_PADS_TOP
100
AcDbPolyline
 90
        4
 70
         1
 10
37380.0
 20
8210.0
 10
37380.0
 20
8710.0
 10
37780.0
 20
8710.0
 10
37780.0
 20
8210.0
  0
LWPOLYLINE
  5
433
100
AcDbEntity
  8
SOLDERMASK_PADS_TOP
100
AcDbPolyline
 90
        4
 70
         1
 10
30290.0
 20
8210.0
 10
30290.0
 20
8710.0
 10
30690.0
 20
8710.0
 10
30690.0
 20
8210.0
  0
LWPOLYLINE
  5
434
100
AcDbEntity
  8
SOLDERMASK_PADS_TOP
100
AcDbPolyline
 90
        4
 70
         1
 10
29490.0
 20
8210.0
 10
29490.0
 20
8710.0
 10
29890.0
 20
8710.0
 10
29890.0
 20
8210.0
  0
LWPOLYLINE
  5
435
100
AcDbEntity
  8
SOLDERMASK_PADS_TOP
100
AcDbPolyline
 90
        4
 70
         1
 10
25050.0
 20
8210.0
 10
25050.0
 20
8710.0
 10
25450.0
 20
8710.0
 10
25450.0
 20
8210.0
  0
LWPOLYLINE
  5
436
100
AcDbEntity
  8
SOLDERMASK_PADS_TOP
100
AcDbPolyline
 90
        4
 70
         1
 10
24250.0
 20
8210.0
 10
24250.0
 20
8710.0
 10
24650.0
 20
8710.0
 10
24650.0
 20
8210.0
  0
LWPOLYLINE
  5
437
100
AcDbEntity
  8
SOLDERMASK_PADS_TOP
100
AcDbPolyline
 90
        4
 70
         1
 10
6790.0
 20
10240.0
 10
6790.0
 20
9390.0
 10
6490.0
 20
9390.0
 10
6490.0
 20
10240.0
 42
-1.0
  0
LWPOLYLINE
  5
438
100
AcDbEntity
  8
SOLDERMASK_PADS_TOP
100
AcDbPolyline
 90
        4
 70
         1
 10
7340.0
 20
10590.0
 10
8190.0
 20
10590.0
 10
8190.0
 20
10290.0
 10
7340.0
 20
10290.0
 42
-1.0
  0
LWPOLYLINE
  5
439
100
AcDbEntity
  8
SOLDERMASK_PADS_TOP
100
AcDbPolyline
 90
        4
 70
         1
 10
7340.0
 20
11090.0
 10
8190.0
 20
11090.0
 10
8190.0
 20
10790.0
 10
7340.0
 20
10790.0
 42
-1.0
  0
LWPOLYLINE
  5
43A
100
AcDbEntity
  8
SOLDERMASK_PADS_TOP
100
AcDbPolyline
 90
        4
 70
         1
 10
7340.0
 20
11590.0
 10
8190.0
 20
11590.0
 10
8190.0
 20
11290.0
 10
7340.0
 20
11290.0
 42
-1.0
  0
LWPOLYLINE
  5
43B
100
AcDbEntity
  8
SOLDERMASK_PADS_TOP
100
AcDbPolyline
 90
        4
 70
         1
 10
7340.0
 20
12090.0
 10
8190.0
 20
12090.0
 10
8190.0
 20
11790.0
 10
7340.0
 20
11790.0
 42
-1.0
  0
LWPOLYLINE
  5
43C
100
AcDbEntity
  8
SOLDERMASK_PADS_TOP
100
AcDbPolyline
 90
        4
 70
         1
 10
7340.0
 20
12590.0
 10
8190.0
 20
12590.0
 10
8190.0
 20
12290.0
 10
7340.0
 20
12290.0
 42
-1.0
  0
LWPOLYLINE
  5
43D
100
AcDbEntity
  8
SOLDERMASK_PADS_TOP
100
AcDbPolyline
 90
        4
 70
         1
 10
7340.0
 20
13090.0
 10
8190.0
 20
13090.0
 10
8190.0
 20
12790.0
 10
7340.0
 20
12790.0
 42
-1.0
  0
LWPOLYLINE
  5
43E
100
AcDbEntity
  8
SOLDERMASK_PADS_TOP
100
AcDbPolyline
 90
        4
 70
         1
 10
7340.0
 20
13590.0
 10
8190.0
 20
13590.0
 10
8190.0
 20
13290.0
 10
7340.0
 20
13290.0
 42
-1.0
  0
LWPOLYLINE
  5
43F
100
AcDbEntity
  8
SOLDERMASK_PADS_TOP
100
AcDbPolyline
 90
        4
 70
         1
 10
7340.0
 20
14090.0
 10
8190.0
 20
14090.0
 10
8190.0
 20
13790.0
 10
7340.0
 20
13790.0
 42
-1.0
  0
LWPOLYLINE
  5
440
100
AcDbEntity
  8
SOLDERMASK_PADS_TOP
100
AcDbPolyline
 90
        4
 70
         1
 10
7340.0
 20
14590.0
 10
8190.0
 20
14590.0
 10
8190.0
 20
14290.0
 10
7340.0
 20
14290.0
 42
-1.0
  0
LWPOLYLINE
  5
441
100
AcDbEntity
  8
SOLDERMASK_PADS_TOP
100
AcDbPolyline
 90
        4
 70
         1
 10
7340.0
 20
15090.0
 10
8190.0
 20
15090.0
 10
8190.0
 20
14790.0
 10
7340.0
 20
14790.0
 42
-1.0
  0
LWPOLYLINE
  5
442
100
AcDbEntity
  8
SOLDERMASK_PADS_TOP
100
AcDbPolyline
 90
        4
 70
         1
 10
6490.0
 20
15140.0
 10
6490.0
 20
15990.0
 10
6790.0
 20
15990.0
 10
6790.0
 20
15140.0
 42
-1.0
  0
LWPOLYLINE
  5
443
100
AcDbEntity
  8
SOLDERMASK_PADS_TOP
100
AcDbPolyline
 90
        4
 70
         1
 10
4990.0
 20
15140.0
 10
4990.0
 20
15990.0
 10
5290.0
 20
15990.0
 10
5290.0
 20
15140.0
 42
-1.0
  0
LWPOLYLINE
  5
444
100
AcDbEntity
  8
SOLDERMASK_PADS_TOP
100
AcDbPolyline
 90
        4
 70
         1
 10
4440.0
 20
14790.0
 10
3590.0
 20
14790.0
 10
3590.0
 20
15090.0
 10
4440.0
 20
15090.0
 42
-1.0
  0
LWPOLYLINE
  5
445
100
AcDbEntity
  8
SOLDERMASK_PADS_TOP
100
AcDbPolyline
 90
        4
 70
         1
 10
4440.0
 20
14290.0
 10
3590.0
 20
14290.0
 10
3590.0
 20
14590.0
 10
4440.0
 20
14590.0
 42
-1.0
  0
LWPOLYLINE
  5
446
100
AcDbEntity
  8
SOLDERMASK_PADS_TOP
100
AcDbPolyline
 90
        4
 70
         1
 10
4440.0
 20
13790.0
 10
3590.0
 20
13790.0
 10
3590.0
 20
14090.0
 10
4440.0
 20
14090.0
 42
-1.0
  0
LWPOLYLINE
  5
447
100
AcDbEntity
  8
SOLDERMASK_PADS_TOP
100
AcDbPolyline
 90
        4
 70
         1
 10
4440.0
 20
13290.0
 10
3590.0
 20
13290.0
 10
3590.0
 20
13590.0
 10
4440.0
 20
13590.0
 42
-1.0
  0
LWPOLYLINE
  5
448
100
AcDbEntity
  8
SOLDERMASK_PADS_TOP
100
AcDbPolyline
 90
        4
 70
         1
 10
4440.0
 20
12790.0
 10
3590.0
 20
12790.0
 10
3590.0
 20
13090.0
 10
4440.0
 20
13090.0
 42
-1.0
  0
LWPOLYLINE
  5
449
100
AcDbEntity
  8
SOLDERMASK_PADS_TOP
100
AcDbPolyline
 90
        4
 70
         1
 10
4440.0
 20
12290.0
 10
3590.0
 20
12290.0
 10
3590.0
 20
12590.0
 10
4440.0
 20
12590.0
 42
-1.0
  0
LWPOLYLINE
  5
44A
100
AcDbEntity
  8
SOLDERMASK_PADS_TOP
100
AcDbPolyline
 90
        4
 70
         1
 10
4440.0
 20
11790.0
 10
3590.0
 20
11790.0
 10
3590.0
 20
12090.0
 10
4440.0
 20
12090.0
 42
-1.0
  0
LWPOLYLINE
  5
44B
100
AcDbEntity
  8
SOLDERMASK_PADS_TOP
100
AcDbPolyline
 90
        4
 70
         1
 10
4440.0
 20
11290.0
 10
3590.0
 20
11290.0
 10
3590.0
 20
11590.0
 10
4440.0
 20
11590.0
 42
-1.0
  0
LWPOLYLINE
  5
44C
100
AcDbEntity
  8
SOLDERMASK_PADS_TOP
100
AcDbPolyline
 90
        4
 70
         1
 10
4440.0
 20
10790.0
 10
3590.0
 20
10790.0
 10
3590.0
 20
11090.0
 10
4440.0
 20
11090.0
 42
-1.0
  0
LWPOLYLINE
  5
44D
100
AcDbEntity
  8
SOLDERMASK_PADS_TOP
100
AcDbPolyline
 90
        4
 70
         1
 10
4440.0
 20
10290.0
 10
3590.0
 20
10290.0
 10
3590.0
 20
10590.0
 10
4440.0
 20
10590.0
 42
-1.0
  0
LWPOLYLINE
  5
44E
100
AcDbEntity
  8
SOLDERMASK_PADS_TOP
100
AcDbPolyline
 90
        4
 70
         1
 10
5290.0
 20
10240.0
 10
5290.0
 20
9390.0
 10
4990.0
 20
9390.0
 10
4990.0
 20
10240.0
 42
-1.0
  0
LWPOLYLINE
  5
44F
100
AcDbEntity
  8
SOLDERMASK_PADS_TOP
100
AcDbPolyline
 90
        4
 70
         1
 10
4865.0
 20
10665.0
 10
4865.0
 20
14715.0
 10
6915.0
 20
14715.0
 10
6915.0
 20
10665.0
  0
LWPOLYLINE
  5
450
100
AcDbEntity
  8
SOLDERMASK_PADS_TOP
100
AcDbPolyline
 90
        4
 70
         1
 10
9840.0
 20
11350.0
 10
9840.0
 20
11750.0
 10
10440.0
 20
11750.0
 10
10440.0
 20
11350.0
  0
LWPOLYLINE
  5
451
100
AcDbEntity
  8
SOLDERMASK_PADS_TOP
100
AcDbPolyline
 90
        4
 70
         1
 10
9840.0
 20
10550.0
 10
9840.0
 20
10950.0
 10
10440.0
 20
10950.0
 10
10440.0
 20
10550.0
  0
LWPOLYLINE
  5
452
100
AcDbEntity
  8
SOLDERMASK_PADS_TOP
100
AcDbPolyline
 90
        4
 70
         1
 10
11440.0
 20
10550.0
 10
11440.0
 20
10950.0
 10
12040.0
 20
10950.0
 10
12040.0
 20
10550.0
  0
LWPOLYLINE
  5
453
100
AcDbEntity
  8
SOLDERMASK_PADS_TOP
100
AcDbPolyline
 90
        4
 70
         1
 10
11440.0
 20
11350.0
 10
11440.0
 20
11750.0
 10
12040.0
 20
11750.0
 10
12040.0
 20
11350.0
  0
LWPOLYLINE
  5
454
100
AcDbEntity
  8
SOLDERMASK_PADS_TOP
100
AcDbPolyline
 90
        4
 70
         1
 10
9840.0
 20
12100.0
 10
9840.0
 20
12700.0
 10
10440.0
 20
12700.0
 10
10440.0
 20
12100.0
  0
LWPOLYLINE
  5
455
100
AcDbEntity
  8
SOLDERMASK_PADS_TOP
100
AcDbPolyline
 90
        4
 70
         1
 10
9840.0
 20
9600.0
 10
9840.0
 20
10200.0
 10
10440.0
 20
10200.0
 10
10440.0
 20
9600.0
  0
LWPOLYLINE
  5
456
100
AcDbEntity
  8
SOLDERMASK_PADS_TOP
100
AcDbPolyline
 90
        4
 70
         1
 10
11440.0
 20
9600.0
 10
11440.0
 20
10200.0
 10
12040.0
 20
10200.0
 10
12040.0
 20
9600.0
  0
LWPOLYLINE
  5
457
100
AcDbEntity
  8
SOLDERMASK_PADS_TOP
100
AcDbPolyline
 90
        4
 70
         1
 10
11440.0
 20
12100.0
 10
11440.0
 20
12700.0
 10
12040.0
 20
12700.0
 10
12040.0
 20
12100.0
  0
LWPOLYLINE
  5
458
100
AcDbEntity
  8
SOLDERMASK_PADS_TOP
100
AcDbPolyline
 90
        4
 70
         1
 10
11080.0
 20
13210.0
 10
11080.0
 20
13710.0
 10
11480.0
 20
13710.0
 10
11480.0
 20
13210.0
  0
LWPOLYLINE
  5
459
100
AcDbEntity
  8
SOLDERMASK_PADS_TOP
100
AcDbPolyline
 90
        4
 70
         1
 10
10280.0
 20
13210.0
 10
10280.0
 20
13710.0
 10
10680.0
 20
13710.0
 10
10680.0
 20
13210.0
  0
LWPOLYLINE
  5
45A
100
AcDbEntity
  8
SOLDERMASK_PADS_TOP
100
AcDbPolyline
 90
        4
 70
         1
 10
11090.0
 20
14010.0
 10
11090.0
 20
14510.0
 10
11490.0
 20
14510.0
 10
11490.0
 20
14010.0
  0
LWPOLYLINE
  5
45B
100
AcDbEntity
  8
SOLDERMASK_PADS_TOP
100
AcDbPolyline
 90
        4
 70
         1
 10
10290.0
 20
14010.0
 10
10290.0
 20
14510.0
 10
10690.0
 20
14510.0
 10
10690.0
 20
14010.0
  0
LWPOLYLINE
  5
45C
100
AcDbEntity
  8
SOLDERMASK_PADS_TOP
100
AcDbPolyline
 90
        4
 70
         1
 10
7580.0
 20
8370.0
 10
7580.0
 20
8870.0
 10
7980.0
 20
8870.0
 10
7980.0
 20
8370.0
  0
LWPOLYLINE
  5
45D
100
AcDbEntity
  8
SOLDERMASK_PADS_TOP
100
AcDbPolyline
 90
        4
 70
         1
 10
6780.0
 20
8370.0
 10
6780.0
 20
8870.0
 10
7180.0
 20
8870.0
 10
7180.0
 20
8370.0
  0
LWPOLYLINE
  5
45E
100
AcDbEntity
  8
SOLDERMASK_PADS_TOP
100
AcDbPolyline
 90
        4
 70
         1
 10
3930.0
 20
8430.0
 10
3930.0
 20
8930.0
 10
4330.0
 20
8930.0
 10
4330.0
 20
8430.0
  0
LWPOLYLINE
  5
45F
100
AcDbEntity
  8
SOLDERMASK_PADS_TOP
100
AcDbPolyline
 90
        4
 70
         1
 10
4730.0
 20
8430.0
 10
4730.0
 20
8930.0
 10
5130.0
 20
8930.0
 10
5130.0
 20
8430.0
  0
LWPOLYLINE
  5
460
100
AcDbEntity
  8
SOLDERMASK_PADS_TOP
100
AcDbPolyline
 90
        4
 70
         1
 10
74200.0
 20
23200.0
 10
74200.0
 20
23600.0
 10
74700.0
 20
23600.0
 10
74700.0
 20
23200.0
  0
LWPOLYLINE
  5
461
100
AcDbEntity
  8
SOLDERMASK_PADS_TOP
100
AcDbPolyline
 90
        4
 70
         1
 10
74200.0
 20
22400.0
 10
74200.0
 20
22800.0
 10
74700.0
 20
22800.0
 10
74700.0
 20
22400.0
  0
LWPOLYLINE
  5
462
100
AcDbEntity
  8
SOLDERMASK_PADS_TOP
100
AcDbPolyline
 90
        4
 70
         1
 10
74200.0
 20
14670.0
 10
74200.0
 20
15070.0
 10
74700.0
 20
15070.0
 10
74700.0
 20
14670.0
  0
LWPOLYLINE
  5
463
100
AcDbEntity
  8
SOLDERMASK_PADS_TOP
100
AcDbPolyline
 90
        4
 70
         1
 10
74200.0
 20
13870.0
 10
74200.0
 20
14270.0
 10
74700.0
 20
14270.0
 10
74700.0
 20
13870.0
  0
LWPOLYLINE
  5
464
100
AcDbEntity
  8
SOLDERMASK_PADS_TOP
100
AcDbPolyline
 90
        4
 70
         1
 10
74424.0
 20
15970.0
 10
74424.0
 20
16570.0
 10
74714.0
 20
16570.0
 10
74714.0
 20
15970.0
  0
LWPOLYLINE
  5
465
100
AcDbEntity
  8
SOLDERMASK_PADS_TOP
100
AcDbPolyline
 90
        4
 70
         1
 10
73924.0
 20
15970.0
 10
73924.0
 20
16570.0
 10
74214.0
 20
16570.0
 10
74214.0
 20
15970.0
  0
LWPOLYLINE
  5
466
100
AcDbEntity
  8
SOLDERMASK_PADS_TOP
100
AcDbPolyline
 90
        4
 70
         1
 10
73986.0
 20
15370.0
 10
73986.0
 20
15820.0
 10
74750.0
 20
15820.0
 10
74750.0
 20
15370.0
  0
LWPOLYLINE
  5
467
100
AcDbEntity
  8
SOLDERMASK_PADS_TOP
100
AcDbPolyline
 90
        4
 70
         1
 10
73986.0
 20
16720.0
 10
73986.0
 20
17170.0
 10
74750.0
 20
17170.0
 10
74750.0
 20
16720.0
  0
LWPOLYLINE
  5
468
100
AcDbEntity
  8
SOLDERMASK_PADS_TOP
100
AcDbPolyline
 90
        4
 70
         1
 10
11965.0
 20
25160.0
 10
11965.0
 20
25660.0
 10
12365.0
 20
25660.0
 10
12365.0
 20
25160.0
  0
LWPOLYLINE
  5
469
100
AcDbEntity
  8
SOLDERMASK_PADS_TOP
100
AcDbPolyline
 90
        4
 70
         1
 10
12765.0
 20
25160.0
 10
12765.0
 20
25660.0
 10
13165.0
 20
25660.0
 10
13165.0
 20
25160.0
  0
LWPOLYLINE
  5
46A
100
AcDbEntity
  8
SOLDERMASK_PADS_TOP
100
AcDbPolyline
 90
        4
 70
         1
 10
3435.0
 20
25160.0
 10
3435.0
 20
25660.0
 10
3835.0
 20
25660.0
 10
3835.0
 20
25160.0
  0
LWPOLYLINE
  5
46B
100
AcDbEntity
  8
SOLDERMASK_PADS_TOP
100
AcDbPolyline
 90
        4
 70
         1
 10
4235.0
 20
25160.0
 10
4235.0
 20
25660.0
 10
4635.0
 20
25660.0
 10
4635.0
 20
25160.0
  0
CIRCLE
  5
46C
100
AcDbEntity
  8
SOLDERMASK_PADS_TOP
100
AcDbCircle
 10
41320.0
 20
3350.0
 30
0.0
 40
725.0
  0
CIRCLE
  5
46D
100
AcDbEntity
  8
SOLDERMASK_PADS_TOP
100
AcDbCircle
 10
41320.0
 20
5890.0
 30
0.0
 40
725.0
  0
CIRCLE
  5
46E
100
AcDbEntity
  8
SOLDERMASK_PADS_TOP
100
AcDbCircle
 10
38780.0
 20
3350.0
 30
0.0
 40
725.0
  0
CIRCLE
  5
46F
100
AcDbEntity
  8
SOLDERMASK_PADS_TOP
100
AcDbCircle
 10
38780.0
 20
5890.0
 30
0.0
 40
725.0
  0
CIRCLE
  5
470
100
AcDbEntity
  8
SOLDERMASK_PADS_TOP
100
AcDbCircle
 10
36240.0
 20
3350.0
 30
0.0
 40
725.0
  0
CIRCLE
  5
471
100
AcDbEntity
  8
SOLDERMASK_PADS_TOP
100
AcDbCircle
 10
36240.0
 20
5890.0
 30
0.0
 40
725.0
  0
CIRCLE
  5
472
100
AcDbEntity
  8
SOLDERMASK_PADS_TOP
100
AcDbCircle
 10
33700.0
 20
3350.0
 30
0.0
 40
725.0
  0
CIRCLE
  5
473
100
AcDbEntity
  8
SOLDERMASK_PADS_TOP
100
AcDbCircle
 10
33700.0
 20
5890.0
 30
0.0
 40
725.0
  0
CIRCLE
  5
474
100
AcDbEntity
  8
SOLDERMASK_PADS_TOP
100
AcDbCircle
 10
31160.0
 20
5890.0
 30
0.0
 40
725.0
  0
CIRCLE
  5
475
100
AcDbEntity
  8
SOLDERMASK_PADS_TOP
100
AcDbCircle
 10
31160.0
 20
3350.0
 30
0.0
 40
725.0
  0
CIRCLE
  5
476
100
AcDbEntity
  8
SOLDERMASK_PADS_TOP
100
AcDbCircle
 10
28620.0
 20
5890.0
 30
0.0
 40
725.0
  0
CIRCLE
  5
477
100
AcDbEntity
  8
SOLDERMASK_PADS_TOP
100
AcDbCircle
 10
28620.0
 20
3350.0
 30
0.0
 40
725.0
  0
CIRCLE
  5
478
100
AcDbEntity
  8
SOLDERMASK_PADS_TOP
100
AcDbCircle
 10
26080.0
 20
5890.0
 30
0.0
 40
725.0
  0
CIRCLE
  5
479
100
AcDbEntity
  8
SOLDERMASK_PADS_TOP
100
AcDbCircle
 10
26080.0
 20
3350.0
 30
0.0
 40
725.0
  0
CIRCLE
  5
47A
100
AcDbEntity
  8
SOLDERMASK_PADS_TOP
100
AcDbCircle
 10
23540.0
 20
5890.0
 30
0.0
 40
725.0
  0
CIRCLE
  5
47B
100
AcDbEntity
  8
SOLDERMASK_PADS_TOP
100
AcDbCircle
 10
23540.0
 20
3350.0
 30
0.0
 40
725.0
  0
CIRCLE
  5
47C
100
AcDbEntity
  8
SOLDERMASK_PADS_TOP
100
AcDbCircle
 10
21000.0
 20
5890.0
 30
0.0
 40
725.0
  0
CIRCLE
  5
47D
100
AcDbEntity
  8
SOLDERMASK_PADS_TOP
100
AcDbCircle
 10
21000.0
 20
3350.0
 30
0.0
 40
725.0
  0
CIRCLE
  5
47E
100
AcDbEntity
  8
SOLDERMASK_PADS_TOP
100
AcDbCircle
 10
18460.0
 20
5890.0
 30
0.0
 40
725.0
  0
CIRCLE
  5
47F
100
AcDbEntity
  8
SOLDERMASK_PADS_TOP
100
AcDbCircle
 10
18460.0
 20
3350.0
 30
0.0
 40
725.0
  0
CIRCLE
  5
480
100
AcDbEntity
  8
SOLDERMASK_PADS_TOP
100
AcDbCircle
 10
15920.0
 20
5890.0
 30
0.0
 40
725.0
  0
CIRCLE
  5
481
100
AcDbEntity
  8
SOLDERMASK_PADS_TOP
100
AcDbCircle
 10
15920.0
 20
3350.0
 30
0.0
 40
725.0
  0
CIRCLE
  5
482
100
AcDbEntity
  8
SOLDERMASK_PADS_TOP
100
AcDbCircle
 10
13380.0
 20
5890.0
 30
0.0
 40
725.0
  0
CIRCLE
  5
483
100
AcDbEntity
  8
SOLDERMASK_PADS_TOP
100
AcDbCircle
 10
13380.0
 20
3350.0
 30
0.0
 40
725.0
  0
CIRCLE
  5
484
100
AcDbEntity
  8
SOLDERMASK_PADS_TOP
100
AcDbCircle
 10
10840.0
 20
5890.0
 30
0.0
 40
725.0
  0
CIRCLE
  5
485
100
AcDbEntity
  8
SOLDERMASK_PADS_TOP
100
AcDbCircle
 10
10840.0
 20
3350.0
 30
0.0
 40
725.0
  0
CIRCLE
  5
486
100
AcDbEntity
  8
SOLDERMASK_PADS_TOP
100
AcDbCircle
 10
8300.0
 20
5890.0
 30
0.0
 40
725.0
  0
CIRCLE
  5
487
100
AcDbEntity
  8
SOLDERMASK_PADS_TOP
100
AcDbCircle
 10
8300.0
 20
3350.0
 30
0.0
 40
725.0
  0
CIRCLE
  5
488
100
AcDbEntity
  8
SOLDERMASK_PADS_TOP
100
AcDbCircle
 10
5760.0
 20
5890.0
 30
0.0
 40
725.0
  0
CIRCLE
  5
489
100
AcDbEntity
  8
SOLDERMASK_PADS_TOP
100
AcDbCircle
 10
5760.0
 20
3350.0
 30
0.0
 40
725.0
  0
CIRCLE
  5
48A
100
AcDbEntity
  8
SOLDERMASK_PADS_TOP
100
AcDbCircle
 10
3220.0
 20
5890.0
 30
0.0
 40
725.0
  0
CIRCLE
  5
48B
100
AcDbEntity
  8
SOLDERMASK_PADS_TOP
100
AcDbCircle
 10
3220.0
 20
3350.0
 30
0.0
 40
725.0
  0
ENDSEC
  0
SECTION
  2
OBJECTS
  0
DICTIONARY
  5
19
100
AcDbDictionary
  3
ACAD_GROUP
350
1A
  3
ACAD_MLINESTYLE
350
1B
  0
DICTIONARY
  5
1A
102
{ACAD_REACTORS
330
19
102
}
100
AcDbDictionary
  0
DICTIONARY
  5
1B
102
{ACAD_REACTORS
330
19
102
}
100
AcDbDictionary
  3
STANDARD
350
1C
  0
MLINESTYLE
  5
1C
102
{ACAD_REACTORS
330
1B
102
}
100
AcDbMlineStyle
  2
STANDARD
 70
         0
  3

 62
         0
 51
90.0
 52
90.0
 71
         2
 49
0.5
 62
       256
  6
BYLAYER
 49
-0.5
 62
       256
  6
BYLAYER
  0
DICTIONARY
  5
22
102
{ACAD_REACTORS
330
19
102
}
100
AcDbDictionary
  0
ENDSEC
  0
EOF
