  0
SECTION
  2
HEADER
  9
$ACADVER
  1
AC1014
  9
$ACADMAINTVER
 70
         0
  9
$DWGCODEPAGE
  3
ANSI_1252
  9
$INSBASE
 10
0.0
 20
0.0
 30
0.0
  9
$EXTMIN
 10
0.0
 20
0.0
 30
0.0
  9
$EXTMAX
 10
20000.0
 20
40400.0
 30
0.0
  9
$LIMMIN
 10
0.0
 20
0.0
  9
$LIMMAX
 10
0.0
 20
0.0
  9
$ORTHOMODE
 70
         0
  9
$REGENMODE
 70
         1
  9
$FILLMODE
 70
         1
  9
$QTEXTMODE
 70
         0
  9
$MIRRTEXT
 70
         1
  9
$DRAGMODE
 70
         2
  9
$LTSCALE
 40
1.0
  9
$OSMODE
 70
         0
  9
$ATTMODE
 70
         1
  9
$TEXTSIZE
 40
0.2
  9
$TRACEWID
 40
0.05
  9
$TEXTSTYLE
  7
STANDARD
  9
$CLAYER
  8
0
  9
$CELTYPE
  6
CONTINUOUS
  9
$CECOLOR
 62
       256
  9
$CELTSCALE
 40
1.0
  9
$DELOBJ
 70
         1
  9
$DISPSILH
 70
         0
  9
$DIMSCALE
 40
1.0
  9
$DIMASZ
 40
0.18
  9
$DIMEXO
 40
0.0625
  9
$DIMDLI
 40
0.38
  9
$DIMRND
 40
0.0
  9
$DIMDLE
 40
0.0
  9
$DIMEXE
 40
0.18
  9
$DIMTP
 40
0.0
  9
$DIMTM
 40
0.0
  9
$DIMTXT
 40
0.18
  9
$DIMCEN
 40
0.09
  9
$DIMTSZ
 40
0.0
  9
$DIMTOL
 70
         0
  9
$DIMLIM
 70
         0
  9
$DIMTIH
 70
         1
  9
$DIMTOH
 70
         1
  9
$DIMSE1
 70
         0
  9
$DIMSE2
 70
         0
  9
$DIMTAD
 70
         0
  9
$DIMZIN
 70
         0
  9
$DIMBLK
  1

  9
$DIMASO
 70
         1
  9
$DIMSHO
 70
         1
  9
$DIMPOST
  1

  9
$DIMAPOST
  1

  9
$DIMALT
 70
         0
  9
$DIMALTD
 70
         2
  9
$DIMALTF
 40
25.4
  9
$DIMLFAC
 40
1.0
  9
$DIMTOFL
 70
         0
  9
$DIMTVP
 40
0.0
  9
$DIMTIX
 70
         0
  9
$DIMSOXD
 70
         0
  9
$DIMSAH
 70
         0
  9
$DIMBLK1
  1

  9
$DIMBLK2
  1

  9
$DIMSTYLE
  2
STANDARD
  9
$DIMCLRD
 70
         0
  9
$DIMCLRE
 70
         0
  9
$DIMCLRT
 70
         0
  9
$DIMTFAC
 40
1.0
  9
$DIMGAP
 40
0.09
  9
$DIMJUST
 70
         0
  9
$DIMSD1
 70
         0
  9
$DIMSD2
 70
         0
  9
$DIMTOLJ
 70
         1
  9
$DIMTZIN
 70
         0
  9
$DIMALTZ
 70
         0
  9
$DIMALTTZ
 70
         0
  9
$DIMFIT
 70
         3
  9
$DIMUPT
 70
         0
  9
$DIMUNIT
 70
         2
  9
$DIMDEC
 70
         4
  9
$DIMTDEC
 70
         4
  9
$DIMALTU
 70
         2
  9
$DIMALTTD
 70
         2
  9
$DIMTXSTY
  7
STANDARD
  9
$DIMAUNIT
 70
         0
  9
$LUNITS
 70
         2
  9
$LUPREC
 70
         4
  9
$SKETCHINC
 40
0.1
  9
$FILLETRAD
 40
0.0
  9
$AUNITS
 70
         0
  9
$AUPREC
 70
         0
  9
$MENU
  1
acad
  9
$ELEVATION
 40
0.0
  9
$PELEVATION
 40
0.0
  9
$THICKNESS
 40
0.0
  9
$LIMCHECK
 70
         0
  9
$BLIPMODE
 70
         1
  9
$CHAMFERA
 40
0.0
  9
$CHAMFERB
 40
0.0
  9
$CHAMFERC
 40
0.0
  9
$CHAMFERD
 40
0.0
  9
$SKPOLY
 70
         0
  9
$TDCREATE
 40
2458229.583240741
  9
$TDUPDATE
 40
0.000000000
  9
$TDINDWG
 40
0.0000000000
  9
$TDUSRTIMER
 40
0.0000000000
  9
$USRTIMER
 70
         1
  9
$ANGBASE
 50
0.0
  9
$ANGDIR
 70
         0
  9
$PDMODE
 70
         0
  9
$PDSIZE
 40
0.0
  9
$PLINEWID
 40
0.0
  9
$COORDS
 70
         0
  9
$SPLFRAME
 70
         0
  9
$SPLINETYPE
 70
         6
  9
$SPLINESEGS
 70
         8
  9
$ATTDIA
 70
         0
  9
$ATTREQ
 70
         1
  9
$HANDLING
 70
         1
  9
$HANDSEED
  5
19B
  9
$SURFTAB1
 70
         6
  9
$SURFTAB2
 70
         6
  9
$SURFTYPE
 70
         6
  9
$SURFU
 70
         6
  9
$SURFV
 70
         6
  9
$UCSNAME
  2

  9
$UCSORG
 10
0.0
 20
0.0
 30
0.0
  9
$UCSXDIR
 10
1.0
 20
0.0
 30
0.0
  9
$UCSYDIR
 10
0.0
 20
1.0
 30
0.0
  9
$PUCSNAME
  2

  9
$PUCSORG
 10
0.0
 20
0.0
 30
0.0
  9
$PUCSXDIR
 10
1.0
 20
0.0
 30
0.0
  9
$PUCSYDIR
 10
0.0
 20
1.0
 30
0.0
  9
$USERI1
 70
        -4
  9
$USERI2
 70
         0
  9
$USERI3
 70
         0
  9
$USERI4
 70
         0
  9
$USERI5
 70
         0
  9
$USERR1
 40
0.0
  9
$USERR2
 40
0.0
  9
$USERR3
 40
0.0
  9
$USERR4
 40
0.0
  9
$USERR5
 40
0.0
  9
$WORLDVIEW
 70
         1
  9
$SHADEDGE
 70
         3
  9
$SHADEDIF
 70
        70
  9
$TILEMODE
 70
         1
  9
$MAXACTVP
 70
        16
  9
$PINSBASE
 10
0.0
 20
0.0
 30
0.0
  9
$PLIMCHECK
 70
         0
  9
$PEXTMIN
 10
1.0000000000E+20
 20
1.0000000000E+20
 30
1.0000000000E+20
  9
$PEXTMAX
 10
-1.0000000000E+20
 20
-1.0000000000E+20
 30
-1.0000000000E+20
  9
$PLIMMIN
 10
0.0
 20
0.0
  9
$PLIMMAX
 10
12.0
 20
9.0
  9
$UNITMODE
 70
         0
  9
$VISRETAIN
 70
         0
  9
$PLINEGEN
 70
         1
  9
$PSLTSCALE
 70
         0
  9
$TREEDEPTH
 70
      3020
  9
$PICKSTYLE
 70
         1
  9
$CMLSTYLE
  2
STANDARD
  9
$CMLJUST
 70
         0
  9
$CMLSCALE
 40
1.0
  9
$PROXYGRAPHICS
 70
         0
  9
$MEASUREMENT
 70
         0
  0
ENDSEC
  0
SECTION
  2
CLASSES
  0
CLASS
  1
LWPOLYLINE
  2
AcDbPolyline
  3
"AutoCAD"
 90
        0
280
         0
281
         1
  0
CLASS
  1
IMAGE
  2
AcDbRasterImage
  3
ISM
 90
      127
280
         0
281
         1
  0
CLASS
  1
OLE2FRAME
  2
AcDbOle2Frame
  3
""
 90
        0
280
         0
281
         1
  0
CLASS
  1
HATCH
  2
AcDbHatch
  3
"ACAD_SEDONA"
 90
        0
280
         0
281
         1
  0
CLASS
  1
DICTIONARYVAR
  2
AcDbDictionaryVar
  3
"AutoCAD"
 90
        0
280
         0
281
         0
  0
CLASS
  1
RASTERVARIABLES
  2
AcDbRasterVariables
  3
ISM
 90
        0
280
         0
281
         0
  0
CLASS
  1
IMAGEDEF
  2
AcDbRasterImageDef
  3
ISM
 90
        0
280
         0
281
         0
  0
CLASS
  1
IMAGEDEF_REACTOR
  2
AcDbRasterImageDefReactor
  3
ISM
 90
        1
280
         0
281
         0
  0
CLASS
  1
IDBUFFER
  2
AcDbIdBuffer
  3
"Acad"
 90
        0
280
         0
281
         0
  0
CLASS
  1
SPATIAL_FILTER
  2
AcDbSpatialFilter
  3
"Acad"
 90
        0
280
         0
281
         0
  0
CLASS
  1
XRECORD
  2
AcDbXrecord
  3
"<Built In>"
 90
        0
280
         0
281
         0
  0
CLASS
  1
SORTENTSTABLE
  2
AcDbSortentsTable
  3
"AutoCAD"
 90
        0
280
         0
281
         0
  0
CLASS
  1
LAYER_INDEX
  2
AcDbLayerIndex
  3
"Acad"
 90
        0
280
         0
281
         0
  0
CLASS
  1
SPATIAL_INDEX
  2
AcDbSpatialIndex
  3
"Acad"
 90
        0
280
         0
281
         0
  0
CLASS
  1
OBJECT_PTR
  2
CAseDLPNTableRecord
  3
"ASE-LPNTableRecord"
 90
        1
280
         0
281
         0
  0
CLASS
  1
LAYOUT
  2
AcDbLayout
  3
"AutoCAD 2000"
 90
        0
280
         0
281
         0
  0
CLASS
  1
PLOTSETTINGS
  2
AcDbPlotSettings
  3
"AutoCAD 2000"
 90
        0
280
         0
281
         0
  0
CLASS
  1
ACDBDICTIONARYWDFLT
  2
AcDbDictionaryWithDefault
  3
"AutoCAD 2000"
 90
        0
280
         0
281
         0
  0
CLASS
  1
ACDBPLACEHOLDER
  2
AcDbPlaceHolder
  3
"AutoCAD 2000"
 90
        0
280
         0
281
         0
  0
CLASS
  1
VBA_PROJECT
  2
AcDbVbaProject
  3
"acadvba"
 90
        0
280
         0
281
         0
  0
CLASS
  1
WIPEOUT
  2
AcDbWipeout
  3
WipeOut|AutoCAD Express Tool|expresstools@autodesk.com
 90
      127
280
         0
281
         1
  0
CLASS
  1
WIPEOUTVARIABLES
  2
AcDbWipeoutVariables
  3
WipeOut|AutoCAD Express Tool|expresstools@autodesk.com
 90
        0
280
         0
281
         0
  0
CLASS
  1
RTEXT
  2
RText
  3
RText|AutoCAD Express Tool|expresstools@autodesk.com
 90
        0
280
         0
281
         1
  0
CLASS
  1
ARCALIGNEDTEXT
  2
AcDbArcAlignedText
  3
ATEXT|AutoCAD Express Tool|expresstools@autodesk.com
 90
        0
280
         0
281
         1
  0
ENDSEC
  0
SECTION
  2
TABLES
  0
TABLE
  2
VPORT
  5
7
100
AcDbSymbolTable
 70
         1
  0
VPORT
  5
15
100
AcDbSymbolTableRecord
100
AcDbViewportTableRecord
  2
*ACTIVE
 70
         0
 10
0.0
 20
0.0
 11
1.0
 21
1.0
 12
6.591288
 22
4.579184
 13
0.0
 23
0.0
 14
1.0
 24
1.0
 15
0.0
 25
0.0
 16
0.0
 26
0.0
 36
1.0
 17
0.0
 27
0.0
 37
0.0
 40
9.158369
 41
0.688564
 42
50.0
 43
0.0
 44
0.0
 50
0.0
 51
0.0
 71
         0
 72
       100
 73
         1
 74
         1
 75
         0
 76
         0
 77
         0
 78
         0
  0
ENDTAB
  0
TABLE
  2
LTYPE
  5
4
100
AcDbSymbolTable
 70
         3
  0
LTYPE
  5
11
100
AcDbSymbolTableRecord
100
AcDbLinetypeTableRecord
  2
BYBLOCK
 70
        64
  3

 72
        65
 73
         0
 40
0.0
  0
LTYPE
  5
12
100
AcDbSymbolTableRecord
100
AcDbLinetypeTableRecord
  2
BYLAYER
 70
        64
  3

 72
        65
 73
         0
 40
0.0
  0
LTYPE
  5
13
100
AcDbSymbolTableRecord
100
AcDbLinetypeTableRecord
  2
CONTINUOUS
 70
        64
  3
Solid line
 72
        65
 73
         0
 40
0.0
  0
ENDTAB
  0
TABLE
  2
LAYER
  5
2
100
AcDbSymbolTable
 70
         5
  0
LAYER
  5
14
100
AcDbSymbolTableRecord
100
AcDbLayerTableRecord
  2
0
 70
         0
 62
         7
  6
CONTINUOUS
  0
LAYER
  5
24
100
AcDbSymbolTableRecord
100
AcDbLayerTableRecord
  2
BOARD_OUTLINE
 70
         0
 62
        10
  6
CONTINUOUS
  0
LAYER
  5
25
100
AcDbSymbolTableRecord
100
AcDbLayerTableRecord
  2
PART_HOLES_LAYER_TOP
 70
         0
 62
       170
  6
CONTINUOUS
  0
LAYER
  5
26
100
AcDbSymbolTableRecord
100
AcDbLayerTableRecord
  2
SOLDERMASK_PADS_BTM
 70
         0
 62
       151
  6
CONTINUOUS
  0
LAYER
  5
27
100
AcDbSymbolTableRecord
100
AcDbLayerTableRecord
  2
SOLDERMASK_PADS_TOP
 70
         0
 62
        81
  6
CONTINUOUS
  0
ENDTAB
  0
TABLE
  2
STYLE
  5
3
100
AcDbSymbolTable
 70
         1
  0
STYLE
  5
17
100
AcDbSymbolTableRecord
100
AcDbTextStyleTableRecord
  2
STANDARD
 70
         0
 40
0.0
 41
1.0
 50
0.0
 71
         0
 42
0.0
  3
txt
  4

  0
ENDTAB
  0
TABLE
  2
VIEW
  5
5
100
AcDbSymbolTable
 70
         0
  0
ENDTAB
  0
TABLE
  2
UCS
  5
6
100
AcDbSymbolTable
 70
         0
  0
ENDTAB
  0
TABLE
  2
APPID
  5
8
100
AcDbSymbolTable
 70
         1
  0
APPID
  5
16
100
AcDbSymbolTableRecord
100
AcDbRegAppTableRecord
  2
ACAD
 70
         0
  0
ENDTAB
  0
TABLE
  2
DIMSTYLE
  5
9
100
AcDbSymbolTable
 70
         1
  0
DIMSTYLE
105
18
100
AcDbSymbolTableRecord
100
AcDbDimStyleTableRecord
  2
STANDARD
 70
         0
  3

  4

  5

  6

  7

 40
1.0
 41
0.18
 42
0.0625
 43
0.38
 44
0.18
 45
0.0
 46
0.0
 47
0.0
 48
0.0
 71
         0
 72
         0
 73
         1
 74
         1
 75
         0
 76
         0
 77
         0
 78
         0
140
0.18
141
0.09
142
0.0
143
25.4
144
1.0
145
0.0
146
1.0
147
0.09
170
         0
171
         2
172
         0
173
         0
174
         0
175
         0
176
         0
177
         0
178
         0
270
         2
271
         4
272
         4
273
         2
274
         2
275
         0
280
         0
281
         0
282
         0
283
         1
284
         0
285
         0
286
         0
287
         3
288
         0
340
17
  0
ENDTAB
  0
TABLE
  2
BLOCK_RECORD
  5
1
100
AcDbSymbolTable
 70
         0
  0
BLOCK_RECORD
  5
A
100
AcDbSymbolTableRecord
100
AcDbBlockTableRecord
  2
*MODEL_SPACE
  0
BLOCK_RECORD
  5
B
100
AcDbSymbolTableRecord
100
AcDbBlockTableRecord
  2
*PAPER_SPACE
  0
ENDTAB
  0
ENDSEC
  0
SECTION
  2
BLOCKS
  0
BLOCK
  5
D
100
AcDbEntity
  8
0
100
AcDbBlockBegin
  2
*MODEL_SPACE
 70
         0
 10
0.0
 20
0.0
 30
0.0
  3
*MODEL_SPACE
  1

  0
ENDBLK
  5
E
100
AcDbEntity
  8
0
100
AcDbBlockEnd
  0
BLOCK
  5
F
100
AcDbEntity
 67
         1
  8
0
100
AcDbBlockBegin
  2
*PAPER_SPACE
 70
         0
 10
0.0
 20
0.0
 30
0.0
  3
*PAPER_SPACE
  1

  0
ENDBLK
  5
10
100
AcDbEntity
 67
         1
  8
0
100
AcDbBlockEnd
  0
ENDSEC
  0
SECTION
  2
ENTITIES
  0
LWPOLYLINE
  5
28
100
AcDbEntity
  8
BOARD_OUTLINE
100
AcDbPolyline
 90
        4
 70
         1
 10
0.0
 20
0.0
 10
0.0
 20
40400.0
 10
20000.0
 20
40400.0
 10
20000.0
 20
0.0
  0
CIRCLE
  5
29
100
AcDbEntity
  8
PART_HOLES_LAYER_TOP
100
AcDbCircle
 10
4000.0
 20
3300.0
 30
0.0
 40
1100.0
  0
HATCH
  5
2A
100
AcDbEntity
  8
PART_HOLES_LAYER_TOP
100
AcDbHatch
 10
0.0
 20
0.0
 30
0.0
210
0.0
220
0.0
230
1.0
  2
SOLID
 70
         1
 71
         1
 91
        1
 92
        1
 93
        1
 72
         2
 10
4000.0
 20
3300.0
 40
1100.0
 50
0.0
 51
360.0
 73
         1
 97
        1
330
29
 75
         0
 76
         1
 98
        1
 10
0.0
 20
0.0
  0
CIRCLE
  5
2B
100
AcDbEntity
  8
PART_HOLES_LAYER_TOP
100
AcDbCircle
 10
17000.0
 20
37400.0
 30
0.0
 40
1600.0
  0
HATCH
  5
2C
100
AcDbEntity
  8
PART_HOLES_LAYER_TOP
100
AcDbHatch
 10
0.0
 20
0.0
 30
0.0
210
0.0
220
0.0
230
1.0
  2
SOLID
 70
         1
 71
         1
 91
        1
 92
        1
 93
        1
 72
         2
 10
17000.0
 20
37400.0
 40
1600.0
 50
0.0
 51
360.0
 73
         1
 97
        1
330
2B
 75
         0
 76
         1
 98
        1
 10
0.0
 20
0.0
  0
CIRCLE
  5
2D
100
AcDbEntity
  8
SOLDERMASK_PADS_BTM
100
AcDbCircle
 10
3360.0
 20
37280.0
 30
0.0
 40
500.0
  0
LWPOLYLINE
  5
2E
100
AcDbEntity
  8
SOLDERMASK_PADS_BTM
100
AcDbPolyline
 90
        4
 70
         1
 10
6510.0
 20
32460.0
 10
6510.0
 20
32860.0
 10
7110.0
 20
32860.0
 10
7110.0
 20
32460.0
  0
LWPOLYLINE
  5
2F
100
AcDbEntity
  8
SOLDERMASK_PADS_BTM
100
AcDbPolyline
 90
        4
 70
         1
 10
6510.0
 20
31660.0
 10
6510.0
 20
32060.0
 10
7110.0
 20
32060.0
 10
7110.0
 20
31660.0
  0
LWPOLYLINE
  5
30
100
AcDbEntity
  8
SOLDERMASK_PADS_BTM
100
AcDbPolyline
 90
        4
 70
         1
 10
15420.0
 20
32980.0
 10
15420.0
 20
34580.0
 10
17020.0
 20
34580.0
 10
17020.0
 20
32980.0
  0
CIRCLE
  5
31
100
AcDbEntity
  8
SOLDERMASK_PADS_BTM
100
AcDbCircle
 10
5070.0
 20
37280.0
 30
0.0
 40
500.0
  0
LWPOLYLINE
  5
32
100
AcDbEntity
  8
SOLDERMASK_PADS_BTM
100
AcDbPolyline
 90
        4
 70
         1
 10
13140.0
 20
38770.0
 10
13140.0
 20
39270.0
 10
13540.0
 20
39270.0
 10
13540.0
 20
38770.0
  0
LWPOLYLINE
  5
33
100
AcDbEntity
  8
SOLDERMASK_PADS_BTM
100
AcDbPolyline
 90
        4
 70
         1
 10
12340.0
 20
38770.0
 10
12340.0
 20
39270.0
 10
12740.0
 20
39270.0
 10
12740.0
 20
38770.0
  0
LWPOLYLINE
  5
34
100
AcDbEntity
  8
SOLDERMASK_PADS_BTM
100
AcDbPolyline
 90
        4
 70
         1
 10
11410.0
 20
38780.0
 10
11410.0
 20
39280.0
 10
11810.0
 20
39280.0
 10
11810.0
 20
38780.0
  0
LWPOLYLINE
  5
35
100
AcDbEntity
  8
SOLDERMASK_PADS_BTM
100
AcDbPolyline
 90
        4
 70
         1
 10
10610.0
 20
38780.0
 10
10610.0
 20
39280.0
 10
11010.0
 20
39280.0
 10
11010.0
 20
38780.0
  0
LWPOLYLINE
  5
36
100
AcDbEntity
  8
SOLDERMASK_PADS_BTM
100
AcDbPolyline
 90
        4
 70
         1
 10
7360.0
 20
37445.0
 10
7360.0
 20
38445.0
 10
7560.0
 20
38445.0
 10
7560.0
 20
37445.0
  0
LWPOLYLINE
  5
37
100
AcDbEntity
  8
SOLDERMASK_PADS_BTM
100
AcDbPolyline
 90
        4
 70
         1
 10
7760.0
 20
37445.0
 10
7760.0
 20
38445.0
 10
7960.0
 20
38445.0
 10
7960.0
 20
37445.0
  0
LWPOLYLINE
  5
38
100
AcDbEntity
  8
SOLDERMASK_PADS_BTM
100
AcDbPolyline
 90
        4
 70
         1
 10
8160.0
 20
37445.0
 10
8160.0
 20
38445.0
 10
8360.0
 20
38445.0
 10
8360.0
 20
37445.0
  0
LWPOLYLINE
  5
39
100
AcDbEntity
  8
SOLDERMASK_PADS_BTM
100
AcDbPolyline
 90
        4
 70
         1
 10
8560.0
 20
37445.0
 10
8560.0
 20
38445.0
 10
8760.0
 20
38445.0
 10
8760.0
 20
37445.0
  0
LWPOLYLINE
  5
3A
100
AcDbEntity
  8
SOLDERMASK_PADS_BTM
100
AcDbPolyline
 90
        4
 70
         1
 10
8960.0
 20
37445.0
 10
8960.0
 20
38445.0
 10
9160.0
 20
38445.0
 10
9160.0
 20
37445.0
  0
LWPOLYLINE
  5
3B
100
AcDbEntity
  8
SOLDERMASK_PADS_BTM
100
AcDbPolyline
 90
        4
 70
         1
 10
9360.0
 20
37445.0
 10
9360.0
 20
38445.0
 10
9560.0
 20
38445.0
 10
9560.0
 20
37445.0
  0
LWPOLYLINE
  5
3C
100
AcDbEntity
  8
SOLDERMASK_PADS_BTM
100
AcDbPolyline
 90
        4
 70
         1
 10
9760.0
 20
37445.0
 10
9760.0
 20
38445.0
 10
9960.0
 20
38445.0
 10
9960.0
 20
37445.0
  0
LWPOLYLINE
  5
3D
100
AcDbEntity
  8
SOLDERMASK_PADS_BTM
100
AcDbPolyline
 90
        4
 70
         1
 10
10160.0
 20
37445.0
 10
10160.0
 20
38445.0
 10
10360.0
 20
38445.0
 10
10360.0
 20
37445.0
  0
LWPOLYLINE
  5
3E
100
AcDbEntity
  8
SOLDERMASK_PADS_BTM
100
AcDbPolyline
 90
        4
 70
         1
 10
10560.0
 20
37445.0
 10
10560.0
 20
38445.0
 10
10760.0
 20
38445.0
 10
10760.0
 20
37445.0
  0
LWPOLYLINE
  5
3F
100
AcDbEntity
  8
SOLDERMASK_PADS_BTM
100
AcDbPolyline
 90
        4
 70
         1
 10
10960.0
 20
37445.0
 10
10960.0
 20
38445.0
 10
11160.0
 20
38445.0
 10
11160.0
 20
37445.0
  0
LWPOLYLINE
  5
40
100
AcDbEntity
  8
SOLDERMASK_PADS_BTM
100
AcDbPolyline
 90
        4
 70
         1
 10
11360.0
 20
37445.0
 10
11360.0
 20
38445.0
 10
11560.0
 20
38445.0
 10
11560.0
 20
37445.0
  0
LWPOLYLINE
  5
41
100
AcDbEntity
  8
SOLDERMASK_PADS_BTM
100
AcDbPolyline
 90
        4
 70
         1
 10
11760.0
 20
37445.0
 10
11760.0
 20
38445.0
 10
11960.0
 20
38445.0
 10
11960.0
 20
37445.0
  0
LWPOLYLINE
  5
42
100
AcDbEntity
  8
SOLDERMASK_PADS_BTM
100
AcDbPolyline
 90
        4
 70
         1
 10
11760.0
 20
32895.0
 10
11760.0
 20
33895.0
 10
11960.0
 20
33895.0
 10
11960.0
 20
32895.0
  0
LWPOLYLINE
  5
43
100
AcDbEntity
  8
SOLDERMASK_PADS_BTM
100
AcDbPolyline
 90
        4
 70
         1
 10
11360.0
 20
32895.0
 10
11360.0
 20
33895.0
 10
11560.0
 20
33895.0
 10
11560.0
 20
32895.0
  0
LWPOLYLINE
  5
44
100
AcDbEntity
  8
SOLDERMASK_PADS_BTM
100
AcDbPolyline
 90
        4
 70
         1
 10
10960.0
 20
32895.0
 10
10960.0
 20
33895.0
 10
11160.0
 20
33895.0
 10
11160.0
 20
32895.0
  0
LWPOLYLINE
  5
45
100
AcDbEntity
  8
SOLDERMASK_PADS_BTM
100
AcDbPolyline
 90
        4
 70
         1
 10
10560.0
 20
32895.0
 10
10560.0
 20
33895.0
 10
10760.0
 20
33895.0
 10
10760.0
 20
32895.0
  0
LWPOLYLINE
  5
46
100
AcDbEntity
  8
SOLDERMASK_PADS_BTM
100
AcDbPolyline
 90
        4
 70
         1
 10
10160.0
 20
32895.0
 10
10160.0
 20
33895.0
 10
10360.0
 20
33895.0
 10
10360.0
 20
32895.0
  0
LWPOLYLINE
  5
47
100
AcDbEntity
  8
SOLDERMASK_PADS_BTM
100
AcDbPolyline
 90
        4
 70
         1
 10
9760.0
 20
32895.0
 10
9760.0
 20
33895.0
 10
9960.0
 20
33895.0
 10
9960.0
 20
32895.0
  0
LWPOLYLINE
  5
48
100
AcDbEntity
  8
SOLDERMASK_PADS_BTM
100
AcDbPolyline
 90
        4
 70
         1
 10
9360.0
 20
32895.0
 10
9360.0
 20
33895.0
 10
9560.0
 20
33895.0
 10
9560.0
 20
32895.0
  0
LWPOLYLINE
  5
49
100
AcDbEntity
  8
SOLDERMASK_PADS_BTM
100
AcDbPolyline
 90
        4
 70
         1
 10
8960.0
 20
32895.0
 10
8960.0
 20
33895.0
 10
9160.0
 20
33895.0
 10
9160.0
 20
32895.0
  0
LWPOLYLINE
  5
4A
100
AcDbEntity
  8
SOLDERMASK_PADS_BTM
100
AcDbPolyline
 90
        4
 70
         1
 10
8560.0
 20
32895.0
 10
8560.0
 20
33895.0
 10
8760.0
 20
33895.0
 10
8760.0
 20
32895.0
  0
LWPOLYLINE
  5
4B
100
AcDbEntity
  8
SOLDERMASK_PADS_BTM
100
AcDbPolyline
 90
        4
 70
         1
 10
8160.0
 20
32895.0
 10
8160.0
 20
33895.0
 10
8360.0
 20
33895.0
 10
8360.0
 20
32895.0
  0
LWPOLYLINE
  5
4C
100
AcDbEntity
  8
SOLDERMASK_PADS_BTM
100
AcDbPolyline
 90
        4
 70
         1
 10
7760.0
 20
32895.0
 10
7760.0
 20
33895.0
 10
7960.0
 20
33895.0
 10
7960.0
 20
32895.0
  0
LWPOLYLINE
  5
4D
100
AcDbEntity
  8
SOLDERMASK_PADS_BTM
100
AcDbPolyline
 90
        4
 70
         1
 10
7360.0
 20
32895.0
 10
7360.0
 20
33895.0
 10
7560.0
 20
33895.0
 10
7560.0
 20
32895.0
  0
LWPOLYLINE
  5
4E
100
AcDbEntity
  8
SOLDERMASK_PADS_BTM
100
AcDbPolyline
 90
        4
 70
         1
 10
10740.0
 20
14640.0
 10
10740.0
 20
15320.0
 10
11340.0
 20
15320.0
 10
11340.0
 20
14640.0
  0
LWPOLYLINE
  5
4F
100
AcDbEntity
  8
SOLDERMASK_PADS_BTM
100
AcDbPolyline
 90
        4
 70
         1
 10
10740.0
 20
15190.0
 10
10740.0
 20
15870.0
 10
11340.0
 20
15870.0
 10
11340.0
 20
15190.0
  0
LWPOLYLINE
  5
50
100
AcDbEntity
  8
SOLDERMASK_PADS_BTM
100
AcDbPolyline
 90
        4
 70
         1
 10
11690.0
 20
14640.0
 10
11690.0
 20
15320.0
 10
12290.0
 20
15320.0
 10
12290.0
 20
14640.0
  0
LWPOLYLINE
  5
51
100
AcDbEntity
  8
SOLDERMASK_PADS_BTM
100
AcDbPolyline
 90
        4
 70
         1
 10
9790.0
 20
17340.0
 10
9790.0
 20
18020.0
 10
10390.0
 20
18020.0
 10
10390.0
 20
17340.0
  0
LWPOLYLINE
  5
52
100
AcDbEntity
  8
SOLDERMASK_PADS_BTM
100
AcDbPolyline
 90
        4
 70
         1
 10
11690.0
 20
17340.0
 10
11690.0
 20
18020.0
 10
12290.0
 20
18020.0
 10
12290.0
 20
17340.0
  0
LWPOLYLINE
  5
53
100
AcDbEntity
  8
SOLDERMASK_PADS_BTM
100
AcDbPolyline
 90
        4
 70
         1
 10
9790.0
 20
14640.0
 10
9790.0
 20
15320.0
 10
10390.0
 20
15320.0
 10
10390.0
 20
14640.0
  0
CIRCLE
  5
54
100
AcDbEntity
  8
SOLDERMASK_PADS_BTM
100
AcDbCircle
 10
8150.0
 20
7890.0
 30
0.0
 40
800.0
  0
CIRCLE
  5
55
100
AcDbEntity
  8
SOLDERMASK_PADS_BTM
100
AcDbCircle
 10
13280.0
 20
22800.0
 30
0.0
 40
500.0
  0
LWPOLYLINE
  5
56
100
AcDbEntity
  8
SOLDERMASK_PADS_BTM
100
AcDbPolyline
 90
        4
 70
         1
 10
13840.0
 20
20275.0
 10
13840.0
 20
21525.0
 10
14690.0
 20
21525.0
 10
14690.0
 20
20275.0
  0
LWPOLYLINE
  5
57
100
AcDbEntity
  8
SOLDERMASK_PADS_BTM
100
AcDbPolyline
 90
        4
 70
         1
 10
15390.0
 20
20275.0
 10
15390.0
 20
21525.0
 10
16240.0
 20
21525.0
 10
16240.0
 20
20275.0
  0
LWPOLYLINE
  5
58
100
AcDbEntity
  8
SOLDERMASK_PADS_BTM
100
AcDbPolyline
 90
        4
 70
         1
 10
5815.0
 20
30030.0
 10
5815.0
 20
30430.0
 10
6315.0
 20
30430.0
 10
6315.0
 20
30030.0
  0
LWPOLYLINE
  5
59
100
AcDbEntity
  8
SOLDERMASK_PADS_BTM
100
AcDbPolyline
 90
        4
 70
         1
 10
5815.0
 20
29230.0
 10
5815.0
 20
29630.0
 10
6315.0
 20
29630.0
 10
6315.0
 20
29230.0
  0
LWPOLYLINE
  5
5A
100
AcDbEntity
  8
SOLDERMASK_PADS_BTM
100
AcDbPolyline
 90
        4
 70
         1
 10
4000.0
 20
21085.0
 10
4000.0
 20
21585.0
 10
4400.0
 20
21585.0
 10
4400.0
 20
21085.0
  0
LWPOLYLINE
  5
5B
100
AcDbEntity
  8
SOLDERMASK_PADS_BTM
100
AcDbPolyline
 90
        4
 70
         1
 10
3200.0
 20
21085.0
 10
3200.0
 20
21585.0
 10
3600.0
 20
21585.0
 10
3600.0
 20
21085.0
  0
LWPOLYLINE
  5
5C
100
AcDbEntity
  8
SOLDERMASK_PADS_BTM
100
AcDbPolyline
 90
        4
 70
         1
 10
2535.0
 20
22650.0
 10
2535.0
 20
23850.0
 10
3535.0
 20
23850.0
 10
3535.0
 20
22650.0
  0
LWPOLYLINE
  5
5D
100
AcDbEntity
  8
SOLDERMASK_PADS_BTM
100
AcDbPolyline
 90
        4
 70
         1
 10
2535.0
 20
24950.0
 10
2535.0
 20
26150.0
 10
3535.0
 20
26150.0
 10
3535.0
 20
24950.0
  0
LWPOLYLINE
  5
5E
100
AcDbEntity
  8
SOLDERMASK_PADS_BTM
100
AcDbPolyline
 90
        4
 70
         1
 10
4435.0
 20
24950.0
 10
4435.0
 20
26150.0
 10
5435.0
 20
26150.0
 10
5435.0
 20
24950.0
  0
LWPOLYLINE
  5
5F
100
AcDbEntity
  8
SOLDERMASK_PADS_BTM
100
AcDbPolyline
 90
        4
 70
         1
 10
4435.0
 20
22650.0
 10
4435.0
 20
23850.0
 10
5435.0
 20
23850.0
 10
5435.0
 20
22650.0
  0
LWPOLYLINE
  5
60
100
AcDbEntity
  8
SOLDERMASK_PADS_BTM
100
AcDbPolyline
 90
        4
 70
         1
 10
3835.0
 20
28680.0
 10
3835.0
 20
29180.0
 10
4235.0
 20
29180.0
 10
4235.0
 20
28680.0
  0
LWPOLYLINE
  5
61
100
AcDbEntity
  8
SOLDERMASK_PADS_BTM
100
AcDbPolyline
 90
        4
 70
         1
 10
3035.0
 20
28680.0
 10
3035.0
 20
29180.0
 10
3435.0
 20
29180.0
 10
3435.0
 20
28680.0
  0
LWPOLYLINE
  5
62
100
AcDbEntity
  8
SOLDERMASK_PADS_BTM
100
AcDbPolyline
 90
        4
 70
         1
 10
1630.0
 20
15310.0
 10
1630.0
 20
15910.0
 10
2030.0
 20
15910.0
 10
2030.0
 20
15310.0
  0
LWPOLYLINE
  5
63
100
AcDbEntity
  8
SOLDERMASK_PADS_BTM
100
AcDbPolyline
 90
        4
 70
         1
 10
830.0
 20
15310.0
 10
830.0
 20
15910.0
 10
1230.0
 20
15910.0
 10
1230.0
 20
15310.0
  0
LWPOLYLINE
  5
64
100
AcDbEntity
  8
SOLDERMASK_PADS_BTM
100
AcDbPolyline
 90
        4
 70
         1
 10
9390.0
 20
10315.0
 10
9390.0
 20
11565.0
 10
10240.0
 20
11565.0
 10
10240.0
 20
10315.0
  0
LWPOLYLINE
  5
65
100
AcDbEntity
  8
SOLDERMASK_PADS_BTM
100
AcDbPolyline
 90
        4
 70
         1
 10
10940.0
 20
10315.0
 10
10940.0
 20
11565.0
 10
11790.0
 20
11565.0
 10
11790.0
 20
10315.0
  0
LWPOLYLINE
  5
66
100
AcDbEntity
  8
SOLDERMASK_PADS_BTM
100
AcDbPolyline
 90
        4
 70
         1
 10
5440.0
 20
28185.0
 10
5440.0
 20
28765.0
 10
5690.0
 20
28765.0
 10
5690.0
 20
28185.0
  0
LWPOLYLINE
  5
67
100
AcDbEntity
  8
SOLDERMASK_PADS_BTM
100
AcDbPolyline
 90
        4
 70
         1
 10
5915.0
 20
28185.0
 10
5915.0
 20
28765.0
 10
6215.0
 20
28765.0
 10
6215.0
 20
28185.0
  0
LWPOLYLINE
  5
68
100
AcDbEntity
  8
SOLDERMASK_PADS_BTM
100
AcDbPolyline
 90
        4
 70
         1
 10
5915.0
 20
26935.0
 10
5915.0
 20
27515.0
 10
6215.0
 20
27515.0
 10
6215.0
 20
26935.0
  0
LWPOLYLINE
  5
69
100
AcDbEntity
  8
SOLDERMASK_PADS_BTM
100
AcDbPolyline
 90
        4
 70
         1
 10
5440.0
 20
26935.0
 10
5440.0
 20
27515.0
 10
5690.0
 20
27515.0
 10
5690.0
 20
26935.0
  0
LWPOLYLINE
  5
6A
100
AcDbEntity
  8
SOLDERMASK_PADS_BTM
100
AcDbPolyline
 90
        4
 70
         1
 10
4915.0
 20
28185.0
 10
4915.0
 20
28765.0
 10
5215.0
 20
28765.0
 10
5215.0
 20
28185.0
  0
LWPOLYLINE
  5
6B
100
AcDbEntity
  8
SOLDERMASK_PADS_BTM
100
AcDbPolyline
 90
        4
 70
         1
 10
4800.0
 20
27675.0
 10
4800.0
 20
28025.0
 10
5430.0
 20
28025.0
 10
5430.0
 20
27675.0
  0
LWPOLYLINE
  5
6C
100
AcDbEntity
  8
SOLDERMASK_PADS_BTM
100
AcDbPolyline
 90
        4
 70
         1
 10
5700.0
 20
27675.0
 10
5700.0
 20
28025.0
 10
6330.0
 20
28025.0
 10
6330.0
 20
27675.0
  0
LWPOLYLINE
  5
6D
100
AcDbEntity
  8
SOLDERMASK_PADS_BTM
100
AcDbPolyline
 90
        4
 70
         1
 10
4915.0
 20
26935.0
 10
4915.0
 20
27515.0
 10
5215.0
 20
27515.0
 10
5215.0
 20
26935.0
  0
LWPOLYLINE
  5
6E
100
AcDbEntity
  8
SOLDERMASK_PADS_BTM
100
AcDbPolyline
 90
        4
 70
         1
 10
3695.0
 20
29640.0
 10
3695.0
 20
30140.0
 10
4095.0
 20
30140.0
 10
4095.0
 20
29640.0
  0
LWPOLYLINE
  5
6F
100
AcDbEntity
  8
SOLDERMASK_PADS_BTM
100
AcDbPolyline
 90
        4
 70
         1
 10
2895.0
 20
29640.0
 10
2895.0
 20
30140.0
 10
3295.0
 20
30140.0
 10
3295.0
 20
29640.0
  0
LWPOLYLINE
  5
70
100
AcDbEntity
  8
SOLDERMASK_PADS_BTM
100
AcDbPolyline
 90
        4
 70
         1
 10
3725.0
 20
27600.0
 10
3725.0
 20
28100.0
 10
4125.0
 20
28100.0
 10
4125.0
 20
27600.0
  0
LWPOLYLINE
  5
71
100
AcDbEntity
  8
SOLDERMASK_PADS_BTM
100
AcDbPolyline
 90
        4
 70
         1
 10
2925.0
 20
27600.0
 10
2925.0
 20
28100.0
 10
3325.0
 20
28100.0
 10
3325.0
 20
27600.0
  0
LWPOLYLINE
  5
72
100
AcDbEntity
  8
SOLDERMASK_PADS_BTM
100
AcDbPolyline
 90
        4
 70
         1
 10
1850.0
 20
13260.0
 10
1850.0
 20
13660.0
 10
2350.0
 20
13660.0
 10
2350.0
 20
13260.0
  0
LWPOLYLINE
  5
73
100
AcDbEntity
  8
SOLDERMASK_PADS_BTM
100
AcDbPolyline
 90
        4
 70
         1
 10
1850.0
 20
12460.0
 10
1850.0
 20
12860.0
 10
2350.0
 20
12860.0
 10
2350.0
 20
12460.0
  0
LWPOLYLINE
  5
74
100
AcDbEntity
  8
SOLDERMASK_PADS_BTM
100
AcDbPolyline
 90
        4
 70
         1
 10
2860.0
 20
13330.0
 10
2860.0
 20
13530.0
 10
3560.0
 20
13530.0
 10
3560.0
 20
13330.0
  0
LWPOLYLINE
  5
75
100
AcDbEntity
  8
SOLDERMASK_PADS_BTM
100
AcDbPolyline
 90
        4
 70
         1
 10
2860.0
 20
13730.0
 10
2860.0
 20
13930.0
 10
3560.0
 20
13930.0
 10
3560.0
 20
13730.0
  0
LWPOLYLINE
  5
76
100
AcDbEntity
  8
SOLDERMASK_PADS_BTM
100
AcDbPolyline
 90
        4
 70
         1
 10
2860.0
 20
14130.0
 10
2860.0
 20
14330.0
 10
3560.0
 20
14330.0
 10
3560.0
 20
14130.0
  0
LWPOLYLINE
  5
77
100
AcDbEntity
  8
SOLDERMASK_PADS_BTM
100
AcDbPolyline
 90
        4
 70
         1
 10
2860.0
 20
14530.0
 10
2860.0
 20
14730.0
 10
3560.0
 20
14730.0
 10
3560.0
 20
14530.0
  0
LWPOLYLINE
  5
78
100
AcDbEntity
  8
SOLDERMASK_PADS_BTM
100
AcDbPolyline
 90
        4
 70
         1
 10
2860.0
 20
14930.0
 10
2860.0
 20
15130.0
 10
3560.0
 20
15130.0
 10
3560.0
 20
14930.0
  0
LWPOLYLINE
  5
79
100
AcDbEntity
  8
SOLDERMASK_PADS_BTM
100
AcDbPolyline
 90
        4
 70
         1
 10
2860.0
 20
15330.0
 10
2860.0
 20
15530.0
 10
3560.0
 20
15530.0
 10
3560.0
 20
15330.0
  0
LWPOLYLINE
  5
7A
100
AcDbEntity
  8
SOLDERMASK_PADS_BTM
100
AcDbPolyline
 90
        4
 70
         1
 10
2860.0
 20
15730.0
 10
2860.0
 20
15930.0
 10
3560.0
 20
15930.0
 10
3560.0
 20
15730.0
  0
LWPOLYLINE
  5
7B
100
AcDbEntity
  8
SOLDERMASK_PADS_BTM
100
AcDbPolyline
 90
        4
 70
         1
 10
2860.0
 20
16130.0
 10
2860.0
 20
16330.0
 10
3560.0
 20
16330.0
 10
3560.0
 20
16130.0
  0
LWPOLYLINE
  5
7C
100
AcDbEntity
  8
SOLDERMASK_PADS_BTM
100
AcDbPolyline
 90
        4
 70
         1
 10
2860.0
 20
16530.0
 10
2860.0
 20
16730.0
 10
3560.0
 20
16730.0
 10
3560.0
 20
16530.0
  0
LWPOLYLINE
  5
7D
100
AcDbEntity
  8
SOLDERMASK_PADS_BTM
100
AcDbPolyline
 90
        4
 70
         1
 10
2860.0
 20
16930.0
 10
2860.0
 20
17130.0
 10
3560.0
 20
17130.0
 10
3560.0
 20
16930.0
  0
LWPOLYLINE
  5
7E
100
AcDbEntity
  8
SOLDERMASK_PADS_BTM
100
AcDbPolyline
 90
        4
 70
         1
 10
5940.0
 20
16930.0
 10
5940.0
 20
17130.0
 10
6640.0
 20
17130.0
 10
6640.0
 20
16930.0
  0
LWPOLYLINE
  5
7F
100
AcDbEntity
  8
SOLDERMASK_PADS_BTM
100
AcDbPolyline
 90
        4
 70
         1
 10
5940.0
 20
16530.0
 10
5940.0
 20
16730.0
 10
6640.0
 20
16730.0
 10
6640.0
 20
16530.0
  0
LWPOLYLINE
  5
80
100
AcDbEntity
  8
SOLDERMASK_PADS_BTM
100
AcDbPolyline
 90
        4
 70
         1
 10
5940.0
 20
16130.0
 10
5940.0
 20
16330.0
 10
6640.0
 20
16330.0
 10
6640.0
 20
16130.0
  0
LWPOLYLINE
  5
81
100
AcDbEntity
  8
SOLDERMASK_PADS_BTM
100
AcDbPolyline
 90
        4
 70
         1
 10
5940.0
 20
15730.0
 10
5940.0
 20
15930.0
 10
6640.0
 20
15930.0
 10
6640.0
 20
15730.0
  0
LWPOLYLINE
  5
82
100
AcDbEntity
  8
SOLDERMASK_PADS_BTM
100
AcDbPolyline
 90
        4
 70
         1
 10
5940.0
 20
15330.0
 10
5940.0
 20
15530.0
 10
6640.0
 20
15530.0
 10
6640.0
 20
15330.0
  0
LWPOLYLINE
  5
83
100
AcDbEntity
  8
SOLDERMASK_PADS_BTM
100
AcDbPolyline
 90
        4
 70
         1
 10
5940.0
 20
14930.0
 10
5940.0
 20
15130.0
 10
6640.0
 20
15130.0
 10
6640.0
 20
14930.0
  0
LWPOLYLINE
  5
84
100
AcDbEntity
  8
SOLDERMASK_PADS_BTM
100
AcDbPolyline
 90
        4
 70
         1
 10
5940.0
 20
14530.0
 10
5940.0
 20
14730.0
 10
6640.0
 20
14730.0
 10
6640.0
 20
14530.0
  0
LWPOLYLINE
  5
85
100
AcDbEntity
  8
SOLDERMASK_PADS_BTM
100
AcDbPolyline
 90
        4
 70
         1
 10
5940.0
 20
14130.0
 10
5940.0
 20
14330.0
 10
6640.0
 20
14330.0
 10
6640.0
 20
14130.0
  0
LWPOLYLINE
  5
86
100
AcDbEntity
  8
SOLDERMASK_PADS_BTM
100
AcDbPolyline
 90
        4
 70
         1
 10
5940.0
 20
13730.0
 10
5940.0
 20
13930.0
 10
6640.0
 20
13930.0
 10
6640.0
 20
13730.0
  0
LWPOLYLINE
  5
87
100
AcDbEntity
  8
SOLDERMASK_PADS_BTM
100
AcDbPolyline
 90
        4
 70
         1
 10
5940.0
 20
13330.0
 10
5940.0
 20
13530.0
 10
6640.0
 20
13530.0
 10
6640.0
 20
13330.0
  0
LWPOLYLINE
  5
88
100
AcDbEntity
  8
SOLDERMASK_PADS_BTM
100
AcDbPolyline
 90
        4
 70
         1
 10
5940.0
 20
12530.0
 10
5940.0
 20
12730.0
 10
6640.0
 20
12730.0
 10
6640.0
 20
12530.0
  0
LWPOLYLINE
  5
89
100
AcDbEntity
  8
SOLDERMASK_PADS_BTM
100
AcDbPolyline
 90
        4
 70
         1
 10
5940.0
 20
12930.0
 10
5940.0
 20
13130.0
 10
6640.0
 20
13130.0
 10
6640.0
 20
12930.0
  0
LWPOLYLINE
  5
8A
100
AcDbEntity
  8
SOLDERMASK_PADS_BTM
100
AcDbPolyline
 90
        4
 70
         1
 10
2860.0
 20
12930.0
 10
2860.0
 20
13130.0
 10
3560.0
 20
13130.0
 10
3560.0
 20
12930.0
  0
LWPOLYLINE
  5
8B
100
AcDbEntity
  8
SOLDERMASK_PADS_BTM
100
AcDbPolyline
 90
        4
 70
         1
 10
2860.0
 20
12530.0
 10
2860.0
 20
12730.0
 10
3560.0
 20
12730.0
 10
3560.0
 20
12530.0
  0
CIRCLE
  5
8C
100
AcDbEntity
  8
SOLDERMASK_PADS_BTM
100
AcDbCircle
 10
4000.0
 20
3300.0
 30
0.0
 40
2250.0
  0
CIRCLE
  5
8D
100
AcDbEntity
  8
SOLDERMASK_PADS_BTM
100
AcDbCircle
 10
17000.0
 20
37400.0
 30
0.0
 40
2000.0
  0
LWPOLYLINE
  5
8E
100
AcDbEntity
  8
SOLDERMASK_PADS_BTM
100
AcDbPolyline
 90
        4
 70
         1
 10
880.0
 20
13250.0
 10
880.0
 20
13650.0
 10
1480.0
 20
13650.0
 10
1480.0
 20
13250.0
  0
LWPOLYLINE
  5
8F
100
AcDbEntity
  8
SOLDERMASK_PADS_BTM
100
AcDbPolyline
 90
        4
 70
         1
 10
880.0
 20
12450.0
 10
880.0
 20
12850.0
 10
1480.0
 20
12850.0
 10
1480.0
 20
12450.0
  0
LWPOLYLINE
  5
90
100
AcDbEntity
  8
SOLDERMASK_PADS_BTM
100
AcDbPolyline
 90
       12
 70
         1
 10
19070.0
 20
15740.0
 42
-0.4142135624
 10
19170.0
 20
15640.0
 10
19170.0
 20
14431.421
 42
-0.1989097685
 10
19140.711
 20
14360.711
 10
18449.289
 20
13669.289
 42
-0.1989105297
 10
18378.579
 20
13640.0
 10
14461.421
 20
13640.0
 42
-0.1989097685
 10
14390.711
 20
13669.289
 10
13699.289
 20
14360.711
 42
-0.1989105297
 10
13670.0
 20
14431.421
 10
13670.0
 20
15640.0
 42
-0.4142135624
 10
13770.0
 20
15740.0
  0
LWPOLYLINE
  5
91
100
AcDbEntity
  8
SOLDERMASK_PADS_BTM
100
AcDbPolyline
 90
       12
 70
         1
 10
13770.0
 20
17340.0
 42
-0.4142135624
 10
13670.0
 20
17440.0
 10
13670.0
 20
18648.579
 42
-0.1989097685
 10
13699.289
 20
18719.289
 10
14390.711
 20
19410.711
 42
-0.1989105297
 10
14461.421
 20
19440.0
 10
18378.579
 20
19440.0
 42
-0.1989097685
 10
18449.289
 20
19410.711
 10
19140.711
 20
18719.289
 42
-0.1989105297
 10
19170.0
 20
18648.579
 10
19170.0
 20
17440.0
 42
-0.4142135624
 10
19070.0
 20
17340.0
  0
LWPOLYLINE
  5
92
100
AcDbEntity
  8
SOLDERMASK_PADS_BTM
100
AcDbPolyline
 90
        4
 70
         1
 10
9920.0
 20
12825.0
 10
9920.0
 20
14075.0
 10
10770.0
 20
14075.0
 10
10770.0
 20
12825.0
  0
LWPOLYLINE
  5
93
100
AcDbEntity
  8
SOLDERMASK_PADS_BTM
100
AcDbPolyline
 90
        4
 70
         1
 10
8370.0
 20
12825.0
 10
8370.0
 20
14075.0
 10
9220.0
 20
14075.0
 10
9220.0
 20
12825.0
  0
LWPOLYLINE
  5
94
100
AcDbEntity
  8
SOLDERMASK_PADS_BTM
100
AcDbPolyline
 90
        4
 70
         1
 10
11570.0
 20
18520.0
 10
11570.0
 20
19120.0
 10
11970.0
 20
19120.0
 10
11970.0
 20
18520.0
  0
LWPOLYLINE
  5
95
100
AcDbEntity
  8
SOLDERMASK_PADS_BTM
100
AcDbPolyline
 90
        4
 70
         1
 10
10770.0
 20
18520.0
 10
10770.0
 20
19120.0
 10
11170.0
 20
19120.0
 10
11170.0
 20
18520.0
  0
LWPOLYLINE
  5
96
100
AcDbEntity
  8
SOLDERMASK_PADS_BTM
100
AcDbPolyline
 90
        4
 70
         1
 10
11620.0
 20
13550.0
 10
11620.0
 20
14050.0
 10
12220.0
 20
14050.0
 10
12220.0
 20
13550.0
  0
LWPOLYLINE
  5
97
100
AcDbEntity
  8
SOLDERMASK_PADS_BTM
100
AcDbPolyline
 90
        4
 70
         1
 10
11620.0
 20
12150.0
 10
11620.0
 20
12650.0
 10
12220.0
 20
12650.0
 10
12220.0
 20
12150.0
  0
LWPOLYLINE
  5
98
100
AcDbEntity
  8
SOLDERMASK_PADS_BTM
100
AcDbPolyline
 90
        4
 70
         1
 10
10770.0
 20
19730.0
 10
10770.0
 20
20230.0
 10
11170.0
 20
20230.0
 10
11170.0
 20
19730.0
  0
LWPOLYLINE
  5
99
100
AcDbEntity
  8
SOLDERMASK_PADS_BTM
100
AcDbPolyline
 90
        4
 70
         1
 10
11570.0
 20
19730.0
 10
11570.0
 20
20230.0
 10
11970.0
 20
20230.0
 10
11970.0
 20
19730.0
  0
LWPOLYLINE
  5
9A
100
AcDbEntity
  8
SOLDERMASK_PADS_BTM
100
AcDbPolyline
 90
        4
 70
         1
 10
8450.0
 20
16700.0
 10
8450.0
 20
17100.0
 10
8950.0
 20
17100.0
 10
8950.0
 20
16700.0
  0
LWPOLYLINE
  5
9B
100
AcDbEntity
  8
SOLDERMASK_PADS_BTM
100
AcDbPolyline
 90
        4
 70
         1
 10
8450.0
 20
17500.0
 10
8450.0
 20
17900.0
 10
8950.0
 20
17900.0
 10
8950.0
 20
17500.0
  0
LWPOLYLINE
  5
9C
100
AcDbEntity
  8
SOLDERMASK_PADS_BTM
100
AcDbPolyline
 90
        4
 70
         1
 10
8450.0
 20
18287.5
 10
8450.0
 20
18687.5
 10
8950.0
 20
18687.5
 10
8950.0
 20
18287.5
  0
CIRCLE
  5
9D
100
AcDbEntity
  8
SOLDERMASK_PADS_TOP
100
AcDbCircle
 10
8887.722
 20
11519.878
 30
0.0
 40
140.0
  0
CIRCLE
  5
9E
100
AcDbEntity
  8
SOLDERMASK_PADS_TOP
100
AcDbCircle
 10
8887.722
 20
10719.874
 30
0.0
 40
140.0
  0
CIRCLE
  5
9F
100
AcDbEntity
  8
SOLDERMASK_PADS_TOP
100
AcDbCircle
 10
1125.0
 20
11970.303
 30
0.0
 40
140.0
  0
CIRCLE
  5
A0
100
AcDbEntity
  8
SOLDERMASK_PADS_TOP
100
AcDbCircle
 10
6910.036
 20
38666.788
 30
0.0
 40
140.0
  0
CIRCLE
  5
A1
100
AcDbEntity
  8
SOLDERMASK_PADS_TOP
100
AcDbCircle
 10
6349.885
 20
36735.9
 30
0.0
 40
140.0
  0
CIRCLE
  5
A2
100
AcDbEntity
  8
SOLDERMASK_PADS_TOP
100
AcDbCircle
 10
5509.998
 20
35085.323
 30
0.0
 40
140.0
  0
CIRCLE
  5
A3
100
AcDbEntity
  8
SOLDERMASK_PADS_TOP
100
AcDbCircle
 10
5679.836
 20
32071.588
 30
0.0
 40
140.0
  0
CIRCLE
  5
A4
100
AcDbEntity
  8
SOLDERMASK_PADS_TOP
100
AcDbCircle
 10
6909.998
 20
34827.072
 30
0.0
 40
140.0
  0
CIRCLE
  5
A5
100
AcDbEntity
  8
SOLDERMASK_PADS_TOP
100
AcDbCircle
 10
11085.449
 20
34392.049
 30
0.0
 40
140.0
  0
CIRCLE
  5
A6
100
AcDbEntity
  8
SOLDERMASK_PADS_TOP
100
AcDbCircle
 10
4268.317
 20
31899.841
 30
0.0
 40
140.0
  0
CIRCLE
  5
A7
100
AcDbEntity
  8
SOLDERMASK_PADS_TOP
100
AcDbCircle
 10
8796.63
 20
31224.951
 30
0.0
 40
140.0
  0
CIRCLE
  5
A8
100
AcDbEntity
  8
SOLDERMASK_PADS_TOP
100
AcDbCircle
 10
3150.051
 20
35576.266
 30
0.0
 40
140.0
  0
CIRCLE
  5
A9
100
AcDbEntity
  8
SOLDERMASK_PADS_TOP
100
AcDbCircle
 10
14669.008
 20
38561.987
 30
0.0
 40
140.0
  0
CIRCLE
  5
AA
100
AcDbEntity
  8
SOLDERMASK_PADS_TOP
100
AcDbCircle
 10
10076.512
 20
39131.733
 30
0.0
 40
140.0
  0
CIRCLE
  5
AB
100
AcDbEntity
  8
SOLDERMASK_PADS_TOP
100
AcDbCircle
 10
11863.822
 20
27080.0
 30
0.0
 40
140.0
  0
CIRCLE
  5
AC
100
AcDbEntity
  8
SOLDERMASK_PADS_TOP
100
AcDbCircle
 10
11898.161
 20
28784.731
 30
0.0
 40
140.0
  0
CIRCLE
  5
AD
100
AcDbEntity
  8
SOLDERMASK_PADS_TOP
100
AcDbCircle
 10
16521.414
 20
29168.103
 30
0.0
 40
140.0
  0
CIRCLE
  5
AE
100
AcDbEntity
  8
SOLDERMASK_PADS_TOP
100
AcDbCircle
 10
15725.441
 20
22090.0
 30
0.0
 40
140.0
  0
CIRCLE
  5
AF
100
AcDbEntity
  8
SOLDERMASK_PADS_TOP
100
AcDbCircle
 10
6755.93
 20
28386.936
 30
0.0
 40
140.0
  0
CIRCLE
  5
B0
100
AcDbEntity
  8
SOLDERMASK_PADS_TOP
100
AcDbCircle
 10
8360.289
 20
3999.598
 30
0.0
 40
140.0
  0
CIRCLE
  5
B1
100
AcDbEntity
  8
SOLDERMASK_PADS_TOP
100
AcDbCircle
 10
10997.028
 20
16667.263
 30
0.0
 40
140.0
  0
CIRCLE
  5
B2
100
AcDbEntity
  8
SOLDERMASK_PADS_TOP
100
AcDbCircle
 10
11015.88
 20
17576.872
 30
0.0
 40
140.0
  0
CIRCLE
  5
B3
100
AcDbEntity
  8
SOLDERMASK_PADS_TOP
100
AcDbCircle
 10
9859.398
 20
12101.718
 30
0.0
 40
140.0
  0
CIRCLE
  5
B4
100
AcDbEntity
  8
SOLDERMASK_PADS_TOP
100
AcDbCircle
 10
1266.157
 20
17229.995
 30
0.0
 40
140.0
  0
CIRCLE
  5
B5
100
AcDbEntity
  8
SOLDERMASK_PADS_TOP
100
AcDbCircle
 10
1125.0
 20
16418.312
 30
0.0
 40
140.0
  0
CIRCLE
  5
B6
100
AcDbEntity
  8
SOLDERMASK_PADS_TOP
100
AcDbCircle
 10
3439.532
 20
17808.643
 30
0.0
 40
140.0
  0
CIRCLE
  5
B7
100
AcDbEntity
  8
SOLDERMASK_PADS_TOP
100
AcDbCircle
 10
4740.635
 20
13248.739
 30
0.0
 40
140.0
  0
CIRCLE
  5
B8
100
AcDbEntity
  8
SOLDERMASK_PADS_TOP
100
AcDbCircle
 10
14285.0
 20
22326.845
 30
0.0
 40
140.0
  0
CIRCLE
  5
B9
100
AcDbEntity
  8
SOLDERMASK_PADS_TOP
100
AcDbCircle
 10
6913.205
 20
12046.861
 30
0.0
 40
140.0
  0
CIRCLE
  5
BA
100
AcDbEntity
  8
SOLDERMASK_PADS_TOP
100
AcDbCircle
 10
5796.917
 20
12055.0
 30
0.0
 40
140.0
  0
CIRCLE
  5
BB
100
AcDbEntity
  8
SOLDERMASK_PADS_TOP
100
AcDbCircle
 10
4985.214
 20
9229.72
 30
0.0
 40
140.0
  0
CIRCLE
  5
BC
100
AcDbEntity
  8
SOLDERMASK_PADS_TOP
100
AcDbCircle
 10
4993.476
 20
8331.457
 30
0.0
 40
140.0
  0
CIRCLE
  5
BD
100
AcDbEntity
  8
SOLDERMASK_PADS_TOP
100
AcDbCircle
 10
5016.426
 20
7065.535
 30
0.0
 40
140.0
  0
CIRCLE
  5
BE
100
AcDbEntity
  8
SOLDERMASK_PADS_TOP
100
AcDbCircle
 10
16891.978
 20
4040.83
 30
0.0
 40
140.0
  0
CIRCLE
  5
BF
100
AcDbEntity
  8
SOLDERMASK_PADS_TOP
100
AcDbCircle
 10
11508.406
 20
4064.24
 30
0.0
 40
140.0
  0
CIRCLE
  5
C0
100
AcDbEntity
  8
SOLDERMASK_PADS_TOP
100
AcDbCircle
 10
4482.323
 20
14025.45
 30
0.0
 40
140.0
  0
CIRCLE
  5
C1
100
AcDbEntity
  8
SOLDERMASK_PADS_TOP
100
AcDbCircle
 10
6059.415
 20
17610.355
 30
0.0
 40
140.0
  0
CIRCLE
  5
C2
100
AcDbEntity
  8
SOLDERMASK_PADS_TOP
100
AcDbCircle
 10
7115.0
 20
16258.445
 30
0.0
 40
140.0
  0
CIRCLE
  5
C3
100
AcDbEntity
  8
SOLDERMASK_PADS_TOP
100
AcDbCircle
 10
7346.478
 20
14552.831
 30
0.0
 40
140.0
  0
CIRCLE
  5
C4
100
AcDbEntity
  8
SOLDERMASK_PADS_TOP
100
AcDbCircle
 10
7123.681
 20
13769.448
 30
0.0
 40
140.0
  0
CIRCLE
  5
C5
100
AcDbEntity
  8
SOLDERMASK_PADS_TOP
100
AcDbCircle
 10
2931.553
 20
24418.811
 30
0.0
 40
140.0
  0
CIRCLE
  5
C6
100
AcDbEntity
  8
SOLDERMASK_PADS_TOP
100
AcDbCircle
 10
2437.434
 20
27935.0
 30
0.0
 40
140.0
  0
CIRCLE
  5
C7
100
AcDbEntity
  8
SOLDERMASK_PADS_TOP
100
AcDbCircle
 10
2688.252
 20
21208.841
 30
0.0
 40
140.0
  0
CIRCLE
  5
C8
100
AcDbEntity
  8
SOLDERMASK_PADS_TOP
100
AcDbCircle
 10
1351.732
 20
26497.72
 30
0.0
 40
140.0
  0
CIRCLE
  5
C9
100
AcDbEntity
  8
SOLDERMASK_PADS_TOP
100
AcDbCircle
 10
1551.122
 20
24678.458
 30
0.0
 40
140.0
  0
CIRCLE
  5
CA
100
AcDbEntity
  8
SOLDERMASK_PADS_TOP
100
AcDbCircle
 10
2588.39
 20
39265.549
 30
0.0
 40
140.0
  0
CIRCLE
  5
CB
100
AcDbEntity
  8
SOLDERMASK_PADS_TOP
100
AcDbCircle
 10
12825.387
 20
20864.477
 30
0.0
 40
140.0
  0
CIRCLE
  5
CC
100
AcDbEntity
  8
SOLDERMASK_PADS_TOP
100
AcDbCircle
 10
8001.077
 20
27094.355
 30
0.0
 40
140.0
  0
CIRCLE
  5
CD
100
AcDbEntity
  8
SOLDERMASK_PADS_TOP
100
AcDbCircle
 10
14298.493
 20
23879.921
 30
0.0
 40
140.0
  0
CIRCLE
  5
CE
100
AcDbEntity
  8
SOLDERMASK_PADS_TOP
100
AcDbCircle
 10
17836.045
 20
24053.227
 30
0.0
 40
140.0
  0
CIRCLE
  5
CF
100
AcDbEntity
  8
SOLDERMASK_PADS_TOP
100
AcDbCircle
 10
9471.424
 20
22813.928
 30
0.0
 40
140.0
  0
CIRCLE
  5
D0
100
AcDbEntity
  8
SOLDERMASK_PADS_TOP
100
AcDbCircle
 10
17790.41
 20
25694.625
 30
0.0
 40
140.0
  0
CIRCLE
  5
D1
100
AcDbEntity
  8
SOLDERMASK_PADS_TOP
100
AcDbCircle
 10
17825.672
 20
27152.4
 30
0.0
 40
140.0
  0
CIRCLE
  5
D2
100
AcDbEntity
  8
SOLDERMASK_PADS_TOP
100
AcDbCircle
 10
14388.215
 20
25482.566
 30
0.0
 40
140.0
  0
CIRCLE
  5
D3
100
AcDbEntity
  8
SOLDERMASK_PADS_TOP
100
AcDbCircle
 10
17504.035
 20
20151.349
 30
0.0
 40
140.0
  0
CIRCLE
  5
D4
100
AcDbEntity
  8
SOLDERMASK_PADS_TOP
100
AcDbCircle
 10
16704.031
 20
20151.349
 30
0.0
 40
140.0
  0
CIRCLE
  5
D5
100
AcDbEntity
  8
SOLDERMASK_PADS_TOP
100
AcDbCircle
 10
10974.378
 20
20788.791
 30
0.0
 40
140.0
  0
CIRCLE
  5
D6
100
AcDbEntity
  8
SOLDERMASK_PADS_TOP
100
AcDbCircle
 10
10174.374
 20
20788.791
 30
0.0
 40
140.0
  0
CIRCLE
  5
D7
100
AcDbEntity
  8
SOLDERMASK_PADS_TOP
100
AcDbCircle
 10
8902.721
 20
30168.222
 30
0.0
 40
140.0
  0
CIRCLE
  5
D8
100
AcDbEntity
  8
SOLDERMASK_PADS_TOP
100
AcDbCircle
 10
8199.358
 20
6202.14
 30
0.0
 40
190.0
  0
CIRCLE
  5
D9
100
AcDbEntity
  8
SOLDERMASK_PADS_TOP
100
AcDbCircle
 10
1548.333
 20
6285.464
 30
0.0
 40
190.0
  0
CIRCLE
  5
DA
100
AcDbEntity
  8
SOLDERMASK_PADS_TOP
100
AcDbCircle
 10
4988.759
 20
21417.946
 30
0.0
 40
140.0
  0
CIRCLE
  5
DB
100
AcDbEntity
  8
SOLDERMASK_PADS_TOP
100
AcDbCircle
 10
8047.057
 20
26294.355
 30
0.0
 40
140.0
  0
CIRCLE
  5
DC
100
AcDbEntity
  8
SOLDERMASK_PADS_TOP
100
AcDbCircle
 10
1422.498
 20
27394.3
 30
0.0
 40
140.0
  0
CIRCLE
  5
DD
100
AcDbEntity
  8
SOLDERMASK_PADS_TOP
100
AcDbCircle
 10
18694.902
 20
2742.36
 30
0.0
 40
140.0
  0
CIRCLE
  5
DE
100
AcDbEntity
  8
SOLDERMASK_PADS_TOP
100
AcDbCircle
 10
17894.898
 20
2742.36
 30
0.0
 40
140.0
  0
CIRCLE
  5
DF
100
AcDbEntity
  8
SOLDERMASK_PADS_TOP
100
AcDbCircle
 10
7918.641
 20
34379.178
 30
0.0
 40
140.0
  0
CIRCLE
  5
E0
100
AcDbEntity
  8
SOLDERMASK_PADS_TOP
100
AcDbCircle
 10
9957.649
 20
36242.201
 30
0.0
 40
140.0
  0
CIRCLE
  5
E1
100
AcDbEntity
  8
SOLDERMASK_PADS_TOP
100
AcDbCircle
 10
7142.346
 20
6841.651
 30
0.0
 40
140.0
  0
CIRCLE
  5
E2
100
AcDbEntity
  8
SOLDERMASK_PADS_TOP
100
AcDbCircle
 10
6342.342
 20
6841.651
 30
0.0
 40
140.0
  0
CIRCLE
  5
E3
100
AcDbEntity
  8
SOLDERMASK_PADS_TOP
100
AcDbCircle
 10
14017.314
 20
39041.664
 30
0.0
 40
140.0
  0
CIRCLE
  5
E4
100
AcDbEntity
  8
SOLDERMASK_PADS_TOP
100
AcDbCircle
 10
4269.64
 20
27139.758
 30
0.0
 40
140.0
  0
CIRCLE
  5
E5
100
AcDbEntity
  8
SOLDERMASK_PADS_TOP
100
AcDbCircle
 10
2943.569
 20
11624.069
 30
0.0
 40
140.0
  0
CIRCLE
  5
E6
100
AcDbEntity
  8
SOLDERMASK_PADS_TOP
100
AcDbCircle
 10
6819.382
 20
27514.94
 30
0.0
 40
140.0
  0
CIRCLE
  5
E7
100
AcDbEntity
  8
SOLDERMASK_PADS_TOP
100
AcDbCircle
 10
2492.973
 20
31755.0
 30
0.0
 40
140.0
  0
CIRCLE
  5
E8
100
AcDbEntity
  8
SOLDERMASK_PADS_TOP
100
AcDbCircle
 10
2301.916
 20
29008.658
 30
0.0
 40
140.0
  0
CIRCLE
  5
E9
100
AcDbEntity
  8
SOLDERMASK_PADS_TOP
100
AcDbCircle
 10
1125.0
 20
19817.737
 30
0.0
 40
140.0
  0
CIRCLE
  5
EA
100
AcDbEntity
  8
SOLDERMASK_PADS_TOP
100
AcDbCircle
 10
1395.26
 20
39275.0
 30
0.0
 40
140.0
  0
CIRCLE
  5
EB
100
AcDbEntity
  8
SOLDERMASK_PADS_TOP
100
AcDbCircle
 10
3910.88
 20
39228.9
 30
0.0
 40
140.0
  0
CIRCLE
  5
EC
100
AcDbEntity
  8
SOLDERMASK_PADS_TOP
100
AcDbCircle
 10
12209.899
 20
22413.588
 30
0.0
 40
140.0
  0
CIRCLE
  5
ED
100
AcDbEntity
  8
SOLDERMASK_PADS_TOP
100
AcDbCircle
 10
12563.373
 20
38239.828
 30
0.0
 40
140.0
  0
CIRCLE
  5
EE
100
AcDbEntity
  8
SOLDERMASK_PADS_TOP
100
AcDbCircle
 10
6290.832
 20
33342.08
 30
0.0
 40
140.0
  0
CIRCLE
  5
EF
100
AcDbEntity
  8
SOLDERMASK_PADS_TOP
100
AcDbCircle
 10
8519.383
 20
36964.431
 30
0.0
 40
140.0
  0
CIRCLE
  5
F0
100
AcDbEntity
  8
SOLDERMASK_PADS_TOP
100
AcDbCircle
 10
1924.943
 20
16408.727
 30
0.0
 40
140.0
  0
CIRCLE
  5
F1
100
AcDbEntity
  8
SOLDERMASK_PADS_TOP
100
AcDbCircle
 10
1125.0
 20
14143.939
 30
0.0
 40
140.0
  0
CIRCLE
  5
F2
100
AcDbEntity
  8
SOLDERMASK_PADS_TOP
100
AcDbCircle
 10
12403.182
 20
32651.772
 30
0.0
 40
140.0
  0
CIRCLE
  5
F3
100
AcDbEntity
  8
SOLDERMASK_PADS_TOP
100
AcDbCircle
 10
5329.588
 20
29748.422
 30
0.0
 40
140.0
  0
CIRCLE
  5
F4
100
AcDbEntity
  8
SOLDERMASK_PADS_TOP
100
AcDbCircle
 10
10360.502
 20
36944.399
 30
0.0
 40
140.0
  0
CIRCLE
  5
F5
100
AcDbEntity
  8
SOLDERMASK_PADS_TOP
100
AcDbCircle
 10
4875.775
 20
39270.077
 30
0.0
 40
140.0
  0
CIRCLE
  5
F6
100
AcDbEntity
  8
SOLDERMASK_PADS_TOP
100
AcDbCircle
 10
2639.532
 20
18189.983
 30
0.0
 40
140.0
  0
CIRCLE
  5
F7
100
AcDbEntity
  8
SOLDERMASK_PADS_TOP
100
AcDbCircle
 10
4270.899
 20
35051.169
 30
0.0
 40
140.0
  0
CIRCLE
  5
F8
100
AcDbEntity
  8
SOLDERMASK_PADS_TOP
100
AcDbCircle
 10
4524.464
 20
36471.906
 30
0.0
 40
140.0
  0
CIRCLE
  5
F9
100
AcDbEntity
  8
SOLDERMASK_PADS_TOP
100
AcDbCircle
 10
5340.0
 20
30555.108
 30
0.0
 40
140.0
  0
CIRCLE
  5
FA
100
AcDbEntity
  8
SOLDERMASK_PADS_TOP
100
AcDbCircle
 10
17803.066
 20
23064.531
 30
0.0
 40
140.0
  0
CIRCLE
  5
FB
100
AcDbEntity
  8
SOLDERMASK_PADS_TOP
100
AcDbCircle
 10
9051.616
 20
27606.957
 30
0.0
 40
140.0
  0
CIRCLE
  5
FC
100
AcDbEntity
  8
SOLDERMASK_PADS_TOP
100
AcDbCircle
 10
17785.0
 20
22007.163
 30
0.0
 40
140.0
  0
CIRCLE
  5
FD
100
AcDbEntity
  8
SOLDERMASK_PADS_TOP
100
AcDbCircle
 10
13844.71
 20
31614.745
 30
0.0
 40
140.0
  0
CIRCLE
  5
FE
100
AcDbEntity
  8
SOLDERMASK_PADS_TOP
100
AcDbCircle
 10
13844.71
 20
32414.746
 30
0.0
 40
140.0
  0
CIRCLE
  5
FF
100
AcDbEntity
  8
SOLDERMASK_PADS_TOP
100
AcDbCircle
 10
16074.84
 20
30637.372
 30
0.0
 40
140.0
  0
CIRCLE
  5
100
100
AcDbEntity
  8
SOLDERMASK_PADS_TOP
100
AcDbCircle
 10
16874.841
 20
30637.372
 30
0.0
 40
140.0
  0
CIRCLE
  5
101
100
AcDbEntity
  8
SOLDERMASK_PADS_TOP
100
AcDbCircle
 10
13377.916
 20
35280.051
 30
0.0
 40
140.0
  0
CIRCLE
  5
102
100
AcDbEntity
  8
SOLDERMASK_PADS_TOP
100
AcDbCircle
 10
13312.127
 20
36123.659
 30
0.0
 40
140.0
  0
CIRCLE
  5
103
100
AcDbEntity
  8
SOLDERMASK_PADS_TOP
100
AcDbCircle
 10
6856.291
 20
18457.675
 30
0.0
 40
190.0
  0
CIRCLE
  5
104
100
AcDbEntity
  8
SOLDERMASK_PADS_TOP
100
AcDbCircle
 10
7860.292
 20
18457.675
 30
0.0
 40
190.0
  0
CIRCLE
  5
105
100
AcDbEntity
  8
SOLDERMASK_PADS_TOP
100
AcDbCircle
 10
10147.14
 20
25339.825
 30
0.0
 40
190.0
  0
CIRCLE
  5
106
100
AcDbEntity
  8
SOLDERMASK_PADS_TOP
100
AcDbCircle
 10
9143.139
 20
25339.825
 30
0.0
 40
190.0
  0
CIRCLE
  5
107
100
AcDbEntity
  8
SOLDERMASK_PADS_TOP
100
AcDbCircle
 10
11992.272
 20
24934.424
 30
0.0
 40
190.0
  0
CIRCLE
  5
108
100
AcDbEntity
  8
SOLDERMASK_PADS_TOP
100
AcDbCircle
 10
11392.247
 20
26065.872
 30
0.0
 40
190.0
  0
CIRCLE
  5
109
100
AcDbEntity
  8
SOLDERMASK_PADS_TOP
100
AcDbCircle
 10
3802.914
 20
32990.074
 30
0.0
 40
140.0
  0
CIRCLE
  5
10A
100
AcDbEntity
  8
SOLDERMASK_PADS_TOP
100
AcDbCircle
 10
15735.0
 20
23826.914
 30
0.0
 40
140.0
  0
CIRCLE
  5
10B
100
AcDbEntity
  8
SOLDERMASK_PADS_TOP
100
AcDbCircle
 10
8745.608
 20
15962.822
 30
0.0
 40
140.0
  0
CIRCLE
  5
10C
100
AcDbEntity
  8
SOLDERMASK_PADS_TOP
100
AcDbCircle
 10
11916.788
 20
23229.564
 30
0.0
 40
140.0
  0
CIRCLE
  5
10D
100
AcDbEntity
  8
SOLDERMASK_PADS_TOP
100
AcDbCircle
 10
2105.579
 20
24101.544
 30
0.0
 40
140.0
  0
CIRCLE
  5
10E
100
AcDbEntity
  8
SOLDERMASK_PADS_TOP
100
AcDbCircle
 10
1379.385
 20
31755.0
 30
0.0
 40
140.0
  0
LWPOLYLINE
  5
10F
100
AcDbEntity
  8
SOLDERMASK_PADS_TOP
100
AcDbPolyline
 90
        4
 70
         1
 10
5200.0
 20
33410.0
 10
5200.0
 20
33810.0
 10
5700.0
 20
33810.0
 10
5700.0
 20
33410.0
  0
LWPOLYLINE
  5
110
100
AcDbEntity
  8
SOLDERMASK_PADS_TOP
100
AcDbPolyline
 90
        4
 70
         1
 10
5200.0
 20
34210.0
 10
5200.0
 20
34610.0
 10
5700.0
 20
34610.0
 10
5700.0
 20
34210.0
  0
LWPOLYLINE
  5
111
100
AcDbEntity
  8
SOLDERMASK_PADS_TOP
100
AcDbPolyline
 90
        4
 70
         1
 10
6770.0
 20
33380.0
 10
6770.0
 20
33880.0
 10
7170.0
 20
33880.0
 10
7170.0
 20
33380.0
  0
LWPOLYLINE
  5
112
100
AcDbEntity
  8
SOLDERMASK_PADS_TOP
100
AcDbPolyline
 90
        4
 70
         1
 10
7570.0
 20
33380.0
 10
7570.0
 20
33880.0
 10
7970.0
 20
33880.0
 10
7970.0
 20
33380.0
  0
LWPOLYLINE
  5
113
100
AcDbEntity
  8
SOLDERMASK_PADS_TOP
100
AcDbPolyline
 90
        4
 70
         1
 10
15380.0
 20
33070.0
 10
15380.0
 20
34670.0
 10
16980.0
 20
34670.0
 10
16980.0
 20
33070.0
  0
LWPOLYLINE
  5
114
100
AcDbEntity
  8
SOLDERMASK_PADS_TOP
100
AcDbPolyline
 90
        4
 70
         1
 10
9070.0
 20
35930.0
 10
9070.0
 20
36430.0
 10
9470.0
 20
36430.0
 10
9470.0
 20
35930.0
  0
LWPOLYLINE
  5
115
100
AcDbEntity
  8
SOLDERMASK_PADS_TOP
100
AcDbPolyline
 90
        4
 70
         1
 10
8270.0
 20
35930.0
 10
8270.0
 20
36430.0
 10
8670.0
 20
36430.0
 10
8670.0
 20
35930.0
  0
LWPOLYLINE
  5
116
100
AcDbEntity
  8
SOLDERMASK_PADS_TOP
100
AcDbPolyline
 90
        4
 70
         1
 10
7570.0
 20
35880.0
 10
7570.0
 20
36480.0
 10
7970.0
 20
36480.0
 10
7970.0
 20
35880.0
  0
LWPOLYLINE
  5
117
100
AcDbEntity
  8
SOLDERMASK_PADS_TOP
100
AcDbPolyline
 90
        4
 70
         1
 10
6770.0
 20
35880.0
 10
6770.0
 20
36480.0
 10
7170.0
 20
36480.0
 10
7170.0
 20
35880.0
  0
LWPOLYLINE
  5
118
100
AcDbEntity
  8
SOLDERMASK_PADS_TOP
100
AcDbPolyline
 90
        4
 70
         1
 10
7630.0
 20
36720.0
 10
7630.0
 20
37220.0
 10
8030.0
 20
37220.0
 10
8030.0
 20
36720.0
  0
LWPOLYLINE
  5
119
100
AcDbEntity
  8
SOLDERMASK_PADS_TOP
100
AcDbPolyline
 90
        4
 70
         1
 10
6830.0
 20
36720.0
 10
6830.0
 20
37220.0
 10
7230.0
 20
37220.0
 10
7230.0
 20
36720.0
  0
LWPOLYLINE
  5
11A
100
AcDbEntity
  8
SOLDERMASK_PADS_TOP
100
AcDbPolyline
 90
        4
 70
         1
 10
7120.0
 20
30700.0
 10
7120.0
 20
31200.0
 10
7520.0
 20
31200.0
 10
7520.0
 20
30700.0
  0
LWPOLYLINE
  5
11B
100
AcDbEntity
  8
SOLDERMASK_PADS_TOP
100
AcDbPolyline
 90
        4
 70
         1
 10
7920.0
 20
30700.0
 10
7920.0
 20
31200.0
 10
8320.0
 20
31200.0
 10
8320.0
 20
30700.0
  0
LWPOLYLINE
  5
11C
100
AcDbEntity
  8
SOLDERMASK_PADS_TOP
100
AcDbPolyline
 90
        4
 70
         1
 10
7120.0
 20
29990.0
 10
7120.0
 20
30490.0
 10
7520.0
 20
30490.0
 10
7520.0
 20
29990.0
  0
LWPOLYLINE
  5
11D
100
AcDbEntity
  8
SOLDERMASK_PADS_TOP
100
AcDbPolyline
 90
        4
 70
         1
 10
7920.0
 20
29990.0
 10
7920.0
 20
30490.0
 10
8320.0
 20
30490.0
 10
8320.0
 20
29990.0
  0
LWPOLYLINE
  5
11E
100
AcDbEntity
  8
SOLDERMASK_PADS_TOP
100
AcDbPolyline
 90
        4
 70
         1
 10
13050.0
 20
37700.0
 10
13050.0
 20
38300.0
 10
13450.0
 20
38300.0
 10
13450.0
 20
37700.0
  0
LWPOLYLINE
  5
11F
100
AcDbEntity
  8
SOLDERMASK_PADS_TOP
100
AcDbPolyline
 90
        4
 70
         1
 10
13850.0
 20
37700.0
 10
13850.0
 20
38300.0
 10
14250.0
 20
38300.0
 10
14250.0
 20
37700.0
  0
LWPOLYLINE
  5
120
100
AcDbEntity
  8
SOLDERMASK_PADS_TOP
100
AcDbPolyline
 90
        4
 70
         1
 10
12920.0
 20
4310.0
 10
12920.0
 20
4910.0
 10
13600.0
 20
4910.0
 10
13600.0
 20
4310.0
  0
LWPOLYLINE
  5
121
100
AcDbEntity
  8
SOLDERMASK_PADS_TOP
100
AcDbPolyline
 90
        4
 70
         1
 10
13470.0
 20
4310.0
 10
13470.0
 20
4910.0
 10
14150.0
 20
4910.0
 10
14150.0
 20
4310.0
  0
LWPOLYLINE
  5
122
100
AcDbEntity
  8
SOLDERMASK_PADS_TOP
100
AcDbPolyline
 90
        4
 70
         1
 10
12920.0
 20
5260.0
 10
12920.0
 20
5860.0
 10
13600.0
 20
5860.0
 10
13600.0
 20
5260.0
  0
LWPOLYLINE
  5
123
100
AcDbEntity
  8
SOLDERMASK_PADS_TOP
100
AcDbPolyline
 90
        4
 70
         1
 10
15620.0
 20
3360.0
 10
15620.0
 20
3960.0
 10
16300.0
 20
3960.0
 10
16300.0
 20
3360.0
  0
LWPOLYLINE
  5
124
100
AcDbEntity
  8
SOLDERMASK_PADS_TOP
100
AcDbPolyline
 90
        4
 70
         1
 10
15620.0
 20
5260.0
 10
15620.0
 20
5860.0
 10
16300.0
 20
5860.0
 10
16300.0
 20
5260.0
  0
LWPOLYLINE
  5
125
100
AcDbEntity
  8
SOLDERMASK_PADS_TOP
100
AcDbPolyline
 90
        4
 70
         1
 10
12920.0
 20
3360.0
 10
12920.0
 20
3960.0
 10
13600.0
 20
3960.0
 10
13600.0
 20
3360.0
  0
CIRCLE
  5
126
100
AcDbEntity
  8
SOLDERMASK_PADS_TOP
100
AcDbCircle
 10
8810.0
 20
8480.0
 30
0.0
 40
800.0
  0
LWPOLYLINE
  5
127
100
AcDbEntity
  8
SOLDERMASK_PADS_TOP
100
AcDbPolyline
 90
        4
 70
         1
 10
2070.0
 20
29820.0
 10
2070.0
 20
30320.0
 10
2470.0
 20
30320.0
 10
2470.0
 20
29820.0
  0
LWPOLYLINE
  5
128
100
AcDbEntity
  8
SOLDERMASK_PADS_TOP
100
AcDbPolyline
 90
        4
 70
         1
 10
1270.0
 20
29820.0
 10
1270.0
 20
30320.0
 10
1670.0
 20
30320.0
 10
1670.0
 20
29820.0
  0
LWPOLYLINE
  5
129
100
AcDbEntity
  8
SOLDERMASK_PADS_TOP
100
AcDbPolyline
 90
        4
 70
         1
 10
2070.0
 20
30780.0
 10
2070.0
 20
31280.0
 10
2470.0
 20
31280.0
 10
2470.0
 20
30780.0
  0
LWPOLYLINE
  5
12A
100
AcDbEntity
  8
SOLDERMASK_PADS_TOP
100
AcDbPolyline
 90
        4
 70
         1
 10
1270.0
 20
30780.0
 10
1270.0
 20
31280.0
 10
1670.0
 20
31280.0
 10
1670.0
 20
30780.0
  0
LWPOLYLINE
  5
12B
100
AcDbEntity
  8
SOLDERMASK_PADS_TOP
100
AcDbPolyline
 90
        4
 70
         1
 10
6320.0
 20
26550.0
 10
6320.0
 20
27050.0
 10
6720.0
 20
27050.0
 10
6720.0
 20
26550.0
  0
LWPOLYLINE
  5
12C
100
AcDbEntity
  8
SOLDERMASK_PADS_TOP
100
AcDbPolyline
 90
        4
 70
         1
 10
7120.0
 20
26550.0
 10
7120.0
 20
27050.0
 10
7520.0
 20
27050.0
 10
7520.0
 20
26550.0
  0
LWPOLYLINE
  5
12D
100
AcDbEntity
  8
SOLDERMASK_PADS_TOP
100
AcDbPolyline
 90
        4
 70
         1
 10
6270.0
 20
25590.0
 10
6270.0
 20
26090.0
 10
6670.0
 20
26090.0
 10
6670.0
 20
25590.0
  0
LWPOLYLINE
  5
12E
100
AcDbEntity
  8
SOLDERMASK_PADS_TOP
100
AcDbPolyline
 90
        4
 70
         1
 10
7070.0
 20
25590.0
 10
7070.0
 20
26090.0
 10
7470.0
 20
26090.0
 10
7470.0
 20
25590.0
  0
LWPOLYLINE
  5
12F
100
AcDbEntity
  8
SOLDERMASK_PADS_TOP
100
AcDbPolyline
 90
        4
 70
         1
 10
6250.0
 20
24630.0
 10
6250.0
 20
25130.0
 10
6650.0
 20
25130.0
 10
6650.0
 20
24630.0
  0
LWPOLYLINE
  5
130
100
AcDbEntity
  8
SOLDERMASK_PADS_TOP
100
AcDbPolyline
 90
        4
 70
         1
 10
7050.0
 20
24630.0
 10
7050.0
 20
25130.0
 10
7450.0
 20
25130.0
 10
7450.0
 20
24630.0
  0
LWPOLYLINE
  5
131
100
AcDbEntity
  8
SOLDERMASK_PADS_TOP
100
AcDbPolyline
 90
        4
 70
         1
 10
1940.0
 20
27060.0
 10
1940.0
 20
27460.0
 10
2440.0
 20
27460.0
 10
2440.0
 20
27060.0
  0
LWPOLYLINE
  5
132
100
AcDbEntity
  8
SOLDERMASK_PADS_TOP
100
AcDbPolyline
 90
        4
 70
         1
 10
1940.0
 20
26260.0
 10
1940.0
 20
26660.0
 10
2440.0
 20
26660.0
 10
2440.0
 20
26260.0
  0
LWPOLYLINE
  5
133
100
AcDbEntity
  8
SOLDERMASK_PADS_TOP
100
AcDbPolyline
 90
        4
 70
         1
 10
1340.0
 20
25290.0
 10
1340.0
 20
25790.0
 10
1740.0
 20
25790.0
 10
1740.0
 20
25290.0
  0
LWPOLYLINE
  5
134
100
AcDbEntity
  8
SOLDERMASK_PADS_TOP
100
AcDbPolyline
 90
        4
 70
         1
 10
2140.0
 20
25290.0
 10
2140.0
 20
25790.0
 10
2540.0
 20
25790.0
 10
2540.0
 20
25290.0
  0
LWPOLYLINE
  5
135
100
AcDbEntity
  8
SOLDERMASK_PADS_TOP
100
AcDbPolyline
 90
        4
 70
         1
 10
4990.0
 20
26640.0
 10
4990.0
 20
26940.0
 10
5790.0
 20
26940.0
 10
5790.0
 20
26640.0
  0
LWPOLYLINE
  5
136
100
AcDbEntity
  8
SOLDERMASK_PADS_TOP
100
AcDbPolyline
 90
        4
 70
         1
 10
4990.0
 20
25990.0
 10
4990.0
 20
26290.0
 10
5790.0
 20
26290.0
 10
5790.0
 20
25990.0
  0
LWPOLYLINE
  5
137
100
AcDbEntity
  8
SOLDERMASK_PADS_TOP
100
AcDbPolyline
 90
        4
 70
         1
 10
4990.0
 20
25340.0
 10
4990.0
 20
25640.0
 10
5790.0
 20
25640.0
 10
5790.0
 20
25340.0
  0
LWPOLYLINE
  5
138
100
AcDbEntity
  8
SOLDERMASK_PADS_TOP
100
AcDbPolyline
 90
        4
 70
         1
 10
2990.0
 20
26640.0
 10
2990.0
 20
26940.0
 10
3790.0
 20
26940.0
 10
3790.0
 20
26640.0
  0
LWPOLYLINE
  5
139
100
AcDbEntity
  8
SOLDERMASK_PADS_TOP
100
AcDbPolyline
 90
        4
 70
         1
 10
2990.0
 20
25990.0
 10
2990.0
 20
26290.0
 10
3790.0
 20
26290.0
 10
3790.0
 20
25990.0
  0
LWPOLYLINE
  5
13A
100
AcDbEntity
  8
SOLDERMASK_PADS_TOP
100
AcDbPolyline
 90
        4
 70
         1
 10
2990.0
 20
25340.0
 10
2990.0
 20
25640.0
 10
3790.0
 20
25640.0
 10
3790.0
 20
25340.0
  0
LWPOLYLINE
  5
13B
100
AcDbEntity
  8
SOLDERMASK_PADS_TOP
100
AcDbPolyline
 90
        4
 70
         1
 10
1170.0
 20
38260.0
 10
1170.0
 20
38760.0
 10
1570.0
 20
38760.0
 10
1570.0
 20
38260.0
  0
LWPOLYLINE
  5
13C
100
AcDbEntity
  8
SOLDERMASK_PADS_TOP
100
AcDbPolyline
 90
        4
 70
         1
 10
1970.0
 20
38260.0
 10
1970.0
 20
38760.0
 10
2370.0
 20
38760.0
 10
2370.0
 20
38260.0
  0
LWPOLYLINE
  5
13D
100
AcDbEntity
  8
SOLDERMASK_PADS_TOP
100
AcDbPolyline
 90
        4
 70
         1
 10
2860.0
 20
38210.0
 10
2860.0
 20
38710.0
 10
3260.0
 20
38710.0
 10
3260.0
 20
38210.0
  0
LWPOLYLINE
  5
13E
100
AcDbEntity
  8
SOLDERMASK_PADS_TOP
100
AcDbPolyline
 90
        4
 70
         1
 10
3660.0
 20
38210.0
 10
3660.0
 20
38710.0
 10
4060.0
 20
38710.0
 10
4060.0
 20
38210.0
  0
LWPOLYLINE
  5
13F
100
AcDbEntity
  8
SOLDERMASK_PADS_TOP
100
AcDbPolyline
 90
        4
 70
         1
 10
1330.0
 20
32720.0
 10
1330.0
 20
33220.0
 10
1730.0
 20
33220.0
 10
1730.0
 20
32720.0
  0
LWPOLYLINE
  5
140
100
AcDbEntity
  8
SOLDERMASK_PADS_TOP
100
AcDbPolyline
 90
        4
 70
         1
 10
2130.0
 20
32720.0
 10
2130.0
 20
33220.0
 10
2530.0
 20
33220.0
 10
2530.0
 20
32720.0
  0
LWPOLYLINE
  5
141
100
AcDbEntity
  8
SOLDERMASK_PADS_TOP
100
AcDbPolyline
 90
        4
 70
         1
 10
2917.5
 20
32720.0
 10
2917.5
 20
33220.0
 10
3317.5
 20
33220.0
 10
3317.5
 20
32720.0
  0
LWPOLYLINE
  5
142
100
AcDbEntity
  8
SOLDERMASK_PADS_TOP
100
AcDbPolyline
 90
        4
 70
         1
 10
1255.0
 20
36690.0
 10
1255.0
 20
37890.0
 10
1705.0
 20
37890.0
 10
1705.0
 20
36690.0
  0
LWPOLYLINE
  5
143
100
AcDbEntity
  8
SOLDERMASK_PADS_TOP
100
AcDbPolyline
 90
        4
 70
         1
 10
3155.0
 20
36690.0
 10
3155.0
 20
37890.0
 10
3605.0
 20
37890.0
 10
3605.0
 20
36690.0
  0
LWPOLYLINE
  5
144
100
AcDbEntity
  8
SOLDERMASK_PADS_TOP
100
AcDbPolyline
 90
        4
 70
         1
 10
3155.0
 20
33890.0
 10
3155.0
 20
35090.0
 10
3605.0
 20
35090.0
 10
3605.0
 20
33890.0
  0
LWPOLYLINE
  5
145
100
AcDbEntity
  8
SOLDERMASK_PADS_TOP
100
AcDbPolyline
 90
        4
 70
         1
 10
2205.0
 20
33890.0
 10
2205.0
 20
35090.0
 10
2655.0
 20
35090.0
 10
2655.0
 20
33890.0
  0
LWPOLYLINE
  5
146
100
AcDbEntity
  8
SOLDERMASK_PADS_TOP
100
AcDbPolyline
 90
        4
 70
         1
 10
1255.0
 20
33890.0
 10
1255.0
 20
35090.0
 10
1705.0
 20
35090.0
 10
1705.0
 20
33890.0
  0
LWPOLYLINE
  5
147
100
AcDbEntity
  8
SOLDERMASK_PADS_TOP
100
AcDbPolyline
 90
        4
 70
         1
 10
1670.0
 20
15410.0
 10
1670.0
 20
15910.0
 10
2070.0
 20
15910.0
 10
2070.0
 20
15410.0
  0
LWPOLYLINE
  5
148
100
AcDbEntity
  8
SOLDERMASK_PADS_TOP
100
AcDbPolyline
 90
        4
 70
         1
 10
870.0
 20
15410.0
 10
870.0
 20
15910.0
 10
1270.0
 20
15910.0
 10
1270.0
 20
15410.0
  0
LWPOLYLINE
  5
149
100
AcDbEntity
  8
SOLDERMASK_PADS_TOP
100
AcDbPolyline
 90
        4
 70
         1
 10
1690.0
 20
17710.0
 10
1690.0
 20
18210.0
 10
2090.0
 20
18210.0
 10
2090.0
 20
17710.0
  0
LWPOLYLINE
  5
14A
100
AcDbEntity
  8
SOLDERMASK_PADS_TOP
100
AcDbPolyline
 90
        4
 70
         1
 10
890.0
 20
17710.0
 10
890.0
 20
18210.0
 10
1290.0
 20
18210.0
 10
1290.0
 20
17710.0
  0
LWPOLYLINE
  5
14B
100
AcDbEntity
  8
SOLDERMASK_PADS_TOP
100
AcDbPolyline
 90
        4
 70
         1
 10
1670.0
 20
18670.0
 10
1670.0
 20
19170.0
 10
2070.0
 20
19170.0
 10
2070.0
 20
18670.0
  0
LWPOLYLINE
  5
14C
100
AcDbEntity
  8
SOLDERMASK_PADS_TOP
100
AcDbPolyline
 90
        4
 70
         1
 10
870.0
 20
18670.0
 10
870.0
 20
19170.0
 10
1270.0
 20
19170.0
 10
1270.0
 20
18670.0
  0
LWPOLYLINE
  5
14D
100
AcDbEntity
  8
SOLDERMASK_PADS_TOP
100
AcDbPolyline
 90
        4
 70
         1
 10
12030.0
 20
3340.0
 10
12030.0
 20
3740.0
 10
12530.0
 20
3740.0
 10
12530.0
 20
3340.0
  0
LWPOLYLINE
  5
14E
100
AcDbEntity
  8
SOLDERMASK_PADS_TOP
100
AcDbPolyline
 90
        4
 70
         1
 10
12030.0
 20
2540.0
 10
12030.0
 20
2940.0
 10
12530.0
 20
2940.0
 10
12530.0
 20
2540.0
  0
LWPOLYLINE
  5
14F
100
AcDbEntity
  8
SOLDERMASK_PADS_TOP
100
AcDbPolyline
 90
        4
 70
         1
 10
11800.0
 20
5430.0
 10
11800.0
 20
5830.0
 10
12400.0
 20
5830.0
 10
12400.0
 20
5430.0
  0
LWPOLYLINE
  5
150
100
AcDbEntity
  8
SOLDERMASK_PADS_TOP
100
AcDbPolyline
 90
        4
 70
         1
 10
11800.0
 20
4630.0
 10
11800.0
 20
5030.0
 10
12400.0
 20
5030.0
 10
12400.0
 20
4630.0
  0
LWPOLYLINE
  5
151
100
AcDbEntity
  8
SOLDERMASK_PADS_TOP
100
AcDbPolyline
 90
        4
 70
         1
 10
7790.0
 20
5270.0
 10
7790.0
 20
5670.0
 10
8290.0
 20
5670.0
 10
8290.0
 20
5270.0
  0
LWPOLYLINE
  5
152
100
AcDbEntity
  8
SOLDERMASK_PADS_TOP
100
AcDbPolyline
 90
        4
 70
         1
 10
7790.0
 20
4470.0
 10
7790.0
 20
4870.0
 10
8290.0
 20
4870.0
 10
8290.0
 20
4470.0
  0
LWPOLYLINE
  5
153
100
AcDbEntity
  8
SOLDERMASK_PADS_TOP
100
AcDbPolyline
 90
        4
 70
         1
 10
8830.0
 20
4535.0
 10
8830.0
 20
5785.0
 10
9680.0
 20
5785.0
 10
9680.0
 20
4535.0
  0
LWPOLYLINE
  5
154
100
AcDbEntity
  8
SOLDERMASK_PADS_TOP
100
AcDbPolyline
 90
        4
 70
         1
 10
10380.0
 20
4535.0
 10
10380.0
 20
5785.0
 10
11230.0
 20
5785.0
 10
11230.0
 20
4535.0
  0
LWPOLYLINE
  5
155
100
AcDbEntity
  8
SOLDERMASK_PADS_TOP
100
AcDbPolyline
 90
        4
 70
         1
 10
17815.0
 20
3430.0
 10
17815.0
 20
4280.0
 10
19065.0
 20
4280.0
 10
19065.0
 20
3430.0
  0
LWPOLYLINE
  5
156
100
AcDbEntity
  8
SOLDERMASK_PADS_TOP
100
AcDbPolyline
 90
        4
 70
         1
 10
17815.0
 20
4980.0
 10
17815.0
 20
5830.0
 10
19065.0
 20
5830.0
 10
19065.0
 20
4980.0
  0
LWPOLYLINE
  5
157
100
AcDbEntity
  8
SOLDERMASK_PADS_TOP
100
AcDbPolyline
 90
        4
 70
         1
 10
16590.0
 20
5410.0
 10
16590.0
 20
5810.0
 10
17190.0
 20
5810.0
 10
17190.0
 20
5410.0
  0
LWPOLYLINE
  5
158
100
AcDbEntity
  8
SOLDERMASK_PADS_TOP
100
AcDbPolyline
 90
        4
 70
         1
 10
16590.0
 20
4610.0
 10
16590.0
 20
5010.0
 10
17190.0
 20
5010.0
 10
17190.0
 20
4610.0
  0
LWPOLYLINE
  5
159
100
AcDbEntity
  8
SOLDERMASK_PADS_TOP
100
AcDbPolyline
 90
        4
 70
         1
 10
6025.0
 20
7450.0
 10
6025.0
 20
8300.0
 10
7275.0
 20
8300.0
 10
7275.0
 20
7450.0
  0
LWPOLYLINE
  5
15A
100
AcDbEntity
  8
SOLDERMASK_PADS_TOP
100
AcDbPolyline
 90
        4
 70
         1
 10
6025.0
 20
9000.0
 10
6025.0
 20
9850.0
 10
7275.0
 20
9850.0
 10
7275.0
 20
9000.0
  0
LWPOLYLINE
  5
15B
100
AcDbEntity
  8
SOLDERMASK_PADS_TOP
100
AcDbPolyline
 90
        4
 70
         1
 10
1405.0
 20
7090.0
 10
1405.0
 20
7940.0
 10
2655.0
 20
7940.0
 10
2655.0
 20
7090.0
  0
LWPOLYLINE
  5
15C
100
AcDbEntity
  8
SOLDERMASK_PADS_TOP
100
AcDbPolyline
 90
        4
 70
         1
 10
1405.0
 20
8640.0
 10
1405.0
 20
9490.0
 10
2655.0
 20
9490.0
 10
2655.0
 20
8640.0
  0
LWPOLYLINE
  5
15D
100
AcDbEntity
  8
SOLDERMASK_PADS_TOP
100
AcDbPolyline
 90
        4
 70
         1
 10
3200.0
 20
9230.0
 10
3200.0
 20
9730.0
 10
3600.0
 20
9730.0
 10
3600.0
 20
9230.0
  0
LWPOLYLINE
  5
15E
100
AcDbEntity
  8
SOLDERMASK_PADS_TOP
100
AcDbPolyline
 90
        4
 70
         1
 10
4000.0
 20
9230.0
 10
4000.0
 20
9730.0
 10
4400.0
 20
9730.0
 10
4400.0
 20
9230.0
  0
LWPOLYLINE
  5
15F
100
AcDbEntity
  8
SOLDERMASK_PADS_TOP
100
AcDbPolyline
 90
        4
 70
         1
 10
3200.0
 20
7130.0
 10
3200.0
 20
7630.0
 10
3600.0
 20
7630.0
 10
3600.0
 20
7130.0
  0
LWPOLYLINE
  5
160
100
AcDbEntity
  8
SOLDERMASK_PADS_TOP
100
AcDbPolyline
 90
        4
 70
         1
 10
4000.0
 20
7130.0
 10
4000.0
 20
7630.0
 10
4400.0
 20
7630.0
 10
4400.0
 20
7130.0
  0
LWPOLYLINE
  5
161
100
AcDbEntity
  8
SOLDERMASK_PADS_TOP
100
AcDbPolyline
 90
        4
 70
         1
 10
3200.0
 20
8130.0
 10
3200.0
 20
8730.0
 10
3600.0
 20
8730.0
 10
3600.0
 20
8130.0
  0
LWPOLYLINE
  5
162
100
AcDbEntity
  8
SOLDERMASK_PADS_TOP
100
AcDbPolyline
 90
        4
 70
         1
 10
4000.0
 20
8130.0
 10
4000.0
 20
8730.0
 10
4400.0
 20
8730.0
 10
4400.0
 20
8130.0
  0
LWPOLYLINE
  5
163
100
AcDbEntity
  8
SOLDERMASK_PADS_TOP
100
AcDbPolyline
 90
        4
 70
         1
 10
6560.0
 20
10360.0
 10
6560.0
 20
10760.0
 10
7160.0
 20
10760.0
 10
7160.0
 20
10360.0
  0
LWPOLYLINE
  5
164
100
AcDbEntity
  8
SOLDERMASK_PADS_TOP
100
AcDbPolyline
 90
        4
 70
         1
 10
6560.0
 20
11160.0
 10
6560.0
 20
11560.0
 10
7160.0
 20
11560.0
 10
7160.0
 20
11160.0
  0
LWPOLYLINE
  5
165
100
AcDbEntity
  8
SOLDERMASK_PADS_TOP
100
AcDbPolyline
 90
        4
 70
         1
 10
3730.0
 20
10820.0
 10
3730.0
 20
10110.0
 10
3450.0
 20
10110.0
 10
3450.0
 20
10820.0
 42
-1.0
  0
LWPOLYLINE
  5
166
100
AcDbEntity
  8
SOLDERMASK_PADS_TOP
100
AcDbPolyline
 90
        4
 70
         1
 10
3450.0
 20
11500.0
 10
3450.0
 20
12110.0
 10
3730.0
 20
12110.0
 10
3730.0
 20
11500.0
 42
-1.0
  0
LWPOLYLINE
  5
167
100
AcDbEntity
  8
SOLDERMASK_PADS_TOP
100
AcDbPolyline
 90
        4
 70
         1
 10
4230.0
 20
10720.0
 10
4230.0
 20
10110.0
 10
3950.0
 20
10110.0
 10
3950.0
 20
10720.0
 42
-1.0
  0
LWPOLYLINE
  5
168
100
AcDbEntity
  8
SOLDERMASK_PADS_TOP
100
AcDbPolyline
 90
        4
 70
         1
 10
4730.0
 20
10720.0
 10
4730.0
 20
10110.0
 10
4450.0
 20
10110.0
 10
4450.0
 20
10720.0
 42
-1.0
  0
LWPOLYLINE
  5
169
100
AcDbEntity
  8
SOLDERMASK_PADS_TOP
100
AcDbPolyline
 90
        4
 70
         1
 10
4450.0
 20
11500.0
 10
4450.0
 20
12110.0
 10
4730.0
 20
12110.0
 10
4730.0
 20
11500.0
 42
-1.0
  0
LWPOLYLINE
  5
16A
100
AcDbEntity
  8
SOLDERMASK_PADS_TOP
100
AcDbPolyline
 90
        4
 70
         1
 10
3950.0
 20
11500.0
 10
3950.0
 20
12110.0
 10
4230.0
 20
12110.0
 10
4230.0
 20
11500.0
 42
-1.0
  0
LWPOLYLINE
  5
16B
100
AcDbEntity
  8
SOLDERMASK_PADS_TOP
100
AcDbPolyline
 90
        4
 70
         1
 10
5560.0
 20
10360.0
 10
5560.0
 20
10760.0
 10
6060.0
 20
10760.0
 10
6060.0
 20
10360.0
  0
LWPOLYLINE
  5
16C
100
AcDbEntity
  8
SOLDERMASK_PADS_TOP
100
AcDbPolyline
 90
        4
 70
         1
 10
5560.0
 20
11160.0
 10
5560.0
 20
11560.0
 10
6060.0
 20
11560.0
 10
6060.0
 20
11160.0
  0
LWPOLYLINE
  5
16D
100
AcDbEntity
  8
SOLDERMASK_PADS_TOP
100
AcDbPolyline
 90
        4
 70
         1
 10
16210.0
 20
28380.0
 10
16210.0
 20
28680.0
 10
17310.0
 20
28680.0
 10
17310.0
 20
28380.0
  0
LWPOLYLINE
  5
16E
100
AcDbEntity
  8
SOLDERMASK_PADS_TOP
100
AcDbPolyline
 90
        4
 70
         1
 10
12710.0
 20
28380.0
 10
12710.0
 20
28680.0
 10
13810.0
 20
28680.0
 10
13810.0
 20
28380.0
  0
LWPOLYLINE
  5
16F
100
AcDbEntity
  8
SOLDERMASK_PADS_TOP
100
AcDbPolyline
 90
        4
 70
         1
 10
16210.0
 20
27880.0
 10
16210.0
 20
28180.0
 10
17310.0
 20
28180.0
 10
17310.0
 20
27880.0
  0
LWPOLYLINE
  5
170
100
AcDbEntity
  8
SOLDERMASK_PADS_TOP
100
AcDbPolyline
 90
        4
 70
         1
 10
12710.0
 20
27880.0
 10
12710.0
 20
28180.0
 10
13810.0
 20
28180.0
 10
13810.0
 20
27880.0
  0
LWPOLYLINE
  5
171
100
AcDbEntity
  8
SOLDERMASK_PADS_TOP
100
AcDbPolyline
 90
        4
 70
         1
 10
16210.0
 20
27380.0
 10
16210.0
 20
27680.0
 10
17310.0
 20
27680.0
 10
17310.0
 20
27380.0
  0
LWPOLYLINE
  5
172
100
AcDbEntity
  8
SOLDERMASK_PADS_TOP
100
AcDbPolyline
 90
        4
 70
         1
 10
12710.0
 20
27380.0
 10
12710.0
 20
27680.0
 10
13810.0
 20
27680.0
 10
13810.0
 20
27380.0
  0
LWPOLYLINE
  5
173
100
AcDbEntity
  8
SOLDERMASK_PADS_TOP
100
AcDbPolyline
 90
        4
 70
         1
 10
16210.0
 20
26880.0
 10
16210.0
 20
27180.0
 10
17310.0
 20
27180.0
 10
17310.0
 20
26880.0
  0
LWPOLYLINE
  5
174
100
AcDbEntity
  8
SOLDERMASK_PADS_TOP
100
AcDbPolyline
 90
        4
 70
         1
 10
12710.0
 20
26880.0
 10
12710.0
 20
27180.0
 10
13810.0
 20
27180.0
 10
13810.0
 20
26880.0
  0
LWPOLYLINE
  5
175
100
AcDbEntity
  8
SOLDERMASK_PADS_TOP
100
AcDbPolyline
 90
        4
 70
         1
 10
16210.0
 20
26380.0
 10
16210.0
 20
26680.0
 10
17310.0
 20
26680.0
 10
17310.0
 20
26380.0
  0
LWPOLYLINE
  5
176
100
AcDbEntity
  8
SOLDERMASK_PADS_TOP
100
AcDbPolyline
 90
        4
 70
         1
 10
12710.0
 20
26380.0
 10
12710.0
 20
26680.0
 10
13810.0
 20
26680.0
 10
13810.0
 20
26380.0
  0
LWPOLYLINE
  5
177
100
AcDbEntity
  8
SOLDERMASK_PADS_TOP
100
AcDbPolyline
 90
        4
 70
         1
 10
16210.0
 20
25880.0
 10
16210.0
 20
26180.0
 10
17310.0
 20
26180.0
 10
17310.0
 20
25880.0
  0
LWPOLYLINE
  5
178
100
AcDbEntity
  8
SOLDERMASK_PADS_TOP
100
AcDbPolyline
 90
        4
 70
         1
 10
12710.0
 20
25880.0
 10
12710.0
 20
26180.0
 10
13810.0
 20
26180.0
 10
13810.0
 20
25880.0
  0
LWPOLYLINE
  5
179
100
AcDbEntity
  8
SOLDERMASK_PADS_TOP
100
AcDbPolyline
 90
        4
 70
         1
 10
16210.0
 20
25380.0
 10
16210.0
 20
25680.0
 10
17310.0
 20
25680.0
 10
17310.0
 20
25380.0
  0
LWPOLYLINE
  5
17A
100
AcDbEntity
  8
SOLDERMASK_PADS_TOP
100
AcDbPolyline
 90
        4
 70
         1
 10
12710.0
 20
25380.0
 10
12710.0
 20
25680.0
 10
13810.0
 20
25680.0
 10
13810.0
 20
25380.0
  0
LWPOLYLINE
  5
17B
100
AcDbEntity
  8
SOLDERMASK_PADS_TOP
100
AcDbPolyline
 90
        4
 70
         1
 10
16210.0
 20
24880.0
 10
16210.0
 20
25180.0
 10
17310.0
 20
25180.0
 10
17310.0
 20
24880.0
  0
LWPOLYLINE
  5
17C
100
AcDbEntity
  8
SOLDERMASK_PADS_TOP
100
AcDbPolyline
 90
        4
 70
         1
 10
12710.0
 20
24880.0
 10
12710.0
 20
25180.0
 10
13810.0
 20
25180.0
 10
13810.0
 20
24880.0
  0
LWPOLYLINE
  5
17D
100
AcDbEntity
  8
SOLDERMASK_PADS_TOP
100
AcDbPolyline
 90
        4
 70
         1
 10
16210.0
 20
24380.0
 10
16210.0
 20
24680.0
 10
17310.0
 20
24680.0
 10
17310.0
 20
24380.0
  0
LWPOLYLINE
  5
17E
100
AcDbEntity
  8
SOLDERMASK_PADS_TOP
100
AcDbPolyline
 90
        4
 70
         1
 10
12710.0
 20
24380.0
 10
12710.0
 20
24680.0
 10
13810.0
 20
24680.0
 10
13810.0
 20
24380.0
  0
LWPOLYLINE
  5
17F
100
AcDbEntity
  8
SOLDERMASK_PADS_TOP
100
AcDbPolyline
 90
        4
 70
         1
 10
16210.0
 20
23880.0
 10
16210.0
 20
24180.0
 10
17310.0
 20
24180.0
 10
17310.0
 20
23880.0
  0
LWPOLYLINE
  5
180
100
AcDbEntity
  8
SOLDERMASK_PADS_TOP
100
AcDbPolyline
 90
        4
 70
         1
 10
12710.0
 20
23880.0
 10
12710.0
 20
24180.0
 10
13810.0
 20
24180.0
 10
13810.0
 20
23880.0
  0
LWPOLYLINE
  5
181
100
AcDbEntity
  8
SOLDERMASK_PADS_TOP
100
AcDbPolyline
 90
        4
 70
         1
 10
16210.0
 20
23380.0
 10
16210.0
 20
23680.0
 10
17310.0
 20
23680.0
 10
17310.0
 20
23380.0
  0
LWPOLYLINE
  5
182
100
AcDbEntity
  8
SOLDERMASK_PADS_TOP
100
AcDbPolyline
 90
        4
 70
         1
 10
12710.0
 20
23380.0
 10
12710.0
 20
23680.0
 10
13810.0
 20
23680.0
 10
13810.0
 20
23380.0
  0
LWPOLYLINE
  5
183
100
AcDbEntity
  8
SOLDERMASK_PADS_TOP
100
AcDbPolyline
 90
        4
 70
         1
 10
16210.0
 20
22880.0
 10
16210.0
 20
23180.0
 10
17310.0
 20
23180.0
 10
17310.0
 20
22880.0
  0
LWPOLYLINE
  5
184
100
AcDbEntity
  8
SOLDERMASK_PADS_TOP
100
AcDbPolyline
 90
        4
 70
         1
 10
12710.0
 20
22880.0
 10
12710.0
 20
23180.0
 10
13810.0
 20
23180.0
 10
13810.0
 20
22880.0
  0
LWPOLYLINE
  5
185
100
AcDbEntity
  8
SOLDERMASK_PADS_TOP
100
AcDbPolyline
 90
        4
 70
         1
 10
16210.0
 20
22380.0
 10
16210.0
 20
22680.0
 10
17310.0
 20
22680.0
 10
17310.0
 20
22380.0
  0
LWPOLYLINE
  5
186
100
AcDbEntity
  8
SOLDERMASK_PADS_TOP
100
AcDbPolyline
 90
        4
 70
         1
 10
12710.0
 20
22380.0
 10
12710.0
 20
22680.0
 10
13810.0
 20
22680.0
 10
13810.0
 20
22380.0
  0
LWPOLYLINE
  5
187
100
AcDbEntity
  8
SOLDERMASK_PADS_TOP
100
AcDbPolyline
 90
        4
 70
         1
 10
16210.0
 20
21880.0
 10
16210.0
 20
22180.0
 10
17310.0
 20
22180.0
 10
17310.0
 20
21880.0
  0
LWPOLYLINE
  5
188
100
AcDbEntity
  8
SOLDERMASK_PADS_TOP
100
AcDbPolyline
 90
        4
 70
         1
 10
12710.0
 20
21880.0
 10
12710.0
 20
22180.0
 10
13810.0
 20
22180.0
 10
13810.0
 20
21880.0
  0
LWPOLYLINE
  5
189
100
AcDbEntity
  8
SOLDERMASK_PADS_TOP
100
AcDbPolyline
 90
        4
 70
         1
 10
16210.0
 20
21380.0
 10
16210.0
 20
21680.0
 10
17310.0
 20
21680.0
 10
17310.0
 20
21380.0
  0
LWPOLYLINE
  5
18A
100
AcDbEntity
  8
SOLDERMASK_PADS_TOP
100
AcDbPolyline
 90
        4
 70
         1
 10
12710.0
 20
21380.0
 10
12710.0
 20
21680.0
 10
13810.0
 20
21680.0
 10
13810.0
 20
21380.0
  0
LWPOLYLINE
  5
18B
100
AcDbEntity
  8
SOLDERMASK_PADS_TOP
100
AcDbPolyline
 90
        4
 70
         1
 10
10045.0
 20
22870.0
 10
10045.0
 20
23720.0
 10
11295.0
 20
23720.0
 10
11295.0
 20
22870.0
  0
LWPOLYLINE
  5
18C
100
AcDbEntity
  8
SOLDERMASK_PADS_TOP
100
AcDbPolyline
 90
        4
 70
         1
 10
10045.0
 20
21320.0
 10
10045.0
 20
22170.0
 10
11295.0
 20
22170.0
 10
11295.0
 20
21320.0
  0
LWPOLYLINE
  5
18D
100
AcDbEntity
  8
SOLDERMASK_PADS_TOP
100
AcDbPolyline
 90
        4
 70
         1
 10
3035.0
 20
31605.0
 10
3035.0
 20
31855.0
 10
3785.0
 20
31855.0
 10
3785.0
 20
31605.0
  0
LWPOLYLINE
  5
18E
100
AcDbEntity
  8
SOLDERMASK_PADS_TOP
100
AcDbPolyline
 90
        4
 70
         1
 10
3035.0
 20
31105.0
 10
3035.0
 20
31355.0
 10
3785.0
 20
31355.0
 10
3785.0
 20
31105.0
  0
LWPOLYLINE
  5
18F
100
AcDbEntity
  8
SOLDERMASK_PADS_TOP
100
AcDbPolyline
 90
        4
 70
         1
 10
3035.0
 20
30605.0
 10
3035.0
 20
30855.0
 10
3785.0
 20
30855.0
 10
3785.0
 20
30605.0
  0
LWPOLYLINE
  5
190
100
AcDbEntity
  8
SOLDERMASK_PADS_TOP
100
AcDbPolyline
 90
        4
 70
         1
 10
3035.0
 20
30105.0
 10
3035.0
 20
30355.0
 10
3785.0
 20
30355.0
 10
3785.0
 20
30105.0
  0
LWPOLYLINE
  5
191
100
AcDbEntity
  8
SOLDERMASK_PADS_TOP
100
AcDbPolyline
 90
        4
 70
         1
 10
6135.0
 20
30105.0
 10
6135.0
 20
30355.0
 10
6885.0
 20
30355.0
 10
6885.0
 20
30105.0
  0
LWPOLYLINE
  5
192
100
AcDbEntity
  8
SOLDERMASK_PADS_TOP
100
AcDbPolyline
 90
        4
 70
         1
 10
6135.0
 20
30605.0
 10
6135.0
 20
30855.0
 10
6885.0
 20
30855.0
 10
6885.0
 20
30605.0
  0
LWPOLYLINE
  5
193
100
AcDbEntity
  8
SOLDERMASK_PADS_TOP
100
AcDbPolyline
 90
        4
 70
         1
 10
6135.0
 20
31105.0
 10
6135.0
 20
31355.0
 10
6885.0
 20
31355.0
 10
6885.0
 20
31105.0
  0
LWPOLYLINE
  5
194
100
AcDbEntity
  8
SOLDERMASK_PADS_TOP
100
AcDbPolyline
 90
        4
 70
         1
 10
6135.0
 20
31605.0
 10
6135.0
 20
31855.0
 10
6885.0
 20
31855.0
 10
6885.0
 20
31605.0
  0
LWPOLYLINE
  5
195
100
AcDbEntity
  8
SOLDERMASK_PADS_TOP
100
AcDbPolyline
 90
        4
 70
         1
 10
1850.0
 20
13270.0
 10
1850.0
 20
13670.0
 10
2350.0
 20
13670.0
 10
2350.0
 20
13270.0
  0
LWPOLYLINE
  5
196
100
AcDbEntity
  8
SOLDERMASK_PADS_TOP
100
AcDbPolyline
 90
        4
 70
         1
 10
1850.0
 20
12470.0
 10
1850.0
 20
12870.0
 10
2350.0
 20
12870.0
 10
2350.0
 20
12470.0
  0
CIRCLE
  5
197
100
AcDbEntity
  8
SOLDERMASK_PADS_TOP
100
AcDbCircle
 10
4000.0
 20
3300.0
 30
0.0
 40
2250.0
  0
CIRCLE
  5
198
100
AcDbEntity
  8
SOLDERMASK_PADS_TOP
100
AcDbCircle
 10
17000.0
 20
37400.0
 30
0.0
 40
2000.0
  0
LWPOLYLINE
  5
199
100
AcDbEntity
  8
SOLDERMASK_PADS_TOP
100
AcDbPolyline
 90
        4
 70
         1
 10
830.0
 20
13260.0
 10
830.0
 20
13660.0
 10
1330.0
 20
13660.0
 10
1330.0
 20
13260.0
  0
LWPOLYLINE
  5
19A
100
AcDbEntity
  8
SOLDERMASK_PADS_TOP
100
AcDbPolyline
 90
        4
 70
         1
 10
830.0
 20
12460.0
 10
830.0
 20
12860.0
 10
1330.0
 20
12860.0
 10
1330.0
 20
12460.0
  0
ENDSEC
  0
SECTION
  2
OBJECTS
  0
DICTIONARY
  5
19
100
AcDbDictionary
  3
ACAD_GROUP
350
1A
  3
ACAD_MLINESTYLE
350
1B
  0
DICTIONARY
  5
1A
102
{ACAD_REACTORS
330
19
102
}
100
AcDbDictionary
  0
DICTIONARY
  5
1B
102
{ACAD_REACTORS
330
19
102
}
100
AcDbDictionary
  3
STANDARD
350
1C
  0
MLINESTYLE
  5
1C
102
{ACAD_REACTORS
330
1B
102
}
100
AcDbMlineStyle
  2
STANDARD
 70
         0
  3

 62
         0
 51
90.0
 52
90.0
 71
         2
 49
0.5
 62
       256
  6
BYLAYER
 49
-0.5
 62
       256
  6
BYLAYER
  0
DICTIONARY
  5
22
102
{ACAD_REACTORS
330
19
102
}
100
AcDbDictionary
  0
ENDSEC
  0
EOF
